  0
SECTION
  2
HEADER
  9
$ACADVER
  1
AC1009
  9
$INSBASE
 10
0.0
 20
0.0
 30
0.0
  9
$EXTMIN
 10
0.0
 20
-2.960436562073669
 30
0.0
  9
$EXTMAX
 10
1002.25000000005
 20
663.56849853109998
 30
0.0
  9
$LIMMIN
 10
0.0
 20
0.0
  9
$LIMMAX
 10
1125.0
 20
810.0
  9
$ORTHOMODE
 70
     1
  9
$REGENMODE
 70
     1
  9
$FILLMODE
 70
     1
  9
$QTEXTMODE
 70
     0
  9
$MIRRTEXT
 70
     0
  9
$DRAGMODE
 70
     2
  9
$LTSCALE
 40
30.0
  9
$OSMODE
 70
    37
  9
$ATTMODE
 70
     1
  9
$TEXTSIZE
 40
0.2
  9
$TRACEWID
 40
0.05
  9
$TEXTSTYLE
  7
STANDARD
  9
$CLAYER
  8
0
  9
$CELTYPE
  6
BYLAYER
  9
$CECOLOR
 62
   256
  9
$DIMSCALE
 40
3.0
  9
$DIMASZ
 40
3.0
  9
$DIMEXO
 40
2.0
  9
$DIMDLI
 40
0.38
  9
$DIMRND
 40
0.0
  9
$DIMDLE
 40
0.0
  9
$DIMEXE
 40
2.0
  9
$DIMTP
 40
0.0
  9
$DIMTM
 40
0.0
  9
$DIMTXT
 40
3.2000000000000002
  9
$DIMCEN
 40
0.0
  9
$DIMTSZ
 40
0.0
  9
$DIMTOL
 70
     0
  9
$DIMLIM
 70
     0
  9
$DIMTIH
 70
     0
  9
$DIMTOH
 70
     0
  9
$DIMSE1
 70
     0
  9
$DIMSE2
 70
     0
  9
$DIMTAD
 70
     1
  9
$DIMZIN
 70
     0
  9
$DIMBLK
  1

  9
$DIMASO
 70
     0
  9
$DIMSHO
 70
     0
  9
$DIMPOST
  1

  9
$DIMAPOST
  1

  9
$DIMALT
 70
     0
  9
$DIMALTD
 70
     2
  9
$DIMALTF
 40
25.399999999999999
  9
$DIMLFAC
 40
1.0
  9
$DIMTOFL
 70
     1
  9
$DIMTVP
 40
1.6000000000000001
  9
$DIMTIX
 70
     1
  9
$DIMSOXD
 70
     0
  9
$DIMSAH
 70
     0
  9
$DIMBLK1
  1

  9
$DIMBLK2
  1

  9
$DIMSTYLE
  2
STANDARD
  9
$DIMCLRD
 70
     0
  9
$DIMCLRE
 70
     0
  9
$DIMCLRT
 70
     0
  9
$DIMTFAC
 40
1.0
  9
$DIMGAP
 40
0.09
  9
$LUNITS
 70
     2
  9
$LUPREC
 70
     4
  9
$SKETCHINC
 40
0.1
  9
$FILLETRAD
 40
0.0
  9
$AUNITS
 70
     0
  9
$AUPREC
 70
     4
  9
$MENU
  1
E:\r13\win\SUPPORT\ACAD
  9
$ELEVATION
 40
0.0
  9
$PELEVATION
 40
0.0
  9
$THICKNESS
 40
0.0
  9
$LIMCHECK
 70
     0
  9
$BLIPMODE
 70
     0
  9
$CHAMFERA
 40
0.0
  9
$CHAMFERB
 40
0.0
  9
$SKPOLY
 70
     0
  9
$TDCREATE
 40
2449840.6097916672
  9
$TDUPDATE
 40
2457906.601652408
  9
$TDINDWG
 40
0.1200003472
  9
$TDUSRTIMER
 40
0.1200003472
  9
$USRTIMER
 70
     1
  9
$ANGBASE
 50
0.0
  9
$ANGDIR
 70
     0
  9
$PDMODE
 70
     0
  9
$PDSIZE
 40
0.0
  9
$PLINEWID
 40
0.0
  9
$COORDS
 70
     1
  9
$SPLFRAME
 70
     0
  9
$SPLINETYPE
 70
     6
  9
$SPLINESEGS
 70
     8
  9
$ATTDIA
 70
     0
  9
$ATTREQ
 70
     1
  9
$HANDLING
 70
     1
  9
$HANDSEED
  5
35CB
  9
$SURFTAB1
 70
     6
  9
$SURFTAB2
 70
     6
  9
$SURFTYPE
 70
     6
  9
$SURFU
 70
     6
  9
$SURFV
 70
     6
  9
$UCSNAME
  2

  9
$UCSORG
 10
0.0
 20
0.0
 30
0.0
  9
$UCSXDIR
 10
1.0
 20
0.0
 30
0.0
  9
$UCSYDIR
 10
0.0
 20
1.0
 30
0.0
  9
$PUCSNAME
  2

  9
$PUCSORG
 10
0.0
 20
0.0
 30
0.0
  9
$PUCSXDIR
 10
1.0
 20
0.0
 30
0.0
  9
$PUCSYDIR
 10
0.0
 20
1.0
 30
0.0
  9
$USERI1
 70
     0
  9
$USERI2
 70
     1
  9
$USERI3
 70
     0
  9
$USERI4
 70
     0
  9
$USERI5
 70
     0
  9
$USERR1
 40
0.0
  9
$USERR2
 40
0.0
  9
$USERR3
 40
0.0
  9
$USERR4
 40
0.0
  9
$USERR5
 40
0.0
  9
$WORLDVIEW
 70
     1
  9
$SHADEDGE
 70
     3
  9
$SHADEDIF
 70
    70
  9
$TILEMODE
 70
     1
  9
$MAXACTVP
 70
    16
  9
$PLIMCHECK
 70
     0
  9
$PEXTMIN
 10
1.0000000000000000E+020
 20
1.0000000000000000E+020
 30
1.0000000000000000E+020
  9
$PEXTMAX
 10
-1.0000000000000000E+020
 20
-1.0000000000000000E+020
 30
-1.0000000000000000E+020
  9
$PLIMMIN
 10
0.0
 20
0.0
  9
$PLIMMAX
 10
12.0
 20
9.0
  9
$UNITMODE
 70
     0
  9
$VISRETAIN
 70
     0
  9
$PLINEGEN
 70
     0
  9
$PSLTSCALE
 70
     0
  0
ENDSEC
  0
SECTION
  2
TABLES
  0
TABLE
  2
VPORT
 70
     1
  0
VPORT
  2
*ACTIVE
 70
     0
 10
0.0
 20
0.0
 11
1.0
 21
1.0
 12
981.82565622171956
 22
330.29925651584068
 13
0.0
 23
0.0
 14
30.0
 24
30.0
 15
30.0
 25
30.0
 16
0.0
 26
0.0
 36
1.0
 17
0.0
 27
0.0
 37
0.0
 40
757.24358680306989
 41
2.6019575856443709
 42
50.0
 43
0.0
 44
0.0
 50
0.0
 51
0.0
 71
     0
 72
   500
 73
     1
 74
     0
 75
     0
 76
     0
 77
     0
 78
     2
  0
ENDTAB
  0
TABLE
  2
LTYPE
 70
     4
  0
LTYPE
  2
CONTINUOUS
 70
     0
  3
Solid Line
 72
    65
 73
     0
 40
0.0
  0
LTYPE
  2
CENTER
 70
     0
  3
____ _ ____ _ ____ _ ____ _ ____ _ ____ _ ____
 72
    65
 73
     4
 40
2.0
 49
1.25
 49
-0.25
 49
0.25
 49
-0.25
  0
LTYPE
  2
HIDDEN
 70
     0
  3
_ _ _ _ _ _ _ _ _ _ _ _ _ _ _ _ _ _ _ _ _ _ _
 72
    65
 73
     2
 40
0.375
 49
0.25
 49
-0.125
  0
LTYPE
  2
PHANTOM2
 70
     0
  3
___ _ _ ___ _ _ ___ _ _ ___ _ _
 72
    65
 73
     6
 40
1.25
 49
0.625
 49
-0.125
 49
0.125
 49
-0.125
 49
0.125
 49
-0.125
  0
ENDTAB
  0
TABLE
  2
LAYER
 70
     4
  0
LAYER
  2
0
 70
     0
 62
     7
  6
CONTINUOUS
  0
LAYER
  2
1
 70
     0
 62
     1
  6
CENTER
  0
LAYER
  2
2
 70
     0
 62
     2
  6
HIDDEN
  0
LAYER
  2
3
 70
     0
 62
     3
  6
CONTINUOUS
  0
ENDTAB
  0
TABLE
  2
STYLE
 70
     2
  0
STYLE
  2
STANDARD
 70
     0
 40
0.0
 41
1.0
 50
0.0
 71
     0
 42
0.2
  3
TXT
  4
BIGFONT
  0
STYLE
  2
STANDARD1
 70
     0
 40
0.0
 41
1.0
 50
0.0
 71
     0
 42
3.0
  3
txt
  4

  0
ENDTAB
  0
TABLE
  2
VIEW
 70
     1
  0
VIEW
  2
ALL
 70
     0
 40
810.0
 10
662.97478991596643
 20
405.0
 41
0.0
 11
0.0
 21
0.0
 31
1.0
 12
0.0
 22
0.0
 32
0.0
 42
0.0
 43
0.0
 44
0.0
 50
0.0
 71
     0
  0
ENDTAB
  0
TABLE
  2
UCS
 70
     0
  0
ENDTAB
  0
TABLE
  2
APPID
 70
     4
  0
APPID
  2
ACAD
 70
     0
  0
APPID
  2
ACAD_MLEADERVER
 70
     0
  0
APPID
  2
ACAD_EXEMPT_FROM_CAD_STANDARDS
 70
     0
  0
APPID
  2
ACAD_NAV_VCDISPLAY
 70
     0
  0
ENDTAB
  0
TABLE
  2
DIMSTYLE
 70
     1
  0
DIMSTYLE
  2
STANDARD
 70
     0
  3

  4

  5

  6

  7

 40
1.0
 41
0.18
 42
0.0625
 43
0.38
 44
0.18
 45
0.0
 46
0.0
 47
0.0
 48
0.0
140
0.18
141
0.09
142
0.0
143
25.399999999999999
144
1.0
145
0.0
146
1.0
147
0.09
 71
     0
 72
     0
 73
     1
 74
     1
 75
     0
 76
     0
 77
     0
 78
     0
170
     0
171
     2
172
     0
173
     0
174
     0
175
     0
176
     0
177
     0
178
     0
  0
ENDTAB
  0
ENDSEC
  0
SECTION
  2
BLOCKS
  0
BLOCK
  8
0
  2
$MODEL_SPACE
 70
     0
 10
0.0
 20
0.0
 30
0.0
  3
$MODEL_SPACE
  1

  0
ENDBLK
  5
1D4
  8
0
  0
BLOCK
 67
     1
  8
0
  2
$PAPER_SPACE
 70
     0
 10
0.0
 20
0.0
 30
0.0
  3
$PAPER_SPACE
  1

  0
ENDBLK
  5
1D2
 67
     1
  8
0
  0
ENDSEC
  0
SECTION
  2
ENTITIES
  0
TEXT
  5
335A
  8
0
 62
     3
 10
0.0
 20
0.0
 30
0.0
 40
10.0
  1
HR30-LC
  7
STANDARD1
  0
LINE
  5
335B
  8
0
 10
726.21269673119991
 20
253.5448740274
 30
0.0
 11
726.21269673120321
 21
342.0206995186
 31
0.0
  0
LINE
  5
335C
  8
0
 10
694.46269944320341
 20
342.0206995186
 30
0.0
 11
694.46269944320011
 21
265.56134922799998
 31
0.0
  0
LINE
  5
335D
  8
0
 10
605.53730055699987
 20
265.56134922799998
 30
0.0
 11
605.53730055700316
 21
342.0206995186
 31
0.0
  0
LINE
  5
335E
  8
0
 10
573.78730326900325
 20
342.0206995186
 30
0.0
 11
573.78730326899995
 21
253.5448740274
 31
0.0
  0
ARC
  5
335F
  8
0
 10
650.00000000010334
 20
342.020699987
 30
0.0
 40
76.212699999999984
 50
0.0
 51
180.0
  0
ARC
  5
3360
  8
0
 10
650.00000000010334
 20
342.020699987
 30
0.0
 40
44.462700000000041
 50
0.0
 51
180.0
  0
LINE
  5
3361
  8
0
 10
694.44999992849989
 20
241.3390013426
 30
0.0
 11
694.44999992849989
 21
248.83200182019999
 31
0.0
  0
LINE
  5
3362
  8
0
 10
605.55000007159992
 20
248.83200182019999
 30
0.0
 11
605.55000007159992
 21
241.3390013426
 31
0.0
  0
LINE
  5
3363
  8
0
 10
694.44999992849989
 20
248.83200182019999
 30
0.0
 11
693.43400150539992
 21
249.84800024329999
 31
0.0
  0
LINE
  5
3364
  8
0
 10
606.56599849469978
 20
249.84800024329999
 30
0.0
 11
605.55000007159992
 21
248.83200182019999
 31
0.0
  0
LINE
  5
3365
  8
0
 10
605.55000007159992
 20
241.3390013426
 30
0.0
 11
606.56599849469978
 21
240.3229991943
 31
0.0
  0
LINE
  5
3366
  8
0
 10
693.43400150539992
 20
240.3229991943
 30
0.0
 11
694.44999992849989
 21
241.3390013426
 31
0.0
  0
LINE
  5
3367
  8
0
 10
690.51300138240003
 20
197.29540066699991
 30
0.0
 11
690.51300138240003
 21
206.4902002494
 31
0.0
  0
LINE
  5
3368
  8
0
 10
609.48699861770001
 20
206.4902002494
 30
0.0
 11
609.48699861770001
 21
197.29540066699991
 31
0.0
  0
LINE
  5
3369
  8
0
 10
690.51300138240003
 20
206.4902002494
 30
0.0
 11
689.75100070250005
 21
207.2522002309
 31
0.0
  0
LINE
  5
336A
  8
0
 10
610.24899929770004
 20
207.2522002309
 30
0.0
 11
609.48699861770001
 21
206.4902002494
 31
0.0
  0
LINE
  5
336B
  8
0
 10
609.48699861770001
 20
197.29540066699991
 30
0.0
 11
610.24899929770004
 21
196.53339998699991
 31
0.0
  0
LINE
  5
336C
  8
0
 10
689.75100070250005
 20
196.53339998699991
 30
0.0
 11
690.51300138240003
 21
197.29540066699991
 31
0.0
  0
LINE
  5
336D
  8
0
 10
628.66399958739999
 20
250.66079898180001
 30
0.0
 11
628.66399958739999
 21
249.84800024329999
 31
0.0
  0
LINE
  5
336E
  8
0
 10
671.33600041279988
 20
249.84800024329999
 30
0.0
 11
671.33600041279988
 21
250.66079898180001
 31
0.0
  0
LINE
  5
3371
  8
0
 10
731.53400157692806
 20
210.69549957864999
 30
0.0
 11
732.55000000002815
 21
211.71149963155
 31
0.0
  0
LINE
  5
3372
  8
0
 10
732.55000000002815
 20
231.9553003424501
 30
0.0
 11
731.53400157692806
 21
232.9712987655501
 31
0.0
  0
LINE
  5
3373
  8
0
 10
731.53400157692806
 20
232.97129876554999
 30
0.0
 11
723.17739725120009
 21
232.97129876554999
 31
0.0
  0
LINE
  5
3374
  8
0
 10
723.17739725120009
 20
210.69549957864999
 30
0.0
 11
731.53400157692806
 21
210.69549957864999
 31
0.0
  0
LINE
  5
3375
  8
0
 10
568.46599842313185
 20
232.97129876554999
 30
0.0
 11
567.45000000003176
 21
231.95530034244999
 31
0.0
  0
LINE
  5
3376
  8
0
 10
567.45000000003176
 20
211.71149963155
 30
0.0
 11
568.46599842313185
 21
210.69549957864999
 31
0.0
  0
LINE
  5
3377
  8
0
 10
568.46599842313185
 20
210.69549957864999
 30
0.0
 11
576.82260274889995
 21
210.69549957864999
 31
0.0
  0
LINE
  5
3378
  8
0
 10
576.82260274889995
 20
232.97129876554999
 30
0.0
 11
568.46599842313185
 21
232.97129876554999
 31
0.0
  0
LINE
  5
3379
  8
0
 10
698.03140088919997
 20
230.59005036585
 30
0.0
 11
697.75200039159995
 21
230.59005036585
 31
0.0
  0
LINE
  5
337A
  8
0
 10
697.75200039159995
 20
213.07674960804999
 30
0.0
 11
698.03140088919997
 21
213.07674960804999
 31
0.0
  0
LINE
  5
337B
  8
0
 10
601.96859911089996
 20
213.07674960804999
 30
0.0
 11
602.24799960859991
 21
213.07674960804999
 31
0.0
  0
LINE
  5
337C
  8
0
 10
602.24799960859991
 20
230.59005036585
 30
0.0
 11
601.96859911089996
 21
230.59005036585
 31
0.0
  0
LINE
  5
337D
  8
0
 10
698.03140088919997
 20
252.57850019630001
 30
0.0
 11
698.03140088919997
 21
204.1661001313
 31
0.0
  0
ARC
  5
337E
  8
0
 10
672.63135198550003
 20
252.57848542630001
 30
0.0
 40
25.400048903751021
 50
0.0000333172997716
 51
30.73948686720464
  0
ARC
  5
337F
  8
0
 10
748.57757376220002
 20
241.50405834989999
 30
0.0
 40
25.40017651103048
 50
151.70283990070291
 51
179.9999088502997
  0
LINE
  5
3380
  8
0
 10
723.17739725119964
 20
204.1661001313
 30
0.0
 11
723.17739725120009
 21
241.50409875810001
 31
0.0
  0
ARC
  5
3381
  8
0
 10
710.33770000010009
 20
191.4661002309
 30
0.0
 40
15.875000000000041
 50
53.130102354195763
 51
126.8698976458042
  0
LINE
  5
3382
  8
0
 10
698.03140088919997
 20
204.1661001313
 30
0.0
 11
723.17739725119918
 21
204.1661001313
 31
0.0
  0
ARC
  5
3383
  8
0
 10
627.36856182049985
 20
252.57850911919999
 30
0.0
 40
25.399962709555808
 50
149.2604596878038
 51
180.00002012760041
  0
LINE
  5
3384
  8
0
 10
601.96859911089996
 20
204.1661001313
 30
0.0
 11
601.96859911089996
 21
252.57850019630001
 31
0.0
  0
LINE
  5
3385
  8
0
 10
601.96859911089996
 20
204.1661001313
 30
0.0
 11
576.82260274889995
 21
204.1661001313
 31
0.0
  0
ARC
  5
3386
  8
0
 10
589.6623000001
 20
191.4661002309
 30
0.0
 40
15.875000000000011
 50
53.130102354195763
 51
126.8698976458042
  0
LINE
  5
3387
  8
0
 10
576.82260274889995
 20
241.50409875810001
 30
0.0
 11
576.82260274889973
 21
204.1661001313
 31
0.0
  0
ARC
  5
3388
  8
0
 10
551.42208351110003
 20
241.5039719536
 30
0.0
 40
25.400519238126449
 50
0.0002860319997004
 51
28.296965216997599
  0
LINE
  5
3389
  8
0
 10
602.24799960859946
 20
207.2522002309
 30
0.0
 11
697.75200039159961
 21
207.2522002309
 31
0.0
  0
LINE
  5
338C
  8
0
 10
602.24799960859991
 20
240.3229991943
 30
0.0
 11
602.24799960859946
 21
207.2522002309
 31
0.0
  0
LINE
  5
338D
  8
0
 10
697.75200039159961
 20
207.2522002309
 30
0.0
 11
697.75200039160006
 21
240.3229991943
 31
0.0
  0
LINE
  5
338E
  8
0
 10
697.75200039160006
 20
240.3229991943
 30
0.0
 11
602.24799960859991
 21
240.3229991943
 31
0.0
  0
LINE
  5
3391
  8
0
 10
693.43400150539992
 20
249.84800024329999
 30
0.0
 11
606.56599849469978
 21
249.84800024329999
 31
0.0
  0
LINE
  5
3392
  8
0
 10
610.24899929769981
 20
196.53339998699991
 30
0.0
 11
689.75100070250005
 21
196.53339998699991
 31
0.0
  0
LINE
  5
3393
  8
0
 10
650.00000000010004
 20
266.98344899710003
 30
0.0
 11
650.00000000010004
 21
250.66079898180001
 31
0.0
  0
LINE
  5
3394
  8
0
 10
673.00000000010004
 20
269.32980073990001
 30
0.0
 11
627.00000000010004
 21
269.32980073990001
 31
0.0
  0
ARC
  5
3395
  8
0
 10
661.50000000021032
 20
235.07259471812711
 30
0.0
 40
33.91979688642575
 50
70.181905047827513
 51
109.8180949525734
  0
ARC
  5
3396
  8
0
 10
638.50000000009982
 20
235.0725956761554
 30
0.0
 40
33.919795985100571
 50
70.181904498960066
 51
109.81809550103981
  0
LINE
  5
3398
  8
0
 10
627.00000000010004
 20
250.66079898180001
 30
0.0
 11
627.00000000010004
 21
269.32980073990001
 31
0.0
  0
LINE
  5
3399
  8
0
 10
673.00000000010004
 20
269.32980073990001
 30
0.0
 11
673.00000000010004
 21
250.66079898180001
 31
0.0
  0
LINE
  5
339A
  8
0
 10
627.00000000010027
 20
250.66079898180001
 30
0.0
 11
673.00000000010004
 21
250.66079898180001
 31
0.0
  0
LINE
  5
339B
  8
0
 10
732.55000000002815
 20
211.71149963155
 30
0.0
 11
732.55000000002815
 21
231.9553003424501
 31
0.0
  0
LINE
  5
339C
  8
0
 10
731.53400157692806
 20
210.69549957864999
 30
0.0
 11
731.53400157692806
 21
232.9712987655501
 31
0.0
  0
LINE
  5
339D
  8
0
 10
567.45000000003176
 20
231.95530034244999
 30
0.0
 11
567.45000000003176
 21
211.71149963155
 31
0.0
  0
LINE
  5
339E
  8
0
 10
568.46599842313185
 20
232.97129876554979
 30
0.0
 11
568.46599842313185
 21
210.69549957864999
 31
0.0
  0
LINE
  5
339F
  8
0
 10
589.66230005030002
 20
554.99109972430006
 30
0.0
 11
710.33769994980003
 21
554.99109972430006
 31
0.0
  0
LINE
  5
33A0
  8
0
 10
710.33769994980003
 20
586.74110073750012
 30
0.0
 11
589.66230005030002
 21
586.74110073750012
 31
0.0
  0
LINE
  5
33A1
  8
0
 10
568.46599842313185
 20
582.00400017359993
 30
0.0
 11
567.45000000003176
 21
580.98799988789995
 31
0.0
  0
LINE
  5
33A2
  8
0
 10
567.45000000003176
 20
560.74420057390012
 30
0.0
 11
568.46599842313185
 21
559.72820028820001
 31
0.0
  0
LINE
  5
33A3
  8
0
 10
568.46599842313185
 20
559.72820028820001
 30
0.0
 11
576.82260274889995
 21
559.72820028820001
 31
0.0
  0
LINE
  5
33A4
  8
0
 10
576.82260274889995
 20
582.00400017359993
 30
0.0
 11
568.46599842313185
 21
582.00400017359993
 31
0.0
  0
LINE
  5
33A5
  8
0
 10
731.53400157692795
 20
582.00400017359993
 30
0.0
 11
723.17739725120009
 21
582.00400017359993
 31
0.0
  0
LINE
  5
33A6
  8
0
 10
723.17739725120009
 20
559.72820028820001
 30
0.0
 11
731.53400157692795
 21
559.72820028820001
 31
0.0
  0
LINE
  5
33A7
  8
0
 10
731.53400157692806
 20
559.72820028820001
 30
0.0
 11
732.55000000002815
 21
560.74420057390012
 31
0.0
  0
LINE
  5
33A8
  8
0
 10
732.55000000002815
 20
580.98799988789995
 30
0.0
 11
731.53400157692806
 21
582.00400017359993
 31
0.0
  0
ARC
  5
33A9
  8
0
 10
710.33770000010009
 20
570.86610023089986
 30
0.0
 40
15.87500000000006
 50
0.0
 51
90.0
  0
ARC
  5
33AA
  8
0
 10
710.33770000010009
 20
570.86610023089986
 30
0.0
 40
15.87499999999994
 50
270.0
 51
0.0
  0
ARC
  5
33AB
  8
0
 10
589.6623000001
 20
570.86610023089986
 30
0.0
 40
15.87499999999994
 50
180.0
 51
270.0
  0
ARC
  5
33AC
  8
0
 10
589.6623000001
 20
570.86610023089986
 30
0.0
 40
15.87500000000006
 50
90.0
 51
180.0
  0
LINE
  5
33AD
  8
0
 10
567.45000000003176
 20
580.98799988789995
 30
0.0
 11
567.45000000003176
 21
560.74420057390012
 31
0.0
  0
LINE
  5
33AE
  8
0
 10
568.46599842313185
 20
582.00400017359993
 30
0.0
 11
568.46599842313185
 21
559.72820028820001
 31
0.0
  0
LINE
  5
33AF
  8
0
 10
576.82260274889995
 20
559.72820028820001
 30
0.0
 11
576.82260274889995
 21
561.53026942320002
 31
0.0
  0
LINE
  5
33B0
  8
0
 10
576.82260274889995
 20
580.20193103859992
 30
0.0
 11
576.82260274889995
 21
582.00400017359993
 31
0.0
  0
LINE
  5
33B1
  8
0
 10
723.17739725120009
 20
561.53026942320002
 30
0.0
 11
723.17739725120009
 21
559.72820028820001
 31
0.0
  0
LINE
  5
33B2
  8
0
 10
723.17739725120009
 20
582.00400017359993
 30
0.0
 11
723.17739725120009
 21
580.20193103859992
 31
0.0
  0
LINE
  5
33B3
  8
0
 10
731.53400157692806
 20
559.72820028820001
 30
0.0
 11
731.53400157692806
 21
582.00400017359993
 31
0.0
  0
LINE
  5
33B4
  8
0
 10
732.55000000002815
 20
560.74420057390012
 30
0.0
 11
732.55000000002815
 21
580.98799988789995
 31
0.0
  0
ARC
  5
33B5
  8
0
 10
950.00000000010004
 20
402.35839998699993
 30
0.0
 40
15.875
 50
0.0
 51
180.0
  0
LINE
  5
33B6
  8
0
 10
934.12499949349956
 20
402.3584069188999
 30
0.0
 11
934.12499949349956
 21
207.34110023119999
 31
0.0
  0
LINE
  5
33B7
  8
0
 10
965.87500050680001
 20
207.34110023119999
 30
0.0
 11
965.87500050680001
 21
402.3584069188999
 31
0.0
  0
LINE
  5
33B8
  8
0
 10
994.44999992860005
 20
248.83200182019999
 30
0.0
 11
993.43400150549985
 21
249.84800024329999
 31
0.0
  0
LINE
  5
33B9
  8
0
 10
906.56599849469956
 20
249.84800024329999
 30
0.0
 11
905.55000007160015
 21
248.83200182019999
 31
0.0
  0
LINE
  5
33BA
  8
0
 10
994.44999992860005
 20
241.3390013426
 30
0.0
 11
994.44999992860005
 21
248.83200182019999
 31
0.0
  0
LINE
  5
33BB
  8
0
 10
905.55000007160015
 20
248.83200182019999
 30
0.0
 11
905.55000007160015
 21
241.3390013426
 31
0.0
  0
LINE
  5
33BC
  8
0
 10
905.55000007160015
 20
241.3390013426
 30
0.0
 11
906.56599849469956
 21
240.3229991943
 31
0.0
  0
LINE
  5
33BD
  8
0
 10
993.43400150549985
 20
240.3229991943
 30
0.0
 11
994.44999992860005
 21
241.3390013426
 31
0.0
  0
LINE
  5
33BE
  8
0
 10
990.51300138250008
 20
197.29540066699991
 30
0.0
 11
990.51300138250008
 21
206.4902002494
 31
0.0
  0
LINE
  5
33BF
  8
0
 10
909.48699861780005
 20
206.4902002494
 30
0.0
 11
909.48699861780005
 21
197.29540066699991
 31
0.0
  0
LINE
  5
33C0
  8
0
 10
909.48699861780005
 20
197.29540066699991
 30
0.0
 11
910.24899929769981
 21
196.53339998699991
 31
0.0
  0
LINE
  5
33C1
  8
0
 10
989.75100070249971
 20
196.53339998699991
 30
0.0
 11
990.51300138250008
 21
197.29540066699991
 31
0.0
  0
LINE
  5
33C2
  8
0
 10
990.51300138250008
 20
206.4902002494
 30
0.0
 11
989.75100070249971
 21
207.2522002309
 31
0.0
  0
LINE
  5
33C3
  8
0
 10
910.24899929769981
 20
207.2522002309
 30
0.0
 11
909.48699861780005
 21
206.4902002494
 31
0.0
  0
LINE
  5
33C4
  8
0
 10
937.30000015359974
 20
204.1661001313
 30
0.0
 11
962.69999984659989
 21
204.1661001313
 31
0.0
  0
LINE
  5
33C5
  8
0
 10
959.33583080779999
 20
215.75926798810491
 30
0.0
 11
959.33583080779999
 21
204.1661001313
 31
0.0
  0
LINE
  5
33C6
  8
0
 10
959.33583080779999
 20
241.50409875810001
 30
0.0
 11
959.33583080779999
 21
227.90753198589491
 31
0.0
  0
POLYLINE
  5
33C7
  8
0
 66
     1
 10
0.0
 20
0.0
 30
0.0
 70
   128
  0
VERTEX
  5
35AB
  8
0
 10
940.6641691924001
 20
241.50409875810001
 30
0.0
  0
VERTEX
  5
35AC
  8
0
 10
940.80605711800001
 20
243.77917079630001
 30
0.0
  0
VERTEX
  5
35AD
  8
0
 10
941.24180339289978
 20
245.9982852489
 30
0.0
  0
VERTEX
  5
35AE
  8
0
 10
942.00499802839977
 20
248.1111991256
 30
0.0
  0
VERTEX
  5
35AF
  8
0
 10
943.12685523189964
 20
250.02046628299999
 30
0.0
  0
VERTEX
  5
35B0
  8
0
 10
945.28669193399992
 20
252.1082977801
 30
0.0
  0
VERTEX
  5
35B1
  8
0
 10
946.63475784489992
 20
252.84748850759999
 30
0.0
  0
VERTEX
  5
35B2
  8
0
 10
948.1135128766
 20
253.33355693519999
 30
0.0
  0
VERTEX
  5
35B3
  8
0
 10
950.00000000010004
 20
253.5448740274
 30
0.0
  0
VERTEX
  5
35B4
  8
0
 10
952.88206408739995
 20
253.0414606482
 30
0.0
  0
VERTEX
  5
35B5
  8
0
 10
955.35738654450006
 20
251.6261632591
 30
0.0
  0
VERTEX
  5
35B6
  8
0
 10
957.16812396429975
 20
249.60013060269989
 30
0.0
  0
VERTEX
  5
35B7
  8
0
 10
958.55866726499971
 20
246.6686698645
 30
0.0
  0
VERTEX
  5
35B8
  8
0
 10
959.29573457700008
 20
242.71873338520001
 30
0.0
  0
VERTEX
  5
35B9
  8
0
 10
959.33583080779999
 20
241.50409875810001
 30
0.0
  0
SEQEND
  5
35BA
  8
0
  0
LINE
  5
33C8
  8
0
 10
940.6641691924001
 20
227.9075319858951
 30
0.0
 11
940.6641691924001
 21
241.50409875810001
 31
0.0
  0
LINE
  5
33C9
  8
0
 10
940.6641691924001
 20
204.1661001313
 30
0.0
 11
940.66416919239987
 21
215.75926798810519
 31
0.0
  0
LINE
  5
33CA
  8
0
 10
959.33583080779999
 20
241.50409875810001
 30
0.0
 11
940.6641691924001
 21
241.50409875810001
 31
0.0
  0
CIRCLE
  5
33CB
  8
0
 10
950.00000000010004
 20
221.83339998700001
 30
0.0
 40
10.121899999999981
  0
CIRCLE
  5
33CC
  8
0
 10
950.00000000010004
 20
221.83339998700001
 30
0.0
 40
11.1379
  0
LINE
  5
33CD
  8
0
 10
1000.66250106695
 20
240.3229991943
 30
0.0
 11
965.87500050680001
 21
240.3229991943
 31
0.0
  0
LINE
  5
33CE
  8
0
 10
965.78609998918819
 20
207.2522002309
 30
0.0
 11
1000.66250106695
 21
207.2522002309
 31
0.0
  0
LINE
  5
33CF
  8
0
 10
899.33749893305037
 20
207.2522002309
 30
0.0
 11
934.21390001111149
 21
207.2522002309
 31
0.0
  0
LINE
  5
33D0
  8
0
 10
934.12499949349922
 20
240.3229991943
 30
0.0
 11
899.33749893305014
 21
240.3229991943
 31
0.0
  0
LINE
  5
33D1
  8
0
 10
993.43400150549985
 20
249.84800024329999
 30
0.0
 11
965.87500050680001
 21
249.84800024329999
 31
0.0
  0
LINE
  5
33D2
  8
0
 10
934.12499949349956
 20
249.84800024329999
 30
0.0
 11
906.56599849469956
 21
249.84800024329999
 31
0.0
  0
LINE
  5
33D3
  8
0
 10
905.61638474479969
 20
241.3390013426
 30
0.0
 11
905.55000007160015
 21
241.3390013426
 31
0.0
  0
LINE
  5
33D4
  8
0
 10
910.24899929769981
 20
196.53339998699991
 30
0.0
 11
989.75100070249971
 21
196.53339998699991
 31
0.0
  0
LINE
  5
33D5
  8
0
 10
299.3374989331499
 20
240.3229991943
 30
0.0
 11
297.75000000004979
 21
238.7355002612
 31
0.0
  0
LINE
  5
33D6
  8
0
 10
297.75000000004979
 20
238.7355002612
 30
0.0
 11
297.75000000004991
 21
237.7084004937
 31
0.0
  0
LINE
  5
33D7
  8
0
 10
400.66250106694991
 20
207.2522002309
 30
0.0
 11
402.25000000004979
 21
208.83970021179999
 31
0.0
  0
LINE
  5
33D8
  8
0
 10
402.25000000004979
 20
238.7355002612
 30
0.0
 11
400.66250106694991
 21
240.3229991943
 31
0.0
  0
LINE
  5
33D9
  8
0
 10
402.25000000004979
 20
208.83970021179999
 30
0.0
 11
402.25000000004979
 21
238.7355002612
 31
0.0
  0
LINE
  5
33DA
  8
0
 10
394.44999992854991
 20
241.3390013426
 30
0.0
 11
394.44999992854991
 21
248.83200182019999
 31
0.0
  0
LINE
  5
33DB
  8
0
 10
305.55000007164972
 20
248.83200182019999
 30
0.0
 11
305.55000007164972
 21
241.3390013426
 31
0.0
  0
LINE
  5
33DC
  8
0
 10
394.44999992854991
 20
248.83200182019999
 30
0.0
 11
393.43400150545
 21
249.84800024329999
 31
0.0
  0
LINE
  5
33DD
  8
0
 10
306.56599849474992
 20
249.84800024329999
 30
0.0
 11
305.55000007164972
 21
248.83200182019999
 31
0.0
  0
LINE
  5
33DE
  8
0
 10
305.55000007164972
 20
241.3390013426
 30
0.0
 11
306.56599849474992
 21
240.3229991943
 31
0.0
  0
LINE
  5
33DF
  8
0
 10
393.43400150545
 20
240.3229991943
 30
0.0
 11
394.44999992854991
 21
241.3390013426
 31
0.0
  0
LINE
  5
33E0
  8
0
 10
390.51300138244977
 20
197.295400667
 30
0.0
 11
390.51300138244977
 21
206.49020024940009
 31
0.0
  0
LINE
  5
33E1
  8
0
 10
309.4869986177498
 20
205.95839948039961
 30
0.0
 11
309.4869986177498
 21
197.295400667
 31
0.0
  0
LINE
  5
33E2
  8
0
 10
309.4869986177498
 20
197.295400667
 30
0.0
 11
310.24899929774978
 21
196.533399987
 31
0.0
  0
LINE
  5
33E3
  8
0
 10
389.7510007024498
 20
196.533399987
 30
0.0
 11
390.51300138244977
 21
197.295400667
 31
0.0
  0
LINE
  5
33E4
  8
0
 10
390.51300138244977
 20
206.49020024940009
 30
0.0
 11
389.7510007024498
 21
207.25220023090009
 31
0.0
  0
LINE
  5
33E5
  8
0
 10
327.00000000004979
 20
269.32980073990001
 30
0.0
 11
323.44188761732698
 21
266.98344899711412
 31
0.0
  0
LINE
  5
33E6
  8
0
 10
328.66399958734968
 20
250.66079898180001
 30
0.0
 11
328.66399958734968
 21
249.84800024329999
 31
0.0
  0
LINE
  5
33E7
  8
0
 10
371.33600041274991
 20
249.84800024329999
 30
0.0
 11
371.33600041274991
 21
250.66079898180001
 31
0.0
  0
CIRCLE
  5
33E8
  8
0
 10
350.00000000002478
 20
221.83339998700001
 30
0.0
 40
10.1219
  0
CIRCLE
  5
33E9
  8
0
 10
350.00000000002478
 20
221.83339998700001
 30
0.0
 40
11.1379
  0
LINE
  5
33EA
  8
0
 10
365.78609991272151
 20
207.2522002309
 30
0.0
 11
400.6625010669502
 21
207.25220023090009
 31
0.0
  0
LINE
  5
33EB
  8
0
 10
400.66250106694991
 20
240.3229991943
 30
0.0
 11
299.33749893315007
 21
240.3229991943
 31
0.0
  0
LINE
  5
33F1
  8
0
 10
393.43400150545
 20
249.84800024329999
 30
0.0
 11
306.56599849474992
 21
249.84800024329999
 31
0.0
  0
LINE
  5
33F2
  8
0
 10
310.24899929774978
 20
196.533399987
 30
0.0
 11
389.7510007024498
 21
196.533399987
 31
0.0
  0
LINE
  5
33F3
  8
0
 10
373.00000000003939
 20
269.32980073990001
 30
0.0
 11
327.00000000004979
 21
269.32980073990001
 31
0.0
  0
ARC
  5
33F4
  8
0
 10
330.08519689002452
 20
256.91591257024589
 30
0.0
 40
12.057712340005409
 50
56.610196244893729
 51
123.3898037549822
  0
ARC
  5
33F5
  8
0
 10
369.91858428709219
 20
256.90330502683219
 30
0.0
 40
12.07032045119991
 50
56.628145243828129
 51
123.3718547561727
  0
ARC
  5
33F6
  8
0
 10
350.0000000000723
 20
224.17106536939301
 30
0.0
 40
44.824474622896361
 50
72.767752202368825
 51
107.2322477976862
  0
LINE
  5
33F7
  8
0
 10
336.72094380868862
 20
266.98344899710628
 30
0.0
 11
336.72094380868862
 21
250.66079898180641
 31
0.0
  0
LINE
  5
33F8
  8
0
 10
363.2790561914112
 20
266.98344899710003
 30
0.0
 11
363.2790561914112
 21
250.66079898180001
 31
0.0
  0
LINE
  5
33F9
  8
0
 10
323.44188761739252
 20
266.98344899710003
 30
0.0
 11
323.44188761739252
 21
250.66079898180001
 31
0.0
  0
LINE
  5
33FA
  8
0
 10
323.45701232564988
 20
250.66079898180001
 30
0.0
 11
376.54298767454981
 21
250.66079898180001
 31
0.0
  0
LINE
  5
33FB
  8
0
 10
376.55811238277261
 20
250.66079898180001
 30
0.0
 11
376.55811238277261
 21
266.98344899710003
 31
0.0
  0
CIRCLE
  5
33FC
  8
0
 10
350.00000000004979
 20
570.86610023089986
 30
0.0
 40
23.0
  0
CIRCLE
  5
33FD
  8
0
 10
350.00000000004979
 20
570.86610023089986
 30
0.0
 40
6.3499999999407928
  0
CIRCLE
  5
33FE
  8
0
 10
350.00000000004979
 20
570.86610023089986
 30
0.0
 40
3.8099999999872121
  0
CIRCLE
  5
33FF
  8
0
 10
350.00000000004979
 20
570.86610023089986
 30
0.0
 40
43.43399999999999
  0
CIRCLE
  5
3400
  8
0
 10
350.00000000004979
 20
570.86610023089986
 30
0.0
 40
44.450000000000003
  0
LINE
  5
3404
  8
0
 10
371.20870006889322
 20
618.61810062240011
 30
0.0
 11
328.79129993120569
 21
618.61810062240011
 31
0.0
  0
LINE
  5
3409
  8
0
 10
328.79129993098059
 20
523.11409983950011
 30
0.0
 11
371.208700069119
 21
523.11409983950011
 31
0.0
  0
ARC
  5
340F
  8
0
 10
350.00000000004979
 20
570.8661002309002
 30
0.0
 40
52.249999999999901
 50
113.9480480958741
 51
246.0519519038551
  0
ARC
  5
3410
  8
0
 10
350.00000000004979
 20
570.86610023089986
 30
0.0
 40
52.25
 50
293.94804809614499
 51
66.051951904125872
  0
LINE
  5
3412
  8
0
 10
341.24334915554982
 20
618.89750112010006
 30
0.0
 11
341.24334915554982
 21
618.61810062249992
 31
0.0
  0
LINE
  5
3413
  8
0
 10
358.75664991334952
 20
618.61810062249992
 30
0.0
 11
358.75664991334952
 21
618.89750112010006
 31
0.0
  0
LINE
  5
3414
  8
0
 10
358.75664991334952
 20
522.83469934179993
 30
0.0
 11
358.75664991334952
 21
523.11409983949977
 31
0.0
  0
LINE
  5
3415
  8
0
 10
341.24334915554982
 20
523.11409983949977
 30
0.0
 11
341.24334915554982
 21
522.83469934179993
 31
0.0
  0
ARC
  5
3416
  8
0
 10
650.00000000000023
 20
570.86610023095022
 30
0.0
 40
43.43399999999999
 50
201.43817752599159
 51
338.5618224740083
  0
ARC
  5
3417
  8
0
 10
650.00000000000023
 20
570.86610023095022
 30
0.0
 40
43.43399999999999
 50
21.438177525849511
 51
158.56182247415049
  0
ARC
  5
3418
  8
0
 10
650.00000000000023
 20
570.86610023095022
 30
0.0
 40
44.450000000000003
 50
200.92483312681881
 51
339.0751668731811
  0
ARC
  5
3419
  8
0
 10
650.00000000000023
 20
570.86610023095022
 30
0.0
 40
44.450000000000003
 50
20.924833126679442
 51
159.07516687332051
  0
LINE
  5
341D
  8
0
 10
697.75200039150013
 20
549.6574001621068
 30
0.0
 11
697.75200039149956
 21
554.99109972430006
 31
0.0
  0
LINE
  5
341E
  8
0
 10
697.75200039150013
 20
586.74110073750012
 30
0.0
 11
697.75200039150025
 21
592.07480029979433
 31
0.0
  0
LINE
  5
3425
  8
0
 10
602.24799960860025
 20
592.07480030001943
 30
0.0
 11
602.24799960860059
 21
586.74110073750012
 31
0.0
  0
LINE
  5
3426
  8
0
 10
602.24799960860025
 20
554.99109972430006
 30
0.0
 11
602.24799960860014
 21
549.6574001618809
 31
0.0
  0
ARC
  5
3427
  8
0
 10
650.00000000000045
 20
570.86610023095022
 30
0.0
 40
52.249999999999901
 50
23.948048095876661
 51
156.05195190386419
  0
ARC
  5
3428
  8
0
 10
650.00000000000023
 20
570.86610023095022
 30
0.0
 40
52.25
 50
203.94804809613581
 51
336.05195190412331
  0
LINE
  5
342A
  8
0
 10
1000.66250106695
 20
207.2522002309
 30
0.0
 11
1002.25000000005
 21
208.83970021179999
 31
0.0
  0
LINE
  5
342B
  8
0
 10
1002.25000000005
 20
238.7355002612
 30
0.0
 11
1000.66250106695
 21
240.3229991943
 31
0.0
  0
LINE
  5
342C
  8
0
 10
1002.25000000005
 20
208.83970021179999
 30
0.0
 11
1002.25000000005
 21
238.7355002612
 31
0.0
  0
LINE
  5
342D
  8
0
 10
899.33749893305014
 20
207.2522002309
 30
0.0
 11
897.74999999994986
 21
208.83970021179999
 31
0.0
  0
LINE
  5
342E
  8
0
 10
897.74999999994986
 20
238.7355002612
 30
0.0
 11
899.33749893305014
 21
240.3229991943
 31
0.0
  0
LINE
  5
342F
  8
0
 10
897.74999999994986
 20
208.83970021179999
 30
0.0
 11
897.74999999994986
 21
238.7355002612
 31
0.0
  0
ARC
  5
3436
  8
2
 10
950.00000000010004
 20
402.35839998699993
 30
0.0
 40
15.875
 50
180.0
 51
0.0
  0
LINE
  5
3437
  8
0
 10
668.49821978367322
 20
554.99109972430006
 30
0.0
 11
649.99999999994952
 21
544.31114755263809
 31
0.0
  0
LINE
  5
3438
  8
0
 10
631.49083467889932
 20
586.74110073750012
 30
0.0
 11
649.99999999994952
 21
597.42737231808383
 31
0.0
  0
LINE
  5
3439
  8
0
 10
631.50178021622548
 20
554.99109972430006
 30
0.0
 11
649.99999999994952
 21
544.31114755263809
 31
0.0
  0
LINE
  5
343A
  8
0
 10
649.99999999994952
 20
597.4273723180836
 30
0.0
 11
668.50916532099995
 21
586.74110073750012
 31
0.0
  0
LINE
  5
343B
  8
0
 10
363.27905619141143
 20
593.86610023089986
 30
0.0
 11
376.55811238277261
 21
570.86610023089986
 31
0.0
  0
LINE
  5
343C
  8
0
 10
336.72094380868862
 20
547.86610023089986
 30
0.0
 11
323.44188761732698
 21
570.86610023089986
 31
0.0
  0
LINE
  5
343D
  8
0
 10
336.72094380868862
 20
547.86610023089986
 30
0.0
 11
363.2790561914112
 21
547.86610023089986
 31
0.0
  0
LINE
  5
343E
  8
0
 10
336.72094380868862
 20
593.86610023089986
 30
0.0
 11
363.27905619141143
 21
593.86610023089986
 31
0.0
  0
LINE
  5
343F
  8
0
 10
363.2790561914112
 20
547.86610023089986
 30
0.0
 11
376.55811238277261
 21
570.86610023089986
 31
0.0
  0
LINE
  5
3440
  8
0
 10
323.44188761732721
 20
570.86610023089986
 30
0.0
 11
336.72094380868862
 21
593.86610023089986
 31
0.0
  0
LINE
  5
3441
  8
0
 10
928.66399958735008
 20
250.66079898180001
 30
0.0
 11
928.66399958735008
 21
249.84800024329999
 31
0.0
  0
LINE
  5
3442
  8
0
 10
971.33600041274985
 20
249.84800024329999
 30
0.0
 11
971.33600041274985
 21
250.66079898180001
 31
0.0
  0
LINE
  5
3443
  8
0
 10
923.44188761739269
 20
266.98344899710003
 30
0.0
 11
923.44188761739269
 21
250.66079898180001
 31
0.0
  0
LINE
  5
3444
  8
0
 10
923.45701232564988
 20
250.66079898180001
 30
0.0
 11
934.12499949349956
 21
250.66079898180001
 31
0.0
  0
LINE
  5
3445
  8
0
 10
965.87500050680001
 20
250.66079898180001
 30
0.0
 11
976.5429876745502
 21
250.66079898180001
 31
0.0
  0
LINE
  5
3446
  8
0
 10
976.55811238277272
 20
250.66079898180001
 30
0.0
 11
976.55811238277272
 21
266.98344899710003
 31
0.0
  0
LINE
  5
3457
  8
1
 10
650.00000000009993
 20
428.23339998699993
 30
0.0
 11
649.99999999999329
 21
120.533399987
 31
0.0
  0
LINE
  5
3458
  8
1
 10
950.00000000010004
 20
428.23339998699993
 30
0.0
 11
949.99999999999318
 21
120.533399987
 31
0.0
  0
LINE
  5
3459
  8
1
 10
350.00000000004462
 20
279.32980073990001
 30
0.0
 11
349.99999999998988
 21
120.533399987
 31
0.0
  0
LINE
  5
345A
  8
1
 10
350.00000000009999
 20
663.56849853109998
 30
0.0
 11
350.00000000010027
 21
478.16370193080002
 31
0.0
  0
LINE
  5
345B
  8
1
 10
742.55000000002815
 20
221.83339998700001
 30
0.0
 11
557.45000000003188
 21
221.83339998700001
 31
0.0
  0
LINE
  5
345C
  8
1
 10
742.55000000002815
 20
570.86610023089986
 30
0.0
 11
557.45000000003188
 21
570.86610023089986
 31
0.0
  0
LINE
  5
345D
  8
1
 10
650.00000000011858
 20
508.61610023095011
 30
0.0
 11
650.00000000000045
 21
633.11610023094988
 31
0.0
  0
LINE
  5
345E
  8
1
 10
928.86210000009987
 20
221.83339998700001
 30
0.0
 11
971.13790000010022
 21
221.83339998700001
 31
0.0
  0
LINE
  5
345F
  8
1
 10
589.6623000001
 20
544.99109972424981
 30
0.0
 11
589.6623000001
 21
596.74110073755014
 31
0.0
  0
LINE
  5
3460
  8
1
 10
710.33770000010009
 20
544.99109972424981
 30
0.0
 11
710.33770000010009
 21
596.74110073755014
 31
0.0
  0
LINE
  5
3461
  8
1
 10
975.87500050675044
 20
402.35839998699993
 30
0.0
 11
924.12499949344965
 21
402.35839998699993
 31
0.0
  0
LINE
  5
3462
  8
1
 10
563.78730326900336
 20
342.02069998699977
 30
0.0
 11
736.21269673120344
 21
342.020699987
 31
0.0
  0
ARC
  5
3463
  8
1
 10
650.00000000010334
 20
342.02069998699989
 30
0.0
 40
60.337699999999892
 50
0.0
 51
180.0
  0
LINE
  5
3464
  8
1
 10
589.66230000010319
 20
342.02069998699989
 30
0.0
 11
589.6623000001
 21
194.1661001312998
 31
0.0
  0
LINE
  5
3465
  8
1
 10
710.33770000010315
 20
342.020699987
 30
0.0
 11
710.33770000009974
 21
194.16610013129969
 31
0.0
  0
LINE
  5
3466
  8
0
 10
373.00000000003928
 20
269.32980073990001
 30
0.0
 11
376.5581123827622
 21
266.98344899711412
 31
0.0
  0
LINE
  5
3467
  8
0
 10
927.00000000010004
 20
269.32980073990001
 30
0.0
 11
923.44188761737735
 21
266.98344899711412
 31
0.0
  0
LINE
  5
3468
  8
0
 10
973.00000000008947
 20
269.32980073990001
 30
0.0
 11
965.87500050680001
 21
269.32980073990001
 31
0.0
  0
LINE
  5
3469
  8
0
 10
934.12499949349956
 20
269.32980073990001
 30
0.0
 11
927.00000000010004
 21
269.32980073990001
 31
0.0
  0
ARC
  5
346A
  8
0
 10
930.08519689007471
 20
256.91591257024589
 30
0.0
 40
12.057712340005409
 50
70.425096930751991
 51
123.3898037549822
  0
ARC
  5
346B
  8
0
 10
969.91858428714249
 20
256.90330502683219
 30
0.0
 40
12.07032045119991
 50
56.628145243829202
 51
109.5726710929717
  0
LINE
  5
346C
  8
0
 10
973.00000000008947
 20
269.32980073990001
 30
0.0
 11
976.55811238281228
 21
266.98344899711412
 31
0.0
  0
ARC
  5
346D
  8
0
 10
650.00000000005946
 20
570.86610023089986
 30
0.0
 40
23.0
 50
223.64732148069979
 51
316.35267851930018
  0
ARC
  5
346E
  8
0
 10
650.00000000005946
 20
570.86610023089986
 30
0.0
 40
23.0
 50
43.647321480701443
 51
136.35267851929851
  0
LINE
  5
346F
  8
0
 10
934.12499949349956
 20
207.34110023119999
 30
0.0
 11
937.30000015359974
 21
204.1661001313
 31
0.0
  0
LINE
  5
3470
  8
0
 10
965.87500050680001
 20
207.34110023119999
 30
0.0
 11
962.69999984659989
 21
204.1661001313
 31
0.0
  0
LINE
  5
3471
  8
0
 10
338.86210122155018
 20
489.33209865403182
 30
0.0
 11
339.87809964465032
 21
488.31610023093191
 31
0.0
  0
LINE
  5
3472
  8
0
 10
360.12190035555028
 20
488.31610023093191
 30
0.0
 11
361.13790040845032
 21
489.33209865403182
 31
0.0
  0
LINE
  5
3473
  8
0
 10
361.13790040845032
 20
489.33209865403182
 30
0.0
 11
361.13790040845032
 21
497.68870297979998
 31
0.0
  0
LINE
  5
3474
  8
0
 10
338.86210122155018
 20
497.68870297979998
 30
0.0
 11
338.86210122155018
 21
489.33209865403182
 31
0.0
  0
LINE
  5
3475
  8
0
 10
339.87809964465032
 20
488.31610023093191
 30
0.0
 11
360.12190035555028
 21
488.31610023093191
 31
0.0
  0
LINE
  5
3476
  8
0
 10
338.86210122155052
 20
489.33209865403182
 30
0.0
 11
361.13790040845032
 21
489.33209865403182
 31
0.0
  0
LINE
  5
3477
  8
0
 10
361.13790040845009
 20
652.40010180782815
 30
0.0
 11
360.12190035555
 21
653.41610023092812
 31
0.0
  0
LINE
  5
3478
  8
0
 10
339.87809964464998
 20
653.41610023092812
 30
0.0
 11
338.86210122155001
 21
652.40010180782815
 31
0.0
  0
LINE
  5
3479
  8
0
 10
338.86210122155001
 20
652.40010180782815
 30
0.0
 11
338.86210122155001
 21
644.04349748209995
 31
0.0
  0
LINE
  5
347A
  8
0
 10
361.13790040845009
 20
644.04349748209995
 30
0.0
 11
361.13790040845009
 21
652.40010180782815
 31
0.0
  0
LINE
  5
347B
  8
0
 10
360.12190035555
 20
653.41610023092812
 30
0.0
 11
339.87809964464998
 21
653.41610023092812
 31
0.0
  0
LINE
  5
347C
  8
0
 10
361.13790040845009
 20
652.40010180782815
 30
0.0
 11
338.86210122155001
 21
652.40010180782815
 31
0.0
  0
ARC
  5
347D
  8
0
 10
169.47500000002469
 20
221.83339998700001
 30
0.0
 40
15.875
 50
90.0
 51
270.0
  0
LINE
  5
347E
  8
0
 10
169.47499306812469
 20
205.95839948039961
 30
0.0
 11
364.49229975582477
 21
205.95839948039961
 31
0.0
  0
LINE
  5
347F
  8
0
 10
364.49229975582477
 20
237.7084004937
 30
0.0
 11
169.47499306812469
 21
237.7084004937
 31
0.0
  0
LINE
  5
3480
  8
0
 10
367.66729985572471
 20
209.1334001404997
 30
0.0
 11
367.66729985572471
 21
234.53339983349991
 31
0.0
  0
LINE
  5
3481
  8
0
 10
356.07413199891988
 20
231.16923079470001
 30
0.0
 11
367.66729985572471
 21
231.16923079470001
 31
0.0
  0
LINE
  5
3482
  8
0
 10
330.32930122892481
 20
231.16923079470001
 30
0.0
 11
343.9258680011298
 21
231.1692307947001
 31
0.0
  0
POLYLINE
  5
3483
  8
0
 66
     1
 10
0.0
 20
0.0
 30
0.0
 70
   128
  0
VERTEX
  5
35BB
  8
0
 10
330.32930122892481
 20
212.49756917930009
 30
0.0
  0
VERTEX
  5
35BC
  8
0
 10
328.05422919072481
 20
212.63945710489989
 30
0.0
  0
VERTEX
  5
35BD
  8
0
 10
325.83511473812479
 20
213.07520337979969
 30
0.0
  0
VERTEX
  5
35BE
  8
0
 10
323.72220086142482
 20
213.83839801529979
 30
0.0
  0
VERTEX
  5
35BF
  8
0
 10
321.81293370402477
 20
214.96025521879969
 30
0.0
  0
VERTEX
  5
35C0
  8
0
 10
319.7251022069247
 20
217.12009192089991
 30
0.0
  0
VERTEX
  5
35C1
  8
0
 10
318.98591147942477
 20
218.46815783179991
 30
0.0
  0
VERTEX
  5
35C2
  8
0
 10
318.49984305182483
 20
219.94691286349999
 30
0.0
  0
VERTEX
  5
35C3
  8
0
 10
318.28852595962468
 20
221.83339998700001
 30
0.0
  0
VERTEX
  5
35C4
  8
0
 10
318.79193933882482
 20
224.7154640743
 30
0.0
  0
VERTEX
  5
35C5
  8
0
 10
320.20723672792468
 20
227.19078653139999
 30
0.0
  0
VERTEX
  5
35C6
  8
0
 10
322.23326938432479
 20
229.0015239511998
 30
0.0
  0
VERTEX
  5
35C7
  8
0
 10
325.16473012252482
 20
230.3920672518997
 30
0.0
  0
VERTEX
  5
35C8
  8
0
 10
329.11466660182481
 20
231.12913456390001
 30
0.0
  0
VERTEX
  5
35C9
  8
0
 10
330.32930122892481
 20
231.16923079470001
 30
0.0
  0
SEQEND
  5
35CA
  8
0
  0
LINE
  5
3484
  8
0
 10
343.92586800112969
 20
212.49756917930009
 30
0.0
 11
330.32930122892481
 21
212.49756917930009
 31
0.0
  0
LINE
  5
3485
  8
0
 10
367.66729985572471
 20
212.49756917930009
 30
0.0
 11
356.0741319989196
 21
212.49756917929989
 31
0.0
  0
LINE
  5
3486
  8
0
 10
330.32930122892481
 20
231.16923079470001
 30
0.0
 11
330.32930122892481
 21
212.49756917930009
 31
0.0
  0
ARC
  5
3487
  8
2
 10
169.47500000002469
 20
221.83339998700001
 30
0.0
 40
15.875
 50
270.0
 51
90.0
  0
LINE
  5
3488
  8
1
 10
143.60000000002469
 20
221.83339998699989
 30
0.0
 11
412.25000000004968
 21
221.8333999869067
 31
0.0
  0
LINE
  5
3489
  8
1
 10
169.47500000002469
 20
247.7084004936504
 30
0.0
 11
169.47500000002469
 21
195.95839948034961
 31
0.0
  0
LINE
  5
348A
  8
0
 10
364.49229975582477
 20
205.95839948039961
 30
0.0
 11
367.66729985572471
 21
209.1334001404997
 31
0.0
  0
LINE
  5
348B
  8
0
 10
364.49229975582477
 20
237.7084004937
 30
0.0
 11
367.66729985572471
 21
234.53339983349991
 31
0.0
  0
LINE
  5
348C
  8
0
 10
318.28852595970039
 20
647.07879696209989
 30
0.0
 11
229.8127004685002
 21
647.07879696210318
 31
0.0
  0
LINE
  5
348D
  8
0
 10
229.8127004685002
 20
615.32879967410349
 30
0.0
 11
306.2720507591003
 21
615.32879967409997
 31
0.0
  0
LINE
  5
348E
  8
0
 10
306.2720507591003
 20
526.40340078789995
 30
0.0
 11
229.8127004685002
 21
526.40340078790325
 31
0.0
  0
LINE
  5
348F
  8
0
 10
229.8127004685002
 20
494.65340349990322
 30
0.0
 11
318.28852595970039
 21
494.65340349989992
 31
0.0
  0
ARC
  5
3490
  8
0
 10
229.81270000010019
 20
570.86610023100343
 30
0.0
 40
76.212699999999984
 50
90.0
 51
270.0
  0
ARC
  5
3491
  8
0
 10
229.81270000010019
 20
570.86610023100343
 30
0.0
 40
44.462700000000041
 50
90.0
 51
270.0
  0
LINE
  5
3492
  8
0
 10
319.25489979080021
 20
618.89750112010006
 30
0.0
 11
367.6672998558002
 21
618.89750112010006
 31
0.0
  0
ARC
  5
3493
  8
0
 10
319.25491456080022
 20
593.49745221640001
 30
0.0
 40
25.400048903751021
 50
90.000033317299781
 51
120.73948686720961
  0
ARC
  5
3494
  8
0
 10
330.32934163720029
 20
669.44367399309988
 30
0.0
 40
25.40017651103048
 50
241.7028399007022
 51
269.99990885029638
  0
LINE
  5
3495
  8
0
 10
367.6672998558002
 20
644.04349748209961
 30
0.0
 11
330.32930122900029
 21
644.04349748209995
 31
0.0
  0
ARC
  5
3496
  8
0
 10
380.36729975620028
 20
631.20380023099995
 30
0.0
 40
15.875000000000041
 50
143.130102354195
 51
216.86989764580491
  0
LINE
  5
3497
  8
0
 10
367.6672998558002
 20
618.89750112010006
 30
0.0
 11
367.6672998558002
 21
644.04349748209916
 31
0.0
  0
ARC
  5
3498
  8
0
 10
319.25489086790031
 20
548.23466205139994
 30
0.0
 40
25.399962709555808
 50
239.260459687798
 51
270.00002012759393
  0
LINE
  5
3499
  8
0
 10
367.6672998558002
 20
522.83469934179993
 30
0.0
 11
319.25489979080021
 21
522.83469934179993
 31
0.0
  0
LINE
  5
349A
  8
0
 10
367.6672998558002
 20
522.83469934179993
 30
0.0
 11
367.6672998558002
 21
497.68870297979998
 31
0.0
  0
ARC
  5
349B
  8
0
 10
380.36729975620028
 20
510.52840023099998
 30
0.0
 40
15.875000000000011
 50
143.130102354195
 51
216.86989764580491
  0
LINE
  5
349C
  8
0
 10
330.32930122900029
 20
497.68870297979998
 30
0.0
 11
367.6672998558002
 21
497.6887029797997
 31
0.0
  0
ARC
  5
349D
  8
0
 10
330.32942803350028
 20
472.28818374200011
 30
0.0
 40
25.400519238126449
 50
90.000286031993141
 51
118.29696521700031
  0
LINE
  5
349E
  8
1
 10
143.60000000010029
 20
570.86610023100002
 30
0.0
 11
412.25000000004968
 21
570.86610023090668
 31
0.0
  0
LINE
  5
349F
  8
1
 10
229.81270000010051
 20
484.65340349990339
 30
0.0
 11
229.81270000010019
 21
657.07879696210352
 31
0.0
  0
ARC
  5
34A0
  8
1
 10
229.81270000010051
 20
570.86610023100343
 30
0.0
 40
60.337699999999892
 50
90.0
 51
270.0
  0
LINE
  5
34A1
  8
1
 10
229.81270000010051
 20
510.52840023100327
 30
0.0
 11
377.66729985580048
 21
510.52840023099998
 31
0.0
  0
LINE
  5
34A2
  8
1
 10
229.81270000010019
 20
631.20380023100324
 30
0.0
 11
377.66729985580059
 21
631.20380023099983
 31
0.0
  0
LINE
  5
34A4
  8
0
 10
935.00130046164975
 20
196.53339998699991
 30
0.0
 11
935.00130046164975
 21
132.56540428379989
 31
0.0
  0
LINE
  5
34A5
  8
0
 10
964.99869953844996
 20
132.56540428379989
 30
0.0
 11
964.99869953844996
 21
196.53339998699991
 31
0.0
  0
LINE
  5
34A6
  8
0
 10
935.00130046165009
 20
132.56540428379989
 30
0.0
 11
937.03330010185005
 21
130.53339998699991
 31
0.0
  0
LINE
  5
34A7
  8
0
 10
962.96669989835004
 20
130.53339998699991
 30
0.0
 11
964.99869953845018
 21
132.56540428379989
 31
0.0
  0
LINE
  5
34A8
  8
0
 10
935.00130046165009
 20
132.56540428379989
 30
0.0
 11
964.99869953845018
 21
132.56540428379989
 31
0.0
  0
LINE
  5
34A9
  8
0
 10
937.03330010185027
 20
130.53339998699991
 30
0.0
 11
962.96669989835004
 21
130.53339998699991
 31
0.0
  0
LINE
  5
34AA
  8
3
 10
963.10550000013006
 20
130.67220040686581
 30
0.0
 11
963.10550000013006
 21
196.533399987
 31
0.0
  0
LINE
  5
34AB
  8
3
 10
936.89450000013051
 20
130.6722004067982
 30
0.0
 11
936.89450000013028
 21
196.533399987
 31
0.0
  0
LINE
  5
34AC
  8
0
 10
635.0013004615696
 20
196.53339998699991
 30
0.0
 11
635.0013004615696
 21
132.56540428379989
 31
0.0
  0
LINE
  5
34AD
  8
0
 10
664.99869953836981
 20
132.56540428379989
 30
0.0
 11
664.99869953836981
 21
196.53339998699991
 31
0.0
  0
LINE
  5
34AE
  8
0
 10
635.00130046156994
 20
132.56540428379989
 30
0.0
 11
637.0333001017699
 21
130.53339998699991
 31
0.0
  0
LINE
  5
34AF
  8
0
 10
662.96669989826989
 20
130.53339998699991
 30
0.0
 11
664.99869953837003
 21
132.56540428379989
 31
0.0
  0
LINE
  5
34B0
  8
0
 10
635.00130046156994
 20
132.56540428379989
 30
0.0
 11
664.99869953837003
 21
132.56540428379989
 31
0.0
  0
LINE
  5
34B1
  8
0
 10
637.03330010177012
 20
130.53339998699991
 30
0.0
 11
662.96669989826989
 21
130.53339998699991
 31
0.0
  0
LINE
  5
34B2
  8
3
 10
663.10550000005003
 20
130.67220040686581
 30
0.0
 11
663.10550000005003
 21
196.533399987
 31
0.0
  0
LINE
  5
34B3
  8
3
 10
636.89450000005036
 20
130.6722004067982
 30
0.0
 11
636.89450000005024
 21
196.533399987
 31
0.0
  0
LINE
  5
34B4
  8
0
 10
335.00130046156619
 20
196.533399987
 30
0.0
 11
335.00130046156619
 21
132.56540428380001
 31
0.0
  0
LINE
  5
34B5
  8
0
 10
364.99869953836628
 20
132.56540428380001
 30
0.0
 11
364.99869953836628
 21
196.533399987
 31
0.0
  0
LINE
  5
34B6
  8
0
 10
335.00130046156642
 20
132.56540428380001
 30
0.0
 11
337.03330010176637
 21
130.533399987
 31
0.0
  0
LINE
  5
34B7
  8
0
 10
362.96669989826643
 20
130.533399987
 30
0.0
 11
364.99869953836651
 21
132.56540428380001
 31
0.0
  0
LINE
  5
34B8
  8
0
 10
335.00130046156642
 20
132.56540428380001
 30
0.0
 11
364.99869953836651
 21
132.56540428380001
 31
0.0
  0
LINE
  5
34B9
  8
0
 10
337.0333001017666
 20
130.533399987
 30
0.0
 11
362.96669989826643
 21
130.533399987
 31
0.0
  0
LINE
  5
34BA
  8
3
 10
363.1055000000465
 20
130.67220040686581
 30
0.0
 11
363.1055000000465
 21
196.53339998700011
 31
0.0
  0
LINE
  5
34BB
  8
3
 10
336.89450000004689
 20
130.67220040679831
 30
0.0
 11
336.89450000004672
 21
196.53339998700011
 31
0.0
  0
ARC
  5
3516
  8
0
 10
350.00000000010021
 20
570.86610023095
 30
0.0
 40
50.669999999949653
 50
109.539405401884
 51
250.46059459811531
  0
ARC
  5
3517
  8
0
 10
350.00000000010021
 20
570.86610023095
 30
0.0
 40
50.669999999949653
 50
289.53940540188472
 51
70.460594598115975
  0
ARC
  5
3518
  8
0
 10
650.00000000000955
 20
570.86610023092078
 30
0.0
 40
50.669999999949653
 50
199.53940540188611
 51
340.46059459811391
  0
ARC
  5
3519
  8
0
 10
650.00000000000955
 20
570.86610023092078
 30
0.0
 40
50.669999999949653
 50
19.539405401886139
 51
160.4605945981138
  0
LINE
  5
351B
  8
0
 10
371.208700069119
 20
240.3229991943
 30
0.0
 11
371.20870006911912
 21
207.2522002309
 31
0.0
  0
LINE
  5
351C
  8
0
 10
328.79129993097013
 20
240.3229991943
 30
0.0
 11
328.79129993097013
 21
237.7084004937
 31
0.0
  0
LINE
  5
351D
  8
0
 10
971.20870006919415
 20
240.3229991943
 30
0.0
 11
971.20870006919415
 21
207.2522002309
 31
0.0
  0
LINE
  5
351E
  8
0
 10
928.79129993104527
 20
240.3229991943
 30
0.0
 11
928.79129993104527
 21
207.2522002309
 31
0.0
  0
ENDSEC
  0
EOF
