  0
SECTION
  2
HEADER
  9
$ACADVER
  1
AC1009
  9
$INSBASE
 10
0.0
 20
0.0
 30
0.0
  9
$EXTMIN
 10
0.0
 20
-1.4802182810368341
 30
0.0
  9
$EXTMAX
 10
136.50000037252909
 20
36.500000000000092
 30
0.0
  9
$LIMMIN
 10
0.0
 20
0.0
  9
$LIMMAX
 10
187.5
 20
135.0
  9
$ORTHOMODE
 70
     1
  9
$REGENMODE
 70
     1
  9
$FILLMODE
 70
     1
  9
$QTEXTMODE
 70
     0
  9
$MIRRTEXT
 70
     0
  9
$DRAGMODE
 70
     2
  9
$LTSCALE
 40
5.0
  9
$OSMODE
 70
    37
  9
$ATTMODE
 70
     1
  9
$TEXTSIZE
 40
1.6000000000000001
  9
$TRACEWID
 40
0.05
  9
$TEXTSTYLE
  7
STANDARD
  9
$CLAYER
  8
0
  9
$CELTYPE
  6
BYLAYER
  9
$CECOLOR
 62
   256
  9
$DIMSCALE
 40
0.5
  9
$DIMASZ
 40
3.0
  9
$DIMEXO
 40
2.0
  9
$DIMDLI
 40
10.0
  9
$DIMRND
 40
0.0
  9
$DIMDLE
 40
0.0
  9
$DIMEXE
 40
2.0
  9
$DIMTP
 40
0.0
  9
$DIMTM
 40
0.0
  9
$DIMTXT
 40
3.2000000000000002
  9
$DIMCEN
 40
0.09
  9
$DIMTSZ
 40
0.0
  9
$DIMTOL
 70
     0
  9
$DIMLIM
 70
     0
  9
$DIMTIH
 70
     0
  9
$DIMTOH
 70
     0
  9
$DIMSE1
 70
     0
  9
$DIMSE2
 70
     0
  9
$DIMTAD
 70
     1
  9
$DIMZIN
 70
     8
  9
$DIMBLK
  1

  9
$DIMASO
 70
     0
  9
$DIMSHO
 70
     0
  9
$DIMPOST
  1

  9
$DIMAPOST
  1

  9
$DIMALT
 70
     0
  9
$DIMALTD
 70
     2
  9
$DIMALTF
 40
25.399999999999999
  9
$DIMLFAC
 40
1.0
  9
$DIMTOFL
 70
     1
  9
$DIMTVP
 40
1.6000000000000001
  9
$DIMTIX
 70
     1
  9
$DIMSOXD
 70
     0
  9
$DIMSAH
 70
     0
  9
$DIMBLK1
  1

  9
$DIMBLK2
  1

  9
$DIMSTYLE
  2
STANDARD
  9
$DIMCLRD
 70
     0
  9
$DIMCLRE
 70
     0
  9
$DIMCLRT
 70
     0
  9
$DIMTFAC
 40
1.0
  9
$DIMGAP
 40
0.09
  9
$LUNITS
 70
     2
  9
$LUPREC
 70
     1
  9
$SKETCHINC
 40
0.1
  9
$FILLETRAD
 40
0.0
  9
$AUNITS
 70
     0
  9
$AUPREC
 70
     1
  9
$MENU
  1
E:\r13\win\SUPPORT\ACAD
  9
$ELEVATION
 40
0.0
  9
$PELEVATION
 40
0.0
  9
$THICKNESS
 40
0.0
  9
$LIMCHECK
 70
     0
  9
$BLIPMODE
 70
     0
  9
$CHAMFERA
 40
0.0
  9
$CHAMFERB
 40
0.0
  9
$SKPOLY
 70
     0
  9
$TDCREATE
 40
2449840.594641204
  9
$TDUPDATE
 40
2457711.431618379
  9
$TDINDWG
 40
0.0480480093
  9
$TDUSRTIMER
 40
0.0480480093
  9
$USRTIMER
 70
     1
  9
$ANGBASE
 50
0.0
  9
$ANGDIR
 70
     0
  9
$PDMODE
 70
     0
  9
$PDSIZE
 40
0.0
  9
$PLINEWID
 40
0.0
  9
$COORDS
 70
     1
  9
$SPLFRAME
 70
     0
  9
$SPLINETYPE
 70
     6
  9
$SPLINESEGS
 70
     8
  9
$ATTDIA
 70
     0
  9
$ATTREQ
 70
     1
  9
$HANDLING
 70
     1
  9
$HANDSEED
  5
1846
  9
$SURFTAB1
 70
     6
  9
$SURFTAB2
 70
     6
  9
$SURFTYPE
 70
     6
  9
$SURFU
 70
     6
  9
$SURFV
 70
     6
  9
$UCSNAME
  2

  9
$UCSORG
 10
0.0
 20
0.0
 30
0.0
  9
$UCSXDIR
 10
1.0
 20
0.0
 30
0.0
  9
$UCSYDIR
 10
0.0
 20
1.0
 30
0.0
  9
$PUCSNAME
  2

  9
$PUCSORG
 10
0.0
 20
0.0
 30
0.0
  9
$PUCSXDIR
 10
1.0
 20
0.0
 30
0.0
  9
$PUCSYDIR
 10
0.0
 20
1.0
 30
0.0
  9
$USERI1
 70
     0
  9
$USERI2
 70
     1
  9
$USERI3
 70
     0
  9
$USERI4
 70
     0
  9
$USERI5
 70
     0
  9
$USERR1
 40
0.0
  9
$USERR2
 40
0.0
  9
$USERR3
 40
0.0
  9
$USERR4
 40
0.0
  9
$USERR5
 40
0.0
  9
$WORLDVIEW
 70
     1
  9
$SHADEDGE
 70
     3
  9
$SHADEDIF
 70
    70
  9
$TILEMODE
 70
     1
  9
$MAXACTVP
 70
    16
  9
$PLIMCHECK
 70
     0
  9
$PEXTMIN
 10
1.0000000000000000E+020
 20
1.0000000000000000E+020
 30
1.0000000000000000E+020
  9
$PEXTMAX
 10
-1.0000000000000000E+020
 20
-1.0000000000000000E+020
 30
-1.0000000000000000E+020
  9
$PLIMMIN
 10
0.0
 20
0.0
  9
$PLIMMAX
 10
12.0
 20
9.0
  9
$UNITMODE
 70
     0
  9
$VISRETAIN
 70
     0
  9
$PLINEGEN
 70
     0
  9
$PSLTSCALE
 70
     0
  0
ENDSEC
  0
SECTION
  2
TABLES
  0
TABLE
  2
VPORT
 70
     1
  0
VPORT
  2
*ACTIVE
 70
     0
 10
0.0
 20
0.0
 11
1.0
 21
1.0
 12
81.732783247236227
 22
45.0
 13
0.0
 23
0.0
 14
5.0
 24
5.0
 15
5.0
 25
5.0
 16
0.0
 26
0.0
 36
1.0
 17
0.0
 27
0.0
 37
0.0
 40
90.022177875448392
 41
1.816239316239316
 42
50.0
 43
0.0
 44
0.0
 50
0.0
 51
0.0
 71
     0
 72
   100
 73
     1
 74
     0
 75
     0
 76
     0
 77
     0
 78
     0
  0
ENDTAB
  0
TABLE
  2
LTYPE
 70
     4
  0
LTYPE
  2
CONTINUOUS
 70
     0
  3
Solid Line
 72
    65
 73
     0
 40
0.0
  0
LTYPE
  2
CENTER
 70
     0
  3
____ _ ____ _ ____ _ ____ _ ____ _ ____ _ ____
 72
    65
 73
     4
 40
2.0
 49
1.25
 49
-0.25
 49
0.25
 49
-0.25
  0
LTYPE
  2
HIDDEN
 70
     0
  3
_ _ _ _ _ _ _ _ _ _ _ _ _ _ _ _ _ _ _ _ _ _ _
 72
    65
 73
     2
 40
0.375
 49
0.25
 49
-0.125
  0
LTYPE
  2
PHANTOM2
 70
     0
  3
___ _ _ ___ _ _ ___ _ _ ___ _ _
 72
    65
 73
     6
 40
1.25
 49
0.625
 49
-0.125
 49
0.125
 49
-0.125
 49
0.125
 49
-0.125
  0
ENDTAB
  0
TABLE
  2
LAYER
 70
     4
  0
LAYER
  2
0
 70
     0
 62
     7
  6
CONTINUOUS
  0
LAYER
  2
1
 70
     0
 62
     1
  6
CENTER
  0
LAYER
  2
2
 70
     0
 62
     2
  6
HIDDEN
  0
LAYER
  2
3
 70
     0
 62
     3
  6
CONTINUOUS
  0
ENDTAB
  0
TABLE
  2
STYLE
 70
     2
  0
STYLE
  2
STANDARD
 70
     0
 40
0.0
 41
1.0
 50
0.0
 71
     0
 42
1.6000000000000001
  3
TXT
  4
BIGFONT
  0
STYLE
  2
STANDARD1
 70
     0
 40
0.0
 41
1.0
 50
0.0
 71
     0
 42
3.0
  3
txt
  4

  0
ENDTAB
  0
TABLE
  2
VIEW
 70
     1
  0
VIEW
  2
ALL
 70
     0
 40
135.0
 10
110.49579799999999
 20
67.5
 41
0.0
 11
0.0
 21
0.0
 31
1.0
 12
0.0
 22
0.0
 32
0.0
 42
0.0
 43
0.0
 44
0.0
 50
0.0
 71
     0
  0
ENDTAB
  0
TABLE
  2
UCS
 70
     0
  0
ENDTAB
  0
TABLE
  2
APPID
 70
     6
  0
APPID
  2
ACAD
 70
     0
  0
APPID
  2
ACAD_MLEADERVER
 70
     0
  0
APPID
  2
ACAD_NAV_VCDISPLAY
 70
     0
  0
APPID
  2
ACAD_EXEMPT_FROM_CAD_STANDARDS
 70
     0
  0
APPID
  2
ACAD_DSTYLE_DIMJAG
 70
     0
  0
APPID
  2
ACAD_DSTYLE_DIMTALN
 70
     0
  0
ENDTAB
  0
TABLE
  2
DIMSTYLE
 70
     1
  0
DIMSTYLE
  2
STANDARD
 70
     0
  3

  4

  5

  6

  7

 40
1.0
 41
0.18
 42
0.0625
 43
0.38
 44
0.18
 45
0.0
 46
0.0
 47
0.0
 48
0.0
140
0.18
141
0.09
142
0.0
143
25.399999999999999
144
1.0
145
0.0
146
1.0
147
0.09
 71
     0
 72
     0
 73
     1
 74
     1
 75
     0
 76
     0
 77
     0
 78
     0
170
     0
171
     2
172
     0
173
     0
174
     0
175
     0
176
     0
177
     0
178
     0
  0
ENDTAB
  0
ENDSEC
  0
SECTION
  2
BLOCKS
  0
BLOCK
  8
0
  2
$MODEL_SPACE
 70
     0
 10
0.0
 20
0.0
 30
0.0
  3
$MODEL_SPACE
  1

  0
ENDBLK
  5
163
  8
0
  0
BLOCK
 67
     1
  8
0
  2
$PAPER_SPACE
 70
     0
 10
0.0
 20
0.0
 30
0.0
  3
$PAPER_SPACE
  1

  0
ENDBLK
  5
161
 67
     1
  8
0
  0
ENDSEC
  0
SECTION
  2
ENTITIES
  0
TEXT
  5
218
  8
0
 62
     3
 10
0.0
 20
0.0
 30
0.0
 40
5.0
  1
HS-08125X50
  7
STANDARD1
  0
LINE
  5
58D
  8
0
 10
56.320800045505131
 20
34.000000000000092
 30
0.0
 11
55.640866812318563
 21
33.264381317421787
 31
0.0
  0
LINE
  5
58E
  8
0
 10
55.640866812318563
 20
26.735618682578242
 30
0.0
 11
56.320800045505159
 21
26.00000000000006
 31
0.0
  0
LINE
  5
624
  8
0
 10
55.640447426121682
 20
31.497697434388101
 30
0.0
 11
55.422022334532812
 21
31.279272371903058
 31
0.0
  0
ARC
  5
625
  8
0
 10
55.550644812823919
 20
31.587499980814989
 30
0.0
 40
0.127000026377398
 50
315.000021332458
 51
45.000127217843513
  0
POLYLINE
  5
626
  8
0
 66
     1
 10
0.0
 20
0.0
 30
0.0
 70
   128
  0
VERTEX
  5
F27
  8
0
 10
55.19190621969755
 20
32.125843893736601
 30
0.0
  0
VERTEX
  5
F28
  8
0
 10
55.327707879478112
 20
31.99004216119647
 30
0.0
  0
VERTEX
  5
F29
  8
0
 10
55.477343564853072
 20
31.84040644671768
 30
0.0
  0
VERTEX
  5
F2A
  8
0
 10
55.64044730970636
 20
31.677302643656731
 30
0.0
  0
SEQEND
  5
F2B
  8
0
  0
POLYLINE
  5
62A
  8
0
 66
     1
 10
0.0
 20
0.0
 30
0.0
 70
   128
  0
VERTEX
  5
F2C
  8
0
 10
55.640447426121682
 20
33.085197415202863
 30
0.0
  0
VERTEX
  5
F2D
  8
0
 10
55.571995275095098
 20
33.016745205968618
 30
0.0
  0
VERTEX
  5
F2E
  8
0
 10
55.499124813359231
 20
32.943874802440398
 30
0.0
  0
VERTEX
  5
F2F
  8
0
 10
55.422022101702161
 20
32.866772003471851
 30
0.0
  0
SEQEND
  5
F30
  8
0
  0
ARC
  5
62B
  8
0
 10
55.551907291264342
 20
33.174997088392018
 30
0.0
 40
0.1261084326500065
 50
314.59535096795128
 51
45.136443965727928
  0
ARC
  5
62E
  8
0
 10
55.550644694806863
 20
26.824999956456761
 30
0.0
 40
0.1270001677496784
 50
315.26823791612247
 51
44.99996715020032
  0
LINE
  5
62F
  8
0
 10
55.422022043494501
 20
27.133227996528149
 30
0.0
 11
55.640447426121682
 21
26.91480258479714
 31
0.0
  0
POLYLINE
  5
633
  8
0
 66
     1
 10
0.0
 20
0.0
 30
0.0
 70
   128
  0
VERTEX
  5
F31
  8
0
 10
55.640447426121682
 20
28.322697472758591
 30
0.0
  0
VERTEX
  5
F32
  8
0
 10
55.477343652164564
 20
28.159593669697639
 30
0.0
  0
VERTEX
  5
F33
  8
0
 10
55.327707908581942
 20
28.00995783880353
 30
0.0
  0
VERTEX
  5
F34
  8
0
 10
55.19190621969755
 20
27.874156106263399
 30
0.0
  0
SEQEND
  5
F35
  8
0
  0
ARC
  5
634
  8
0
 10
55.550644916921392
 20
28.412500019185622
 30
0.0
 40
0.1269999527694578
 50
314.99998812431318
 51
45.000160425992412
  0
LINE
  5
635
  8
0
 10
55.422022101702161
 20
28.720727860927578
 30
0.0
 11
55.640446320176117
 21
28.502303729765121
 31
0.0
  0
ARC
  5
638
  8
0
 10
55.550644744026691
 20
30.000000000000028
 30
0.0
 40
0.1270001143932192
 50
315.2683052883603
 51
44.731694711630688
  0
LINE
  5
63D
  8
0
 10
55.0
 20
29.142749991733581
 30
0.0
 11
55.422022101702161
 21
28.7207279773429
 31
0.0
  0
LINE
  5
63E
  8
0
 10
55.0
 20
29.142749991733581
 30
0.0
 11
55.0
 21
29.269750027451661
 31
0.0
  0
LINE
  5
63F
  8
0
 10
55.0
 20
29.269750027451661
 30
0.0
 11
55.640447426121682
 21
29.910197439021431
 31
0.0
  0
LINE
  5
640
  8
0
 10
55.640447426121682
 20
30.089802560978569
 30
0.0
 11
55.0
 21
30.730249972548339
 31
0.0
  0
LINE
  5
641
  8
0
 10
55.0
 20
30.730249972548339
 30
0.0
 11
55.0
 21
30.857250008266419
 31
0.0
  0
LINE
  5
642
  8
0
 10
55.0
 20
30.857250008266419
 30
0.0
 11
55.422022189013653
 21
31.27927225548774
 31
0.0
  0
LINE
  5
643
  8
0
 10
55.0
 20
32.31774989515543
 30
0.0
 11
55.0
 21
32.444749930873513
 31
0.0
  0
LINE
  5
644
  8
0
 10
55.0
 20
32.444749930873513
 30
0.0
 11
55.422022101702161
 21
32.866772003471851
 31
0.0
  0
LINE
  5
645
  8
0
 10
55.19190621969755
 20
32.125843893736601
 30
0.0
 11
55.0
 21
32.31774989515543
 31
0.0
  0
LINE
  5
646
  8
0
 10
55.0
 20
27.55525006912649
 30
0.0
 11
55.0
 21
27.68225010484457
 31
0.0
  0
LINE
  5
647
  8
0
 10
55.0
 20
27.55525006912649
 30
0.0
 11
55.422022189013653
 21
27.133227996528149
 31
0.0
  0
LINE
  5
648
  8
0
 10
55.0
 20
27.68225010484457
 30
0.0
 11
55.19190621969755
 21
27.874156106263399
 31
0.0
  0
LINE
  5
696
  8
3
 10
32.31774989515543
 20
29.142749991733581
 30
0.0
 11
32.444749930873513
 21
29.142749991733581
 31
0.0
  0
LINE
  5
697
  8
3
 10
32.444749930873513
 20
29.142749991733581
 30
0.0
 11
32.866772003471851
 21
28.7207279773429
 31
0.0
  0
LINE
  5
698
  8
3
 10
32.866772003471851
 20
28.720727860927578
 30
0.0
 11
32.901636296883218
 21
28.502303729765121
 31
0.0
  0
LINE
  5
699
  8
3
 10
31.677302527241409
 20
28.502302565611899
 30
0.0
 11
32.901636529713869
 21
28.502303147688512
 31
0.0
  0
LINE
  5
69A
  8
3
 10
31.677302527241409
 20
28.502302565611899
 30
0.0
 11
32.31774989515543
 21
29.142749991733581
 31
0.0
  0
LINE
  5
69B
  8
3
 10
32.31774989515543
 20
29.269750027451661
 30
0.0
 11
32.31774989515543
 21
29.142749991733581
 31
0.0
  0
LINE
  5
69C
  8
3
 10
32.444749930873513
 20
29.269750027451661
 30
0.0
 11
32.31774989515543
 21
29.269750027451661
 31
0.0
  0
LINE
  5
69D
  8
3
 10
32.444749930873513
 20
29.142749991733581
 30
0.0
 11
32.444749930873513
 21
29.269750027451661
 31
0.0
  0
LINE
  5
69E
  8
3
 10
31.677302527241409
 20
28.502302565611899
 30
0.0
 11
31.677302527241409
 21
29.910197439021431
 31
0.0
  0
LINE
  5
69F
  8
3
 10
31.677302527241409
 20
29.910197439021431
 30
0.0
 11
32.31774989515543
 21
29.269750027451661
 31
0.0
  0
LINE
  5
6A0
  8
3
 10
29.269750027451661
 20
27.68225010484457
 30
0.0
 11
29.142749991733581
 21
27.68225010484457
 31
0.0
  0
LINE
  5
6A1
  8
3
 10
29.269750027451661
 20
27.55525006912649
 30
0.0
 11
29.269750027451661
 21
27.68225010484457
 31
0.0
  0
LINE
  5
6A2
  8
3
 10
29.142749991733581
 20
27.55525006912649
 30
0.0
 11
29.269750027451661
 21
27.55525006912649
 31
0.0
  0
LINE
  5
6A3
  8
3
 10
29.142749991733581
 20
27.68225010484457
 30
0.0
 11
29.142749991733581
 21
27.55525006912649
 31
0.0
  0
LINE
  5
6A4
  8
3
 10
28.502302565611899
 20
28.322697472758591
 30
0.0
 11
29.142749991733581
 21
27.68225010484457
 31
0.0
  0
LINE
  5
6A5
  8
3
 10
28.502302565611899
 20
28.322697472758591
 30
0.0
 11
29.910197439021431
 21
28.322697472758591
 31
0.0
  0
LINE
  5
6A6
  8
3
 10
29.910197439021431
 20
28.322697472758591
 30
0.0
 11
29.269750027451661
 21
27.68225010484457
 31
0.0
  0
LINE
  5
6A7
  8
3
 10
29.142749991733581
 20
27.55525006912649
 30
0.0
 11
28.7207279773429
 21
27.133227996528149
 31
0.0
  0
LINE
  5
6A8
  8
3
 10
28.720727860927578
 20
27.133227996528149
 30
0.0
 11
28.502303729765121
 21
27.098363703116771
 31
0.0
  0
LINE
  5
6A9
  8
3
 10
28.502302565611899
 20
28.322697472758591
 30
0.0
 11
28.502303147688512
 21
27.098363470286131
 31
0.0
  0
POLYLINE
  5
6AA
  8
3
 10
32.866772096074307
 20
28.720727937861597
 30
0.0
 66
     1
 70
     8
  0
VERTEX
  8
3
  5
1026
 10
32.8668
 20
28.7207
 30
0.000000
  70
    32
  0
VERTEX
  8
3
  5
1027
 10
32.8686
 20
28.7223
 30
0.000000
  70
    32
  0
VERTEX
  8
3
  5
1028
 10
32.8705
 20
28.7238
 30
0.000000
  70
    32
  0
VERTEX
  8
3
  5
1029
 10
32.8723
 20
28.7253
 30
0.000000
  70
    32
  0
VERTEX
  8
3
  5
102A
 10
32.8742
 20
28.7269
 30
0.000000
  70
    32
  0
VERTEX
  8
3
  5
102B
 10
32.8760
 20
28.7284
 30
0.000000
  70
    32
  0
VERTEX
  8
3
  5
102C
 10
32.8779
 20
28.7299
 30
0.000000
  70
    32
  0
VERTEX
  8
3
  5
102D
 10
32.8797
 20
28.7315
 30
0.000000
  70
    32
  0
VERTEX
  8
3
  5
102E
 10
32.8815
 20
28.7330
 30
0.000000
  70
    32
  0
VERTEX
  8
3
  5
102F
 10
32.8834
 20
28.7346
 30
0.000000
  70
    32
  0
VERTEX
  8
3
  5
1030
 10
32.8852
 20
28.7361
 30
0.000000
  70
    32
  0
VERTEX
  8
3
  5
1031
 10
32.8870
 20
28.7377
 30
0.000000
  70
    32
  0
VERTEX
  8
3
  5
1032
 10
32.8889
 20
28.7392
 30
0.000000
  70
    32
  0
VERTEX
  8
3
  5
1033
 10
32.8907
 20
28.7408
 30
0.000000
  70
    32
  0
VERTEX
  8
3
  5
1034
 10
32.8925
 20
28.7423
 30
0.000000
  70
    32
  0
VERTEX
  8
3
  5
1035
 10
32.8943
 20
28.7439
 30
0.000000
  70
    32
  0
VERTEX
  8
3
  5
1036
 10
32.8962
 20
28.7454
 30
0.000000
  70
    32
  0
VERTEX
  8
3
  5
1037
 10
32.8980
 20
28.7470
 30
0.000000
  70
    32
  0
VERTEX
  8
3
  5
1038
 10
32.8998
 20
28.7485
 30
0.000000
  70
    32
  0
VERTEX
  8
3
  5
1039
 10
32.9016
 20
28.7501
 30
0.000000
  70
    32
  0
VERTEX
  8
3
  5
103A
 10
32.9034
 20
28.7517
 30
0.000000
  70
    32
  0
VERTEX
  8
3
  5
103B
 10
32.9052
 20
28.7532
 30
0.000000
  70
    32
  0
VERTEX
  8
3
  5
103C
 10
32.9070
 20
28.7548
 30
0.000000
  70
    32
  0
VERTEX
  8
3
  5
103D
 10
32.9088
 20
28.7564
 30
0.000000
  70
    32
  0
VERTEX
  8
3
  5
103E
 10
32.9107
 20
28.7579
 30
0.000000
  70
    32
  0
VERTEX
  8
3
  5
103F
 10
32.9125
 20
28.7595
 30
0.000000
  70
    32
  0
VERTEX
  8
3
  5
1040
 10
32.9142
 20
28.7611
 30
0.000000
  70
    32
  0
VERTEX
  8
3
  5
1041
 10
32.9160
 20
28.7627
 30
0.000000
  70
    32
  0
VERTEX
  8
3
  5
1042
 10
32.9178
 20
28.7642
 30
0.000000
  70
    32
  0
VERTEX
  8
3
  5
1043
 10
32.9196
 20
28.7658
 30
0.000000
  70
    32
  0
VERTEX
  8
3
  5
1044
 10
32.9214
 20
28.7674
 30
0.000000
  70
    32
  0
VERTEX
  8
3
  5
1045
 10
32.9232
 20
28.7690
 30
0.000000
  70
    32
  0
VERTEX
  8
3
  5
1046
 10
32.9250
 20
28.7706
 30
0.000000
  70
    32
  0
VERTEX
  8
3
  5
1047
 10
32.9268
 20
28.7721
 30
0.000000
  70
    32
  0
VERTEX
  8
3
  5
1048
 10
32.9285
 20
28.7737
 30
0.000000
  70
    32
  0
VERTEX
  8
3
  5
1049
 10
32.9303
 20
28.7753
 30
0.000000
  70
    32
  0
VERTEX
  8
3
  5
104A
 10
32.9321
 20
28.7769
 30
0.000000
  70
    32
  0
VERTEX
  8
3
  5
104B
 10
32.9339
 20
28.7785
 30
0.000000
  70
    32
  0
VERTEX
  8
3
  5
104C
 10
32.9356
 20
28.7801
 30
0.000000
  70
    32
  0
VERTEX
  8
3
  5
104D
 10
32.9374
 20
28.7817
 30
0.000000
  70
    32
  0
VERTEX
  8
3
  5
104E
 10
32.9392
 20
28.7833
 30
0.000000
  70
    32
  0
VERTEX
  8
3
  5
104F
 10
32.9409
 20
28.7849
 30
0.000000
  70
    32
  0
VERTEX
  8
3
  5
1050
 10
32.9427
 20
28.7865
 30
0.000000
  70
    32
  0
VERTEX
  8
3
  5
1051
 10
32.9445
 20
28.7881
 30
0.000000
  70
    32
  0
VERTEX
  8
3
  5
1052
 10
32.9462
 20
28.7897
 30
0.000000
  70
    32
  0
VERTEX
  8
3
  5
1053
 10
32.9480
 20
28.7913
 30
0.000000
  70
    32
  0
VERTEX
  8
3
  5
1054
 10
32.9497
 20
28.7929
 30
0.000000
  70
    32
  0
VERTEX
  8
3
  5
1055
 10
32.9515
 20
28.7945
 30
0.000000
  70
    32
  0
VERTEX
  8
3
  5
1056
 10
32.9532
 20
28.7961
 30
0.000000
  70
    32
  0
VERTEX
  8
3
  5
1057
 10
32.9550
 20
28.7978
 30
0.000000
  70
    32
  0
VERTEX
  8
3
  5
1058
 10
32.9567
 20
28.7994
 30
0.000000
  70
    32
  0
VERTEX
  8
3
  5
1059
 10
32.9584
 20
28.8010
 30
0.000000
  70
    32
  0
VERTEX
  8
3
  5
105A
 10
32.9602
 20
28.8026
 30
0.000000
  70
    32
  0
VERTEX
  8
3
  5
105B
 10
32.9619
 20
28.8042
 30
0.000000
  70
    32
  0
VERTEX
  8
3
  5
105C
 10
32.9637
 20
28.8058
 30
0.000000
  70
    32
  0
VERTEX
  8
3
  5
105D
 10
32.9654
 20
28.8075
 30
0.000000
  70
    32
  0
VERTEX
  8
3
  5
105E
 10
32.9671
 20
28.8091
 30
0.000000
  70
    32
  0
VERTEX
  8
3
  5
105F
 10
32.9688
 20
28.8107
 30
0.000000
  70
    32
  0
VERTEX
  8
3
  5
1060
 10
32.9706
 20
28.8124
 30
0.000000
  70
    32
  0
VERTEX
  8
3
  5
1061
 10
32.9723
 20
28.8140
 30
0.000000
  70
    32
  0
VERTEX
  8
3
  5
1062
 10
32.9740
 20
28.8156
 30
0.000000
  70
    32
  0
VERTEX
  8
3
  5
1063
 10
32.9757
 20
28.8172
 30
0.000000
  70
    32
  0
VERTEX
  8
3
  5
1064
 10
32.9774
 20
28.8189
 30
0.000000
  70
    32
  0
VERTEX
  8
3
  5
1065
 10
32.9791
 20
28.8205
 30
0.000000
  70
    32
  0
VERTEX
  8
3
  5
1066
 10
32.9809
 20
28.8222
 30
0.000000
  70
    32
  0
VERTEX
  8
3
  5
1067
 10
32.9826
 20
28.8238
 30
0.000000
  70
    32
  0
VERTEX
  8
3
  5
1068
 10
32.9843
 20
28.8254
 30
0.000000
  70
    32
  0
VERTEX
  8
3
  5
1069
 10
32.9860
 20
28.8271
 30
0.000000
  70
    32
  0
VERTEX
  8
3
  5
106A
 10
32.9877
 20
28.8287
 30
0.000000
  70
    32
  0
VERTEX
  8
3
  5
106B
 10
32.9894
 20
28.8304
 30
0.000000
  70
    32
  0
VERTEX
  8
3
  5
106C
 10
32.9911
 20
28.8320
 30
0.000000
  70
    32
  0
VERTEX
  8
3
  5
106D
 10
32.9927
 20
28.8337
 30
0.000000
  70
    32
  0
VERTEX
  8
3
  5
106E
 10
32.9944
 20
28.8353
 30
0.000000
  70
    32
  0
VERTEX
  8
3
  5
106F
 10
32.9961
 20
28.8370
 30
0.000000
  70
    32
  0
VERTEX
  8
3
  5
1070
 10
32.9978
 20
28.8386
 30
0.000000
  70
    32
  0
VERTEX
  8
3
  5
1071
 10
32.9995
 20
28.8403
 30
0.000000
  70
    32
  0
VERTEX
  8
3
  5
1072
 10
33.0012
 20
28.8419
 30
0.000000
  70
    32
  0
VERTEX
  8
3
  5
1073
 10
33.0029
 20
28.8436
 30
0.000000
  70
    32
  0
VERTEX
  8
3
  5
1074
 10
33.0045
 20
28.8453
 30
0.000000
  70
    32
  0
VERTEX
  8
3
  5
1075
 10
33.0062
 20
28.8469
 30
0.000000
  70
    32
  0
VERTEX
  8
3
  5
1076
 10
33.0079
 20
28.8486
 30
0.000000
  70
    32
  0
VERTEX
  8
3
  5
1077
 10
33.0095
 20
28.8503
 30
0.000000
  70
    32
  0
VERTEX
  8
3
  5
1078
 10
33.0112
 20
28.8519
 30
0.000000
  70
    32
  0
VERTEX
  8
3
  5
1079
 10
33.0129
 20
28.8536
 30
0.000000
  70
    32
  0
VERTEX
  8
3
  5
107A
 10
33.0145
 20
28.8553
 30
0.000000
  70
    32
  0
VERTEX
  8
3
  5
107B
 10
33.0162
 20
28.8569
 30
0.000000
  70
    32
  0
VERTEX
  8
3
  5
107C
 10
33.0178
 20
28.8586
 30
0.000000
  70
    32
  0
VERTEX
  8
3
  5
107D
 10
33.0195
 20
28.8603
 30
0.000000
  70
    32
  0
VERTEX
  8
3
  5
107E
 10
33.0212
 20
28.8620
 30
0.000000
  70
    32
  0
VERTEX
  8
3
  5
107F
 10
33.0228
 20
28.8637
 30
0.000000
  70
    32
  0
VERTEX
  8
3
  5
1080
 10
33.0245
 20
28.8653
 30
0.000000
  70
    32
  0
VERTEX
  8
3
  5
1081
 10
33.0261
 20
28.8670
 30
0.000000
  70
    32
  0
VERTEX
  8
3
  5
1082
 10
33.0277
 20
28.8687
 30
0.000000
  70
    32
  0
VERTEX
  8
3
  5
1083
 10
33.0294
 20
28.8704
 30
0.000000
  70
    32
  0
VERTEX
  8
3
  5
1084
 10
33.0310
 20
28.8721
 30
0.000000
  70
    32
  0
VERTEX
  8
3
  5
1085
 10
33.0326
 20
28.8738
 30
0.000000
  70
    32
  0
VERTEX
  8
3
  5
1086
 10
33.0343
 20
28.8754
 30
0.000000
  70
    32
  0
VERTEX
  8
3
  5
1087
 10
33.0359
 20
28.8771
 30
0.000000
  70
    32
  0
VERTEX
  8
3
  5
1088
 10
33.0375
 20
28.8788
 30
0.000000
  70
    32
  0
VERTEX
  8
3
  5
1089
 10
33.0392
 20
28.8805
 30
0.000000
  70
    32
  0
VERTEX
  8
3
  5
108A
 10
33.0408
 20
28.8822
 30
0.000000
  70
    32
  0
VERTEX
  8
3
  5
108B
 10
33.0424
 20
28.8839
 30
0.000000
  70
    32
  0
VERTEX
  8
3
  5
108C
 10
33.0440
 20
28.8856
 30
0.000000
  70
    32
  0
VERTEX
  8
3
  5
108D
 10
33.0456
 20
28.8873
 30
0.000000
  70
    32
  0
VERTEX
  8
3
  5
108E
 10
33.0472
 20
28.8890
 30
0.000000
  70
    32
  0
VERTEX
  8
3
  5
108F
 10
33.0489
 20
28.8907
 30
0.000000
  70
    32
  0
VERTEX
  8
3
  5
1090
 10
33.0505
 20
28.8924
 30
0.000000
  70
    32
  0
VERTEX
  8
3
  5
1091
 10
33.0521
 20
28.8941
 30
0.000000
  70
    32
  0
VERTEX
  8
3
  5
1092
 10
33.0537
 20
28.8959
 30
0.000000
  70
    32
  0
VERTEX
  8
3
  5
1093
 10
33.0553
 20
28.8976
 30
0.000000
  70
    32
  0
VERTEX
  8
3
  5
1094
 10
33.0569
 20
28.8993
 30
0.000000
  70
    32
  0
VERTEX
  8
3
  5
1095
 10
33.0585
 20
28.9010
 30
0.000000
  70
    32
  0
VERTEX
  8
3
  5
1096
 10
33.0601
 20
28.9027
 30
0.000000
  70
    32
  0
VERTEX
  8
3
  5
1097
 10
33.0616
 20
28.9044
 30
0.000000
  70
    32
  0
VERTEX
  8
3
  5
1098
 10
33.0632
 20
28.9061
 30
0.000000
  70
    32
  0
VERTEX
  8
3
  5
1099
 10
33.0648
 20
28.9079
 30
0.000000
  70
    32
  0
VERTEX
  8
3
  5
109A
 10
33.0664
 20
28.9096
 30
0.000000
  70
    32
  0
VERTEX
  8
3
  5
109B
 10
33.0680
 20
28.9113
 30
0.000000
  70
    32
  0
VERTEX
  8
3
  5
109C
 10
33.0696
 20
28.9130
 30
0.000000
  70
    32
  0
VERTEX
  8
3
  5
109D
 10
33.0711
 20
28.9148
 30
0.000000
  70
    32
  0
VERTEX
  8
3
  5
109E
 10
33.0727
 20
28.9165
 30
0.000000
  70
    32
  0
VERTEX
  8
3
  5
109F
 10
33.0743
 20
28.9182
 30
0.000000
  70
    32
  0
VERTEX
  8
3
  5
10A0
 10
33.0758
 20
28.9199
 30
0.000000
  70
    32
  0
VERTEX
  8
3
  5
10A1
 10
33.0774
 20
28.9217
 30
0.000000
  70
    32
  0
VERTEX
  8
3
  5
10A2
 10
33.0790
 20
28.9234
 30
0.000000
  70
    32
  0
VERTEX
  8
3
  5
10A3
 10
33.0805
 20
28.9251
 30
0.000000
  70
    32
  0
VERTEX
  8
3
  5
10A4
 10
33.0821
 20
28.9269
 30
0.000000
  70
    32
  0
VERTEX
  8
3
  5
10A5
 10
33.0836
 20
28.9286
 30
0.000000
  70
    32
  0
VERTEX
  8
3
  5
10A6
 10
33.0852
 20
28.9304
 30
0.000000
  70
    32
  0
SEQEND
  8
3
  5
10A7
  0
LINE
  5
6AB
  8
3
 10
32.444749930873513
 20
29.269750027451661
 30
0.0
 11
33.085197415202863
 21
29.910197439021431
 31
0.0
  0
LINE
  5
6AC
  8
3
 10
33.085197415202863
 20
29.910197439021431
 30
0.0
 11
33.085197415202863
 21
28.93035099375993
 31
0.0
  0
LINE
  5
6AD
  8
3
 10
29.910197439021431
 20
26.91480258479714
 30
0.0
 11
28.93035099375993
 21
26.91480258479714
 31
0.0
  0
POLYLINE
  5
6AE
  8
3
 10
28.720727937872038
 20
27.133227903913038
 30
0.0
 66
     1
 70
     8
  0
VERTEX
  8
3
  5
10A8
 10
28.7207
 20
27.1332
 30
0.000000
  70
    32
  0
VERTEX
  8
3
  5
10A9
 10
28.7223
 20
27.1314
 30
0.000000
  70
    32
  0
VERTEX
  8
3
  5
10AA
 10
28.7238
 20
27.1295
 30
0.000000
  70
    32
  0
VERTEX
  8
3
  5
10AB
 10
28.7253
 20
27.1277
 30
0.000000
  70
    32
  0
VERTEX
  8
3
  5
10AC
 10
28.7269
 20
27.1258
 30
0.000000
  70
    32
  0
VERTEX
  8
3
  5
10AD
 10
28.7284
 20
27.1240
 30
0.000000
  70
    32
  0
VERTEX
  8
3
  5
10AE
 10
28.7299
 20
27.1221
 30
0.000000
  70
    32
  0
VERTEX
  8
3
  5
10AF
 10
28.7315
 20
27.1203
 30
0.000000
  70
    32
  0
VERTEX
  8
3
  5
10B0
 10
28.7330
 20
27.1185
 30
0.000000
  70
    32
  0
VERTEX
  8
3
  5
10B1
 10
28.7346
 20
27.1166
 30
0.000000
  70
    32
  0
VERTEX
  8
3
  5
10B2
 10
28.7361
 20
27.1148
 30
0.000000
  70
    32
  0
VERTEX
  8
3
  5
10B3
 10
28.7377
 20
27.1130
 30
0.000000
  70
    32
  0
VERTEX
  8
3
  5
10B4
 10
28.7392
 20
27.1111
 30
0.000000
  70
    32
  0
VERTEX
  8
3
  5
10B5
 10
28.7408
 20
27.1093
 30
0.000000
  70
    32
  0
VERTEX
  8
3
  5
10B6
 10
28.7423
 20
27.1075
 30
0.000000
  70
    32
  0
VERTEX
  8
3
  5
10B7
 10
28.7439
 20
27.1057
 30
0.000000
  70
    32
  0
VERTEX
  8
3
  5
10B8
 10
28.7454
 20
27.1038
 30
0.000000
  70
    32
  0
VERTEX
  8
3
  5
10B9
 10
28.7470
 20
27.1020
 30
0.000000
  70
    32
  0
VERTEX
  8
3
  5
10BA
 10
28.7485
 20
27.1002
 30
0.000000
  70
    32
  0
VERTEX
  8
3
  5
10BB
 10
28.7501
 20
27.0984
 30
0.000000
  70
    32
  0
VERTEX
  8
3
  5
10BC
 10
28.7517
 20
27.0966
 30
0.000000
  70
    32
  0
VERTEX
  8
3
  5
10BD
 10
28.7532
 20
27.0948
 30
0.000000
  70
    32
  0
VERTEX
  8
3
  5
10BE
 10
28.7548
 20
27.0930
 30
0.000000
  70
    32
  0
VERTEX
  8
3
  5
10BF
 10
28.7564
 20
27.0912
 30
0.000000
  70
    32
  0
VERTEX
  8
3
  5
10C0
 10
28.7579
 20
27.0893
 30
0.000000
  70
    32
  0
VERTEX
  8
3
  5
10C1
 10
28.7595
 20
27.0875
 30
0.000000
  70
    32
  0
VERTEX
  8
3
  5
10C2
 10
28.7611
 20
27.0858
 30
0.000000
  70
    32
  0
VERTEX
  8
3
  5
10C3
 10
28.7627
 20
27.0840
 30
0.000000
  70
    32
  0
VERTEX
  8
3
  5
10C4
 10
28.7642
 20
27.0822
 30
0.000000
  70
    32
  0
VERTEX
  8
3
  5
10C5
 10
28.7658
 20
27.0804
 30
0.000000
  70
    32
  0
VERTEX
  8
3
  5
10C6
 10
28.7674
 20
27.0786
 30
0.000000
  70
    32
  0
VERTEX
  8
3
  5
10C7
 10
28.7690
 20
27.0768
 30
0.000000
  70
    32
  0
VERTEX
  8
3
  5
10C8
 10
28.7706
 20
27.0750
 30
0.000000
  70
    32
  0
VERTEX
  8
3
  5
10C9
 10
28.7721
 20
27.0732
 30
0.000000
  70
    32
  0
VERTEX
  8
3
  5
10CA
 10
28.7737
 20
27.0715
 30
0.000000
  70
    32
  0
VERTEX
  8
3
  5
10CB
 10
28.7753
 20
27.0697
 30
0.000000
  70
    32
  0
VERTEX
  8
3
  5
10CC
 10
28.7769
 20
27.0679
 30
0.000000
  70
    32
  0
VERTEX
  8
3
  5
10CD
 10
28.7785
 20
27.0661
 30
0.000000
  70
    32
  0
VERTEX
  8
3
  5
10CE
 10
28.7801
 20
27.0644
 30
0.000000
  70
    32
  0
VERTEX
  8
3
  5
10CF
 10
28.7817
 20
27.0626
 30
0.000000
  70
    32
  0
VERTEX
  8
3
  5
10D0
 10
28.7833
 20
27.0608
 30
0.000000
  70
    32
  0
VERTEX
  8
3
  5
10D1
 10
28.7849
 20
27.0591
 30
0.000000
  70
    32
  0
VERTEX
  8
3
  5
10D2
 10
28.7865
 20
27.0573
 30
0.000000
  70
    32
  0
VERTEX
  8
3
  5
10D3
 10
28.7881
 20
27.0555
 30
0.000000
  70
    32
  0
VERTEX
  8
3
  5
10D4
 10
28.7897
 20
27.0538
 30
0.000000
  70
    32
  0
VERTEX
  8
3
  5
10D5
 10
28.7913
 20
27.0520
 30
0.000000
  70
    32
  0
VERTEX
  8
3
  5
10D6
 10
28.7929
 20
27.0503
 30
0.000000
  70
    32
  0
VERTEX
  8
3
  5
10D7
 10
28.7945
 20
27.0485
 30
0.000000
  70
    32
  0
VERTEX
  8
3
  5
10D8
 10
28.7961
 20
27.0468
 30
0.000000
  70
    32
  0
VERTEX
  8
3
  5
10D9
 10
28.7978
 20
27.0450
 30
0.000000
  70
    32
  0
VERTEX
  8
3
  5
10DA
 10
28.7994
 20
27.0433
 30
0.000000
  70
    32
  0
VERTEX
  8
3
  5
10DB
 10
28.8010
 20
27.0416
 30
0.000000
  70
    32
  0
VERTEX
  8
3
  5
10DC
 10
28.8026
 20
27.0398
 30
0.000000
  70
    32
  0
VERTEX
  8
3
  5
10DD
 10
28.8042
 20
27.0381
 30
0.000000
  70
    32
  0
VERTEX
  8
3
  5
10DE
 10
28.8058
 20
27.0363
 30
0.000000
  70
    32
  0
VERTEX
  8
3
  5
10DF
 10
28.8075
 20
27.0346
 30
0.000000
  70
    32
  0
VERTEX
  8
3
  5
10E0
 10
28.8091
 20
27.0329
 30
0.000000
  70
    32
  0
VERTEX
  8
3
  5
10E1
 10
28.8107
 20
27.0312
 30
0.000000
  70
    32
  0
VERTEX
  8
3
  5
10E2
 10
28.8124
 20
27.0294
 30
0.000000
  70
    32
  0
VERTEX
  8
3
  5
10E3
 10
28.8140
 20
27.0277
 30
0.000000
  70
    32
  0
VERTEX
  8
3
  5
10E4
 10
28.8156
 20
27.0260
 30
0.000000
  70
    32
  0
VERTEX
  8
3
  5
10E5
 10
28.8172
 20
27.0243
 30
0.000000
  70
    32
  0
VERTEX
  8
3
  5
10E6
 10
28.8189
 20
27.0226
 30
0.000000
  70
    32
  0
VERTEX
  8
3
  5
10E7
 10
28.8205
 20
27.0209
 30
0.000000
  70
    32
  0
VERTEX
  8
3
  5
10E8
 10
28.8222
 20
27.0191
 30
0.000000
  70
    32
  0
VERTEX
  8
3
  5
10E9
 10
28.8238
 20
27.0174
 30
0.000000
  70
    32
  0
VERTEX
  8
3
  5
10EA
 10
28.8254
 20
27.0157
 30
0.000000
  70
    32
  0
VERTEX
  8
3
  5
10EB
 10
28.8271
 20
27.0140
 30
0.000000
  70
    32
  0
VERTEX
  8
3
  5
10EC
 10
28.8287
 20
27.0123
 30
0.000000
  70
    32
  0
VERTEX
  8
3
  5
10ED
 10
28.8304
 20
27.0106
 30
0.000000
  70
    32
  0
VERTEX
  8
3
  5
10EE
 10
28.8320
 20
27.0089
 30
0.000000
  70
    32
  0
VERTEX
  8
3
  5
10EF
 10
28.8337
 20
27.0073
 30
0.000000
  70
    32
  0
VERTEX
  8
3
  5
10F0
 10
28.8353
 20
27.0056
 30
0.000000
  70
    32
  0
VERTEX
  8
3
  5
10F1
 10
28.8370
 20
27.0039
 30
0.000000
  70
    32
  0
VERTEX
  8
3
  5
10F2
 10
28.8386
 20
27.0022
 30
0.000000
  70
    32
  0
VERTEX
  8
3
  5
10F3
 10
28.8403
 20
27.0005
 30
0.000000
  70
    32
  0
VERTEX
  8
3
  5
10F4
 10
28.8419
 20
26.9988
 30
0.000000
  70
    32
  0
VERTEX
  8
3
  5
10F5
 10
28.8436
 20
26.9971
 30
0.000000
  70
    32
  0
VERTEX
  8
3
  5
10F6
 10
28.8453
 20
26.9955
 30
0.000000
  70
    32
  0
VERTEX
  8
3
  5
10F7
 10
28.8469
 20
26.9938
 30
0.000000
  70
    32
  0
VERTEX
  8
3
  5
10F8
 10
28.8486
 20
26.9921
 30
0.000000
  70
    32
  0
VERTEX
  8
3
  5
10F9
 10
28.8503
 20
26.9905
 30
0.000000
  70
    32
  0
VERTEX
  8
3
  5
10FA
 10
28.8519
 20
26.9888
 30
0.000000
  70
    32
  0
VERTEX
  8
3
  5
10FB
 10
28.8536
 20
26.9871
 30
0.000000
  70
    32
  0
VERTEX
  8
3
  5
10FC
 10
28.8553
 20
26.9855
 30
0.000000
  70
    32
  0
VERTEX
  8
3
  5
10FD
 10
28.8569
 20
26.9838
 30
0.000000
  70
    32
  0
VERTEX
  8
3
  5
10FE
 10
28.8586
 20
26.9822
 30
0.000000
  70
    32
  0
VERTEX
  8
3
  5
10FF
 10
28.8603
 20
26.9805
 30
0.000000
  70
    32
  0
VERTEX
  8
3
  5
1100
 10
28.8620
 20
26.9788
 30
0.000000
  70
    32
  0
VERTEX
  8
3
  5
1101
 10
28.8637
 20
26.9772
 30
0.000000
  70
    32
  0
VERTEX
  8
3
  5
1102
 10
28.8653
 20
26.9755
 30
0.000000
  70
    32
  0
VERTEX
  8
3
  5
1103
 10
28.8670
 20
26.9739
 30
0.000000
  70
    32
  0
VERTEX
  8
3
  5
1104
 10
28.8687
 20
26.9723
 30
0.000000
  70
    32
  0
VERTEX
  8
3
  5
1105
 10
28.8704
 20
26.9706
 30
0.000000
  70
    32
  0
VERTEX
  8
3
  5
1106
 10
28.8721
 20
26.9690
 30
0.000000
  70
    32
  0
VERTEX
  8
3
  5
1107
 10
28.8738
 20
26.9674
 30
0.000000
  70
    32
  0
VERTEX
  8
3
  5
1108
 10
28.8754
 20
26.9657
 30
0.000000
  70
    32
  0
VERTEX
  8
3
  5
1109
 10
28.8771
 20
26.9641
 30
0.000000
  70
    32
  0
VERTEX
  8
3
  5
110A
 10
28.8788
 20
26.9625
 30
0.000000
  70
    32
  0
VERTEX
  8
3
  5
110B
 10
28.8805
 20
26.9608
 30
0.000000
  70
    32
  0
VERTEX
  8
3
  5
110C
 10
28.8822
 20
26.9592
 30
0.000000
  70
    32
  0
VERTEX
  8
3
  5
110D
 10
28.8839
 20
26.9576
 30
0.000000
  70
    32
  0
VERTEX
  8
3
  5
110E
 10
28.8856
 20
26.9560
 30
0.000000
  70
    32
  0
VERTEX
  8
3
  5
110F
 10
28.8873
 20
26.9544
 30
0.000000
  70
    32
  0
VERTEX
  8
3
  5
1110
 10
28.8890
 20
26.9528
 30
0.000000
  70
    32
  0
VERTEX
  8
3
  5
1111
 10
28.8907
 20
26.9511
 30
0.000000
  70
    32
  0
VERTEX
  8
3
  5
1112
 10
28.8924
 20
26.9495
 30
0.000000
  70
    32
  0
VERTEX
  8
3
  5
1113
 10
28.8941
 20
26.9479
 30
0.000000
  70
    32
  0
VERTEX
  8
3
  5
1114
 10
28.8959
 20
26.9463
 30
0.000000
  70
    32
  0
VERTEX
  8
3
  5
1115
 10
28.8976
 20
26.9447
 30
0.000000
  70
    32
  0
VERTEX
  8
3
  5
1116
 10
28.8993
 20
26.9431
 30
0.000000
  70
    32
  0
VERTEX
  8
3
  5
1117
 10
28.9010
 20
26.9415
 30
0.000000
  70
    32
  0
VERTEX
  8
3
  5
1118
 10
28.9027
 20
26.9399
 30
0.000000
  70
    32
  0
VERTEX
  8
3
  5
1119
 10
28.9044
 20
26.9384
 30
0.000000
  70
    32
  0
VERTEX
  8
3
  5
111A
 10
28.9061
 20
26.9368
 30
0.000000
  70
    32
  0
VERTEX
  8
3
  5
111B
 10
28.9079
 20
26.9352
 30
0.000000
  70
    32
  0
VERTEX
  8
3
  5
111C
 10
28.9096
 20
26.9336
 30
0.000000
  70
    32
  0
VERTEX
  8
3
  5
111D
 10
28.9113
 20
26.9320
 30
0.000000
  70
    32
  0
VERTEX
  8
3
  5
111E
 10
28.9130
 20
26.9304
 30
0.000000
  70
    32
  0
VERTEX
  8
3
  5
111F
 10
28.9148
 20
26.9289
 30
0.000000
  70
    32
  0
VERTEX
  8
3
  5
1120
 10
28.9165
 20
26.9273
 30
0.000000
  70
    32
  0
VERTEX
  8
3
  5
1121
 10
28.9182
 20
26.9257
 30
0.000000
  70
    32
  0
VERTEX
  8
3
  5
1122
 10
28.9199
 20
26.9242
 30
0.000000
  70
    32
  0
VERTEX
  8
3
  5
1123
 10
28.9217
 20
26.9226
 30
0.000000
  70
    32
  0
VERTEX
  8
3
  5
1124
 10
28.9234
 20
26.9210
 30
0.000000
  70
    32
  0
VERTEX
  8
3
  5
1125
 10
28.9251
 20
26.9195
 30
0.000000
  70
    32
  0
VERTEX
  8
3
  5
1126
 10
28.9269
 20
26.9179
 30
0.000000
  70
    32
  0
VERTEX
  8
3
  5
1127
 10
28.9286
 20
26.9164
 30
0.000000
  70
    32
  0
VERTEX
  8
3
  5
1128
 10
28.9304
 20
26.9148
 30
0.000000
  70
    32
  0
SEQEND
  8
3
  5
1129
  0
LINE
  5
6AF
  8
3
 10
29.269750027451661
 20
27.55525006912649
 30
0.0
 11
29.910197439021431
 21
26.91480258479714
 31
0.0
  0
LINE
  5
6B0
  8
3
 10
32.31774989515543
 20
30.730249972548339
 30
0.0
 11
32.444749930873513
 21
30.730249972548339
 31
0.0
  0
LINE
  5
6B1
  8
3
 10
33.085197415202863
 20
30.089802560978569
 30
0.0
 11
32.444749930873513
 21
30.730249972548339
 31
0.0
  0
LINE
  5
6B2
  8
3
 10
31.677302527241409
 20
30.089802560978569
 30
0.0
 11
33.085197415202863
 21
30.089802560978569
 31
0.0
  0
LINE
  5
6B3
  8
3
 10
31.677302527241409
 20
30.089802560978569
 30
0.0
 11
32.31774989515543
 21
30.730249972548339
 31
0.0
  0
LINE
  5
6B4
  8
3
 10
32.31774989515543
 20
30.857250008266419
 30
0.0
 11
32.31774989515543
 21
30.730249972548339
 31
0.0
  0
LINE
  5
6B5
  8
3
 10
31.677302527241409
 20
30.089802560978569
 30
0.0
 11
31.677302527241409
 21
31.497697434388101
 31
0.0
  0
LINE
  5
6B6
  8
3
 10
32.31774989515543
 20
30.857250008266419
 30
0.0
 11
31.677302527241409
 21
31.497697434388101
 31
0.0
  0
LINE
  5
6B7
  8
3
 10
32.444749930873513
 20
30.857250008266419
 30
0.0
 11
32.31774989515543
 21
30.857250008266419
 31
0.0
  0
LINE
  5
6B8
  8
3
 10
32.444749930873513
 20
30.730249972548339
 30
0.0
 11
32.444749930873513
 21
30.857250008266419
 31
0.0
  0
LINE
  5
6B9
  8
3
 10
30.857250008266419
 20
29.269750027451661
 30
0.0
 11
30.730249972548339
 21
29.269750027451661
 31
0.0
  0
LINE
  5
6BA
  8
3
 10
30.857250008266419
 20
29.142749991733581
 30
0.0
 11
30.857250008266419
 21
29.269750027451661
 31
0.0
  0
LINE
  5
6BB
  8
3
 10
30.730249972548339
 20
29.142749991733581
 30
0.0
 11
30.857250008266419
 21
29.142749991733581
 31
0.0
  0
LINE
  5
6BC
  8
3
 10
30.730249972548339
 20
29.269750027451661
 30
0.0
 11
30.730249972548339
 21
29.142749991733581
 31
0.0
  0
LINE
  5
6BD
  8
3
 10
30.089802560978569
 20
28.502302565611899
 30
0.0
 11
31.497697434388101
 21
28.502302565611899
 31
0.0
  0
LINE
  5
6BE
  8
3
 10
30.089802560978569
 20
28.502302565611899
 30
0.0
 11
30.730249972548339
 21
29.142749991733581
 31
0.0
  0
LINE
  5
6BF
  8
3
 10
30.857250008266419
 20
29.142749991733581
 30
0.0
 11
31.497697434388101
 21
28.502302565611899
 31
0.0
  0
LINE
  5
6C0
  8
3
 10
30.089802560978569
 20
28.502302565611899
 30
0.0
 11
30.089802560978569
 21
29.910197439021431
 31
0.0
  0
LINE
  5
6C1
  8
3
 10
30.089802560978569
 20
29.910197439021431
 30
0.0
 11
30.730249972548339
 21
29.269750027451661
 31
0.0
  0
LINE
  5
6C2
  8
3
 10
29.910197439021431
 20
30.089802560978569
 30
0.0
 11
28.502302565611899
 21
30.089802560978569
 31
0.0
  0
LINE
  5
6C3
  8
3
 10
29.142749991733581
 20
30.730249972548339
 30
0.0
 11
28.502302565611899
 21
30.089802560978569
 31
0.0
  0
LINE
  5
6C4
  8
3
 10
29.142749991733581
 20
30.730249972548339
 30
0.0
 11
29.269750027451661
 21
30.730249972548339
 31
0.0
  0
LINE
  5
6C5
  8
3
 10
29.910197439021431
 20
30.089802560978569
 30
0.0
 11
29.269750027451661
 21
30.730249972548339
 31
0.0
  0
LINE
  5
6C6
  8
3
 10
29.269750027451661
 20
30.857250008266419
 30
0.0
 11
29.142749991733581
 21
30.857250008266419
 31
0.0
  0
LINE
  5
6C7
  8
3
 10
29.269750027451661
 20
30.730249972548339
 30
0.0
 11
29.269750027451661
 21
30.857250008266419
 31
0.0
  0
LINE
  5
6C8
  8
3
 10
29.142749991733581
 20
30.857250008266419
 30
0.0
 11
29.142749991733581
 21
30.730249972548339
 31
0.0
  0
LINE
  5
6C9
  8
3
 10
28.502302565611899
 20
31.497697434388101
 30
0.0
 11
28.502302565611899
 21
30.089802560978569
 31
0.0
  0
LINE
  5
6CA
  8
3
 10
29.142749991733581
 20
30.857250008266419
 30
0.0
 11
28.502302565611899
 21
31.497697434388101
 31
0.0
  0
LINE
  5
6CB
  8
3
 10
29.269750027451661
 20
29.269750027451661
 30
0.0
 11
29.142749991733581
 21
29.269750027451661
 31
0.0
  0
LINE
  5
6CC
  8
3
 10
29.269750027451661
 20
29.142749991733581
 30
0.0
 11
29.269750027451661
 21
29.269750027451661
 31
0.0
  0
LINE
  5
6CD
  8
3
 10
29.142749991733581
 20
29.142749991733581
 30
0.0
 11
29.269750027451661
 21
29.142749991733581
 31
0.0
  0
LINE
  5
6CE
  8
3
 10
29.142749991733581
 20
29.269750027451661
 30
0.0
 11
29.142749991733581
 21
29.142749991733581
 31
0.0
  0
LINE
  5
6CF
  8
3
 10
29.142749991733581
 20
29.142749991733581
 30
0.0
 11
28.502302565611899
 21
28.502302565611899
 31
0.0
  0
LINE
  5
6D0
  8
3
 10
28.502302565611899
 20
29.910197439021431
 30
0.0
 11
28.502302565611899
 21
28.502302565611899
 31
0.0
  0
LINE
  5
6D1
  8
3
 10
28.502302565611899
 20
29.910197439021431
 30
0.0
 11
29.142749991733581
 21
29.269750027451661
 31
0.0
  0
LINE
  5
6D2
  8
3
 10
28.502302565611899
 20
29.910197439021431
 30
0.0
 11
29.910197439021431
 21
29.910197439021431
 31
0.0
  0
LINE
  5
6D3
  8
3
 10
29.910197439021431
 20
29.910197439021431
 30
0.0
 11
29.269750027451661
 21
29.269750027451661
 31
0.0
  0
LINE
  5
6D4
  8
3
 10
28.502302565611899
 20
28.502302565611899
 30
0.0
 11
29.910197439021431
 21
28.502302565611899
 31
0.0
  0
LINE
  5
6D5
  8
3
 10
29.269750027451661
 20
29.142749991733581
 30
0.0
 11
29.910197439021431
 21
28.502302565611899
 31
0.0
  0
LINE
  5
6D6
  8
3
 10
30.857250008266419
 20
27.68225010484457
 30
0.0
 11
30.730249972548339
 21
27.68225010484457
 31
0.0
  0
LINE
  5
6D7
  8
3
 10
30.857250008266419
 20
27.55525006912649
 30
0.0
 11
30.857250008266419
 21
27.68225010484457
 31
0.0
  0
LINE
  5
6D8
  8
3
 10
30.730249972548339
 20
27.55525006912649
 30
0.0
 11
30.857250008266419
 21
27.55525006912649
 31
0.0
  0
LINE
  5
6D9
  8
3
 10
30.730249972548339
 20
27.68225010484457
 30
0.0
 11
30.730249972548339
 21
27.55525006912649
 31
0.0
  0
LINE
  5
6DA
  8
3
 10
30.089802560978569
 20
28.322697472758591
 30
0.0
 11
30.730249972548339
 21
27.68225010484457
 31
0.0
  0
LINE
  5
6DB
  8
3
 10
30.089802560978569
 20
28.322697472758591
 30
0.0
 11
31.497697434388101
 21
28.322697472758591
 31
0.0
  0
LINE
  5
6DC
  8
3
 10
30.857250008266419
 20
27.68225010484457
 30
0.0
 11
31.497697434388101
 21
28.322697472758591
 31
0.0
  0
LINE
  5
6DD
  8
3
 10
30.089802560978569
 20
26.91480258479714
 30
0.0
 11
30.089802560978569
 21
28.322697472758591
 31
0.0
  0
LINE
  5
6DE
  8
3
 10
30.089802560978569
 20
26.91480258479714
 30
0.0
 11
30.730249972548339
 21
27.55525006912649
 31
0.0
  0
LINE
  5
6DF
  8
3
 10
31.497697434388101
 20
28.322697472758591
 30
0.0
 11
31.497697434388101
 21
27.098363470286131
 31
0.0
  0
LINE
  5
6E0
  8
3
 10
31.497697434388101
 20
27.098363470286131
 30
0.0
 11
31.279272371903058
 21
27.133227763697501
 31
0.0
  0
LINE
  5
6E1
  8
3
 10
30.857250008266419
 20
27.55525006912649
 30
0.0
 11
31.27927225548774
 21
27.133227996528149
 31
0.0
  0
POLYLINE
  5
6E2
  8
3
 10
31.069649020770058
 20
26.914802561253353
 30
0.0
 66
     1
 70
     8
  0
VERTEX
  8
3
  5
112A
 10
31.0696
 20
26.9148
 30
0.000000
  70
    32
  0
VERTEX
  8
3
  5
112B
 10
31.0714
 20
26.9164
 30
0.000000
  70
    32
  0
VERTEX
  8
3
  5
112C
 10
31.0731
 20
26.9179
 30
0.000000
  70
    32
  0
VERTEX
  8
3
  5
112D
 10
31.0749
 20
26.9195
 30
0.000000
  70
    32
  0
VERTEX
  8
3
  5
112E
 10
31.0766
 20
26.9210
 30
0.000000
  70
    32
  0
VERTEX
  8
3
  5
112F
 10
31.0783
 20
26.9226
 30
0.000000
  70
    32
  0
VERTEX
  8
3
  5
1130
 10
31.0801
 20
26.9242
 30
0.000000
  70
    32
  0
VERTEX
  8
3
  5
1131
 10
31.0818
 20
26.9257
 30
0.000000
  70
    32
  0
VERTEX
  8
3
  5
1132
 10
31.0835
 20
26.9273
 30
0.000000
  70
    32
  0
VERTEX
  8
3
  5
1133
 10
31.0852
 20
26.9289
 30
0.000000
  70
    32
  0
VERTEX
  8
3
  5
1134
 10
31.0870
 20
26.9304
 30
0.000000
  70
    32
  0
VERTEX
  8
3
  5
1135
 10
31.0887
 20
26.9320
 30
0.000000
  70
    32
  0
VERTEX
  8
3
  5
1136
 10
31.0904
 20
26.9336
 30
0.000000
  70
    32
  0
VERTEX
  8
3
  5
1137
 10
31.0921
 20
26.9352
 30
0.000000
  70
    32
  0
VERTEX
  8
3
  5
1138
 10
31.0939
 20
26.9368
 30
0.000000
  70
    32
  0
VERTEX
  8
3
  5
1139
 10
31.0956
 20
26.9384
 30
0.000000
  70
    32
  0
VERTEX
  8
3
  5
113A
 10
31.0973
 20
26.9399
 30
0.000000
  70
    32
  0
VERTEX
  8
3
  5
113B
 10
31.0990
 20
26.9415
 30
0.000000
  70
    32
  0
VERTEX
  8
3
  5
113C
 10
31.1007
 20
26.9431
 30
0.000000
  70
    32
  0
VERTEX
  8
3
  5
113D
 10
31.1024
 20
26.9447
 30
0.000000
  70
    32
  0
VERTEX
  8
3
  5
113E
 10
31.1041
 20
26.9463
 30
0.000000
  70
    32
  0
VERTEX
  8
3
  5
113F
 10
31.1059
 20
26.9479
 30
0.000000
  70
    32
  0
VERTEX
  8
3
  5
1140
 10
31.1076
 20
26.9495
 30
0.000000
  70
    32
  0
VERTEX
  8
3
  5
1141
 10
31.1093
 20
26.9511
 30
0.000000
  70
    32
  0
VERTEX
  8
3
  5
1142
 10
31.1110
 20
26.9528
 30
0.000000
  70
    32
  0
VERTEX
  8
3
  5
1143
 10
31.1127
 20
26.9544
 30
0.000000
  70
    32
  0
VERTEX
  8
3
  5
1144
 10
31.1144
 20
26.9560
 30
0.000000
  70
    32
  0
VERTEX
  8
3
  5
1145
 10
31.1161
 20
26.9576
 30
0.000000
  70
    32
  0
VERTEX
  8
3
  5
1146
 10
31.1178
 20
26.9592
 30
0.000000
  70
    32
  0
VERTEX
  8
3
  5
1147
 10
31.1195
 20
26.9608
 30
0.000000
  70
    32
  0
VERTEX
  8
3
  5
1148
 10
31.1212
 20
26.9625
 30
0.000000
  70
    32
  0
VERTEX
  8
3
  5
1149
 10
31.1229
 20
26.9641
 30
0.000000
  70
    32
  0
VERTEX
  8
3
  5
114A
 10
31.1246
 20
26.9657
 30
0.000000
  70
    32
  0
VERTEX
  8
3
  5
114B
 10
31.1262
 20
26.9674
 30
0.000000
  70
    32
  0
VERTEX
  8
3
  5
114C
 10
31.1279
 20
26.9690
 30
0.000000
  70
    32
  0
VERTEX
  8
3
  5
114D
 10
31.1296
 20
26.9706
 30
0.000000
  70
    32
  0
VERTEX
  8
3
  5
114E
 10
31.1313
 20
26.9723
 30
0.000000
  70
    32
  0
VERTEX
  8
3
  5
114F
 10
31.1330
 20
26.9739
 30
0.000000
  70
    32
  0
VERTEX
  8
3
  5
1150
 10
31.1347
 20
26.9755
 30
0.000000
  70
    32
  0
VERTEX
  8
3
  5
1151
 10
31.1363
 20
26.9772
 30
0.000000
  70
    32
  0
VERTEX
  8
3
  5
1152
 10
31.1380
 20
26.9788
 30
0.000000
  70
    32
  0
VERTEX
  8
3
  5
1153
 10
31.1397
 20
26.9805
 30
0.000000
  70
    32
  0
VERTEX
  8
3
  5
1154
 10
31.1414
 20
26.9822
 30
0.000000
  70
    32
  0
VERTEX
  8
3
  5
1155
 10
31.1431
 20
26.9838
 30
0.000000
  70
    32
  0
VERTEX
  8
3
  5
1156
 10
31.1447
 20
26.9855
 30
0.000000
  70
    32
  0
VERTEX
  8
3
  5
1157
 10
31.1464
 20
26.9871
 30
0.000000
  70
    32
  0
VERTEX
  8
3
  5
1158
 10
31.1481
 20
26.9888
 30
0.000000
  70
    32
  0
VERTEX
  8
3
  5
1159
 10
31.1497
 20
26.9905
 30
0.000000
  70
    32
  0
VERTEX
  8
3
  5
115A
 10
31.1514
 20
26.9921
 30
0.000000
  70
    32
  0
VERTEX
  8
3
  5
115B
 10
31.1531
 20
26.9938
 30
0.000000
  70
    32
  0
VERTEX
  8
3
  5
115C
 10
31.1547
 20
26.9955
 30
0.000000
  70
    32
  0
VERTEX
  8
3
  5
115D
 10
31.1564
 20
26.9971
 30
0.000000
  70
    32
  0
VERTEX
  8
3
  5
115E
 10
31.1581
 20
26.9988
 30
0.000000
  70
    32
  0
VERTEX
  8
3
  5
115F
 10
31.1597
 20
27.0005
 30
0.000000
  70
    32
  0
VERTEX
  8
3
  5
1160
 10
31.1614
 20
27.0022
 30
0.000000
  70
    32
  0
VERTEX
  8
3
  5
1161
 10
31.1630
 20
27.0039
 30
0.000000
  70
    32
  0
VERTEX
  8
3
  5
1162
 10
31.1647
 20
27.0056
 30
0.000000
  70
    32
  0
VERTEX
  8
3
  5
1163
 10
31.1663
 20
27.0073
 30
0.000000
  70
    32
  0
VERTEX
  8
3
  5
1164
 10
31.1680
 20
27.0089
 30
0.000000
  70
    32
  0
VERTEX
  8
3
  5
1165
 10
31.1696
 20
27.0106
 30
0.000000
  70
    32
  0
VERTEX
  8
3
  5
1166
 10
31.1713
 20
27.0123
 30
0.000000
  70
    32
  0
VERTEX
  8
3
  5
1167
 10
31.1729
 20
27.0140
 30
0.000000
  70
    32
  0
VERTEX
  8
3
  5
1168
 10
31.1746
 20
27.0157
 30
0.000000
  70
    32
  0
VERTEX
  8
3
  5
1169
 10
31.1762
 20
27.0174
 30
0.000000
  70
    32
  0
VERTEX
  8
3
  5
116A
 10
31.1778
 20
27.0191
 30
0.000000
  70
    32
  0
VERTEX
  8
3
  5
116B
 10
31.1795
 20
27.0209
 30
0.000000
  70
    32
  0
VERTEX
  8
3
  5
116C
 10
31.1811
 20
27.0226
 30
0.000000
  70
    32
  0
VERTEX
  8
3
  5
116D
 10
31.1828
 20
27.0243
 30
0.000000
  70
    32
  0
VERTEX
  8
3
  5
116E
 10
31.1844
 20
27.0260
 30
0.000000
  70
    32
  0
VERTEX
  8
3
  5
116F
 10
31.1860
 20
27.0277
 30
0.000000
  70
    32
  0
VERTEX
  8
3
  5
1170
 10
31.1876
 20
27.0294
 30
0.000000
  70
    32
  0
VERTEX
  8
3
  5
1171
 10
31.1893
 20
27.0312
 30
0.000000
  70
    32
  0
VERTEX
  8
3
  5
1172
 10
31.1909
 20
27.0329
 30
0.000000
  70
    32
  0
VERTEX
  8
3
  5
1173
 10
31.1925
 20
27.0346
 30
0.000000
  70
    32
  0
VERTEX
  8
3
  5
1174
 10
31.1942
 20
27.0363
 30
0.000000
  70
    32
  0
VERTEX
  8
3
  5
1175
 10
31.1958
 20
27.0381
 30
0.000000
  70
    32
  0
VERTEX
  8
3
  5
1176
 10
31.1974
 20
27.0398
 30
0.000000
  70
    32
  0
VERTEX
  8
3
  5
1177
 10
31.1990
 20
27.0416
 30
0.000000
  70
    32
  0
VERTEX
  8
3
  5
1178
 10
31.2006
 20
27.0433
 30
0.000000
  70
    32
  0
VERTEX
  8
3
  5
1179
 10
31.2022
 20
27.0450
 30
0.000000
  70
    32
  0
VERTEX
  8
3
  5
117A
 10
31.2039
 20
27.0468
 30
0.000000
  70
    32
  0
VERTEX
  8
3
  5
117B
 10
31.2055
 20
27.0485
 30
0.000000
  70
    32
  0
VERTEX
  8
3
  5
117C
 10
31.2071
 20
27.0503
 30
0.000000
  70
    32
  0
VERTEX
  8
3
  5
117D
 10
31.2087
 20
27.0520
 30
0.000000
  70
    32
  0
VERTEX
  8
3
  5
117E
 10
31.2103
 20
27.0538
 30
0.000000
  70
    32
  0
VERTEX
  8
3
  5
117F
 10
31.2119
 20
27.0555
 30
0.000000
  70
    32
  0
VERTEX
  8
3
  5
1180
 10
31.2135
 20
27.0573
 30
0.000000
  70
    32
  0
VERTEX
  8
3
  5
1181
 10
31.2151
 20
27.0591
 30
0.000000
  70
    32
  0
VERTEX
  8
3
  5
1182
 10
31.2167
 20
27.0608
 30
0.000000
  70
    32
  0
VERTEX
  8
3
  5
1183
 10
31.2183
 20
27.0626
 30
0.000000
  70
    32
  0
VERTEX
  8
3
  5
1184
 10
31.2199
 20
27.0644
 30
0.000000
  70
    32
  0
VERTEX
  8
3
  5
1185
 10
31.2215
 20
27.0661
 30
0.000000
  70
    32
  0
VERTEX
  8
3
  5
1186
 10
31.2231
 20
27.0679
 30
0.000000
  70
    32
  0
VERTEX
  8
3
  5
1187
 10
31.2247
 20
27.0697
 30
0.000000
  70
    32
  0
VERTEX
  8
3
  5
1188
 10
31.2263
 20
27.0715
 30
0.000000
  70
    32
  0
VERTEX
  8
3
  5
1189
 10
31.2279
 20
27.0732
 30
0.000000
  70
    32
  0
VERTEX
  8
3
  5
118A
 10
31.2294
 20
27.0750
 30
0.000000
  70
    32
  0
VERTEX
  8
3
  5
118B
 10
31.2310
 20
27.0768
 30
0.000000
  70
    32
  0
VERTEX
  8
3
  5
118C
 10
31.2326
 20
27.0786
 30
0.000000
  70
    32
  0
VERTEX
  8
3
  5
118D
 10
31.2342
 20
27.0804
 30
0.000000
  70
    32
  0
VERTEX
  8
3
  5
118E
 10
31.2358
 20
27.0822
 30
0.000000
  70
    32
  0
VERTEX
  8
3
  5
118F
 10
31.2373
 20
27.0840
 30
0.000000
  70
    32
  0
VERTEX
  8
3
  5
1190
 10
31.2389
 20
27.0858
 30
0.000000
  70
    32
  0
VERTEX
  8
3
  5
1191
 10
31.2405
 20
27.0875
 30
0.000000
  70
    32
  0
VERTEX
  8
3
  5
1192
 10
31.2421
 20
27.0893
 30
0.000000
  70
    32
  0
VERTEX
  8
3
  5
1193
 10
31.2436
 20
27.0912
 30
0.000000
  70
    32
  0
VERTEX
  8
3
  5
1194
 10
31.2452
 20
27.0930
 30
0.000000
  70
    32
  0
VERTEX
  8
3
  5
1195
 10
31.2468
 20
27.0948
 30
0.000000
  70
    32
  0
VERTEX
  8
3
  5
1196
 10
31.2483
 20
27.0966
 30
0.000000
  70
    32
  0
VERTEX
  8
3
  5
1197
 10
31.2499
 20
27.0984
 30
0.000000
  70
    32
  0
VERTEX
  8
3
  5
1198
 10
31.2515
 20
27.1002
 30
0.000000
  70
    32
  0
VERTEX
  8
3
  5
1199
 10
31.2530
 20
27.1020
 30
0.000000
  70
    32
  0
VERTEX
  8
3
  5
119A
 10
31.2546
 20
27.1038
 30
0.000000
  70
    32
  0
VERTEX
  8
3
  5
119B
 10
31.2561
 20
27.1057
 30
0.000000
  70
    32
  0
VERTEX
  8
3
  5
119C
 10
31.2577
 20
27.1075
 30
0.000000
  70
    32
  0
VERTEX
  8
3
  5
119D
 10
31.2592
 20
27.1093
 30
0.000000
  70
    32
  0
VERTEX
  8
3
  5
119E
 10
31.2608
 20
27.1111
 30
0.000000
  70
    32
  0
VERTEX
  8
3
  5
119F
 10
31.2623
 20
27.1130
 30
0.000000
  70
    32
  0
VERTEX
  8
3
  5
11A0
 10
31.2639
 20
27.1148
 30
0.000000
  70
    32
  0
VERTEX
  8
3
  5
11A1
 10
31.2654
 20
27.1166
 30
0.000000
  70
    32
  0
VERTEX
  8
3
  5
11A2
 10
31.2670
 20
27.1185
 30
0.000000
  70
    32
  0
VERTEX
  8
3
  5
11A3
 10
31.2685
 20
27.1203
 30
0.000000
  70
    32
  0
VERTEX
  8
3
  5
11A4
 10
31.2701
 20
27.1221
 30
0.000000
  70
    32
  0
VERTEX
  8
3
  5
11A5
 10
31.2716
 20
27.1240
 30
0.000000
  70
    32
  0
VERTEX
  8
3
  5
11A6
 10
31.2731
 20
27.1258
 30
0.000000
  70
    32
  0
VERTEX
  8
3
  5
11A7
 10
31.2747
 20
27.1277
 30
0.000000
  70
    32
  0
VERTEX
  8
3
  5
11A8
 10
31.2762
 20
27.1295
 30
0.000000
  70
    32
  0
VERTEX
  8
3
  5
11A9
 10
31.2777
 20
27.1314
 30
0.000000
  70
    32
  0
VERTEX
  8
3
  5
11AA
 10
31.2793
 20
27.1332
 30
0.000000
  70
    32
  0
SEQEND
  8
3
  5
11AB
  0
LINE
  5
6E3
  8
3
 10
30.089802560978569
 20
26.91480258479714
 30
0.0
 11
31.06964900624007
 21
26.91480258479714
 31
0.0
  0
LINE
  5
6E4
  8
3
 10
31.677302527241409
 20
29.910197439021431
 30
0.0
 11
33.085197415202863
 21
29.910197439021431
 31
0.0
  0
LINE
  5
6E5
  8
3
 10
31.497697434388101
 20
28.502302565611899
 30
0.0
 11
31.497697434388101
 21
29.910197439021431
 31
0.0
  0
LINE
  5
6E6
  8
3
 10
30.857250008266419
 20
29.269750027451661
 30
0.0
 11
31.497697434388101
 21
29.910197439021431
 31
0.0
  0
LINE
  5
6E7
  8
3
 10
29.910197439021431
 20
31.677302527241409
 30
0.0
 11
28.502302565611899
 21
31.677302527241409
 31
0.0
  0
LINE
  5
6E8
  8
3
 10
29.142749991733581
 20
32.31774989515543
 30
0.0
 11
28.502302565611899
 21
31.677302527241409
 31
0.0
  0
LINE
  5
6E9
  8
3
 10
29.142749991733581
 20
32.31774989515543
 30
0.0
 11
29.269750027451661
 21
32.31774989515543
 31
0.0
  0
LINE
  5
6EA
  8
3
 10
29.910197439021431
 20
31.677302527241409
 30
0.0
 11
29.269750027451661
 21
32.31774989515543
 31
0.0
  0
LINE
  5
6EB
  8
3
 10
29.142749991733581
 20
32.444749930873513
 30
0.0
 11
29.142749991733581
 21
32.31774989515543
 31
0.0
  0
LINE
  5
6EC
  8
3
 10
28.502302565611899
 20
31.677302527241409
 30
0.0
 11
28.502302565611899
 21
32.901636529713869
 31
0.0
  0
LINE
  5
6ED
  8
3
 10
28.502302565611899
 20
32.901636529713869
 30
0.0
 11
28.720727628096942
 21
32.866772236302488
 31
0.0
  0
LINE
  5
6EE
  8
3
 10
29.142749991733581
 20
32.444749930873513
 30
0.0
 11
28.72072774451226
 21
32.866772003471851
 31
0.0
  0
LINE
  5
6EF
  8
3
 10
29.269750027451661
 20
32.444749930873513
 30
0.0
 11
29.142749991733581
 21
32.444749930873513
 31
0.0
  0
LINE
  5
6F0
  8
3
 10
29.269750027451661
 20
32.31774989515543
 30
0.0
 11
29.269750027451661
 21
32.444749930873513
 31
0.0
  0
LINE
  5
6F1
  8
3
 10
29.910197439021431
 20
31.497697434388101
 30
0.0
 11
29.910197439021431
 21
30.089802560978569
 31
0.0
  0
LINE
  5
6F2
  8
3
 10
29.910197439021431
 20
31.497697434388101
 30
0.0
 11
29.269750027451661
 21
30.857250008266419
 31
0.0
  0
LINE
  5
6F3
  8
3
 10
29.910197439021431
 20
29.910197439021431
 30
0.0
 11
29.910197439021431
 21
28.502302565611899
 31
0.0
  0
LINE
  5
6F4
  8
3
 10
28.322697472758591
 20
28.502302565611899
 30
0.0
 11
27.098363470286131
 21
28.502302565611899
 31
0.0
  0
LINE
  5
6F5
  8
3
 10
27.098363470286131
 20
28.502302565611899
 30
0.0
 11
27.133227763697501
 21
28.720727628096942
 31
0.0
  0
LINE
  5
6F6
  8
3
 10
27.55525006912649
 20
29.142749991733581
 30
0.0
 11
27.133227996528149
 21
28.72072774451226
 31
0.0
  0
LINE
  5
6F7
  8
3
 10
27.55525006912649
 20
29.142749991733581
 30
0.0
 11
27.68225010484457
 21
29.142749991733581
 31
0.0
  0
LINE
  5
6F8
  8
3
 10
27.68225010484457
 20
29.142749991733581
 30
0.0
 11
28.322697472758591
 21
28.502302565611899
 31
0.0
  0
LINE
  5
6F9
  8
3
 10
27.68225010484457
 20
29.269750027451661
 30
0.0
 11
27.55525006912649
 21
29.269750027451661
 31
0.0
  0
LINE
  5
6FA
  8
3
 10
27.68225010484457
 20
29.142749991733581
 30
0.0
 11
27.68225010484457
 21
29.269750027451661
 31
0.0
  0
LINE
  5
6FB
  8
3
 10
27.55525006912649
 20
29.269750027451661
 30
0.0
 11
27.55525006912649
 21
29.142749991733581
 31
0.0
  0
LINE
  5
6FC
  8
3
 10
28.322697472758591
 20
29.910197439021431
 30
0.0
 11
28.322697472758591
 21
28.502302565611899
 31
0.0
  0
LINE
  5
6FD
  8
3
 10
28.322697472758591
 20
29.910197439021431
 30
0.0
 11
27.68225010484457
 21
29.269750027451661
 31
0.0
  0
LINE
  5
6FE
  8
3
 10
29.910197439021431
 20
31.497697434388101
 30
0.0
 11
28.502302565611899
 21
31.497697434388101
 31
0.0
  0
LINE
  5
6FF
  8
3
 10
29.910197439021431
 20
33.085197415202863
 30
0.0
 11
29.910197439021431
 21
31.677302527241409
 31
0.0
  0
LINE
  5
700
  8
3
 10
29.910197439021431
 20
33.085197415202863
 30
0.0
 11
29.269750027451661
 21
32.444749930873513
 31
0.0
  0
LINE
  5
701
  8
3
 10
30.089802560978569
 20
29.910197439021431
 30
0.0
 11
31.497697434388101
 21
29.910197439021431
 31
0.0
  0
LINE
  5
702
  8
3
 10
33.085197415202863
 20
30.089802560978569
 30
0.0
 11
33.085197415202863
 21
31.06964900624007
 31
0.0
  0
LINE
  5
703
  8
3
 10
32.444749930873513
 20
30.857250008266419
 30
0.0
 11
32.866772003471851
 21
31.27927225548774
 31
0.0
  0
POLYLINE
  5
704
  8
3
 10
33.085197438746704
 20
31.069649020770004
 30
0.0
 66
     1
 70
     8
  0
VERTEX
  8
3
  5
11AC
 10
33.0852
 20
31.0696
 30
0.000000
  70
    32
  0
VERTEX
  8
3
  5
11AD
 10
33.0836
 20
31.0714
 30
0.000000
  70
    32
  0
VERTEX
  8
3
  5
11AE
 10
33.0821
 20
31.0731
 30
0.000000
  70
    32
  0
VERTEX
  8
3
  5
11AF
 10
33.0805
 20
31.0749
 30
0.000000
  70
    32
  0
VERTEX
  8
3
  5
11B0
 10
33.0790
 20
31.0766
 30
0.000000
  70
    32
  0
VERTEX
  8
3
  5
11B1
 10
33.0774
 20
31.0783
 30
0.000000
  70
    32
  0
VERTEX
  8
3
  5
11B2
 10
33.0758
 20
31.0801
 30
0.000000
  70
    32
  0
VERTEX
  8
3
  5
11B3
 10
33.0743
 20
31.0818
 30
0.000000
  70
    32
  0
VERTEX
  8
3
  5
11B4
 10
33.0727
 20
31.0835
 30
0.000000
  70
    32
  0
VERTEX
  8
3
  5
11B5
 10
33.0711
 20
31.0852
 30
0.000000
  70
    32
  0
VERTEX
  8
3
  5
11B6
 10
33.0696
 20
31.0870
 30
0.000000
  70
    32
  0
VERTEX
  8
3
  5
11B7
 10
33.0680
 20
31.0887
 30
0.000000
  70
    32
  0
VERTEX
  8
3
  5
11B8
 10
33.0664
 20
31.0904
 30
0.000000
  70
    32
  0
VERTEX
  8
3
  5
11B9
 10
33.0648
 20
31.0921
 30
0.000000
  70
    32
  0
VERTEX
  8
3
  5
11BA
 10
33.0632
 20
31.0939
 30
0.000000
  70
    32
  0
VERTEX
  8
3
  5
11BB
 10
33.0616
 20
31.0956
 30
0.000000
  70
    32
  0
VERTEX
  8
3
  5
11BC
 10
33.0601
 20
31.0973
 30
0.000000
  70
    32
  0
VERTEX
  8
3
  5
11BD
 10
33.0585
 20
31.0990
 30
0.000000
  70
    32
  0
VERTEX
  8
3
  5
11BE
 10
33.0569
 20
31.1007
 30
0.000000
  70
    32
  0
VERTEX
  8
3
  5
11BF
 10
33.0553
 20
31.1024
 30
0.000000
  70
    32
  0
VERTEX
  8
3
  5
11C0
 10
33.0537
 20
31.1041
 30
0.000000
  70
    32
  0
VERTEX
  8
3
  5
11C1
 10
33.0521
 20
31.1059
 30
0.000000
  70
    32
  0
VERTEX
  8
3
  5
11C2
 10
33.0505
 20
31.1076
 30
0.000000
  70
    32
  0
VERTEX
  8
3
  5
11C3
 10
33.0489
 20
31.1093
 30
0.000000
  70
    32
  0
VERTEX
  8
3
  5
11C4
 10
33.0472
 20
31.1110
 30
0.000000
  70
    32
  0
VERTEX
  8
3
  5
11C5
 10
33.0456
 20
31.1127
 30
0.000000
  70
    32
  0
VERTEX
  8
3
  5
11C6
 10
33.0440
 20
31.1144
 30
0.000000
  70
    32
  0
VERTEX
  8
3
  5
11C7
 10
33.0424
 20
31.1161
 30
0.000000
  70
    32
  0
VERTEX
  8
3
  5
11C8
 10
33.0408
 20
31.1178
 30
0.000000
  70
    32
  0
VERTEX
  8
3
  5
11C9
 10
33.0392
 20
31.1195
 30
0.000000
  70
    32
  0
VERTEX
  8
3
  5
11CA
 10
33.0375
 20
31.1212
 30
0.000000
  70
    32
  0
VERTEX
  8
3
  5
11CB
 10
33.0359
 20
31.1229
 30
0.000000
  70
    32
  0
VERTEX
  8
3
  5
11CC
 10
33.0343
 20
31.1246
 30
0.000000
  70
    32
  0
VERTEX
  8
3
  5
11CD
 10
33.0326
 20
31.1262
 30
0.000000
  70
    32
  0
VERTEX
  8
3
  5
11CE
 10
33.0310
 20
31.1279
 30
0.000000
  70
    32
  0
VERTEX
  8
3
  5
11CF
 10
33.0294
 20
31.1296
 30
0.000000
  70
    32
  0
VERTEX
  8
3
  5
11D0
 10
33.0277
 20
31.1313
 30
0.000000
  70
    32
  0
VERTEX
  8
3
  5
11D1
 10
33.0261
 20
31.1330
 30
0.000000
  70
    32
  0
VERTEX
  8
3
  5
11D2
 10
33.0245
 20
31.1347
 30
0.000000
  70
    32
  0
VERTEX
  8
3
  5
11D3
 10
33.0228
 20
31.1363
 30
0.000000
  70
    32
  0
VERTEX
  8
3
  5
11D4
 10
33.0212
 20
31.1380
 30
0.000000
  70
    32
  0
VERTEX
  8
3
  5
11D5
 10
33.0195
 20
31.1397
 30
0.000000
  70
    32
  0
VERTEX
  8
3
  5
11D6
 10
33.0178
 20
31.1414
 30
0.000000
  70
    32
  0
VERTEX
  8
3
  5
11D7
 10
33.0162
 20
31.1431
 30
0.000000
  70
    32
  0
VERTEX
  8
3
  5
11D8
 10
33.0145
 20
31.1447
 30
0.000000
  70
    32
  0
VERTEX
  8
3
  5
11D9
 10
33.0129
 20
31.1464
 30
0.000000
  70
    32
  0
VERTEX
  8
3
  5
11DA
 10
33.0112
 20
31.1481
 30
0.000000
  70
    32
  0
VERTEX
  8
3
  5
11DB
 10
33.0095
 20
31.1497
 30
0.000000
  70
    32
  0
VERTEX
  8
3
  5
11DC
 10
33.0079
 20
31.1514
 30
0.000000
  70
    32
  0
VERTEX
  8
3
  5
11DD
 10
33.0062
 20
31.1531
 30
0.000000
  70
    32
  0
VERTEX
  8
3
  5
11DE
 10
33.0045
 20
31.1547
 30
0.000000
  70
    32
  0
VERTEX
  8
3
  5
11DF
 10
33.0029
 20
31.1564
 30
0.000000
  70
    32
  0
VERTEX
  8
3
  5
11E0
 10
33.0012
 20
31.1581
 30
0.000000
  70
    32
  0
VERTEX
  8
3
  5
11E1
 10
32.9995
 20
31.1597
 30
0.000000
  70
    32
  0
VERTEX
  8
3
  5
11E2
 10
32.9978
 20
31.1614
 30
0.000000
  70
    32
  0
VERTEX
  8
3
  5
11E3
 10
32.9961
 20
31.1630
 30
0.000000
  70
    32
  0
VERTEX
  8
3
  5
11E4
 10
32.9944
 20
31.1647
 30
0.000000
  70
    32
  0
VERTEX
  8
3
  5
11E5
 10
32.9927
 20
31.1663
 30
0.000000
  70
    32
  0
VERTEX
  8
3
  5
11E6
 10
32.9911
 20
31.1680
 30
0.000000
  70
    32
  0
VERTEX
  8
3
  5
11E7
 10
32.9894
 20
31.1696
 30
0.000000
  70
    32
  0
VERTEX
  8
3
  5
11E8
 10
32.9877
 20
31.1713
 30
0.000000
  70
    32
  0
VERTEX
  8
3
  5
11E9
 10
32.9860
 20
31.1729
 30
0.000000
  70
    32
  0
VERTEX
  8
3
  5
11EA
 10
32.9843
 20
31.1746
 30
0.000000
  70
    32
  0
VERTEX
  8
3
  5
11EB
 10
32.9826
 20
31.1762
 30
0.000000
  70
    32
  0
VERTEX
  8
3
  5
11EC
 10
32.9809
 20
31.1778
 30
0.000000
  70
    32
  0
VERTEX
  8
3
  5
11ED
 10
32.9791
 20
31.1795
 30
0.000000
  70
    32
  0
VERTEX
  8
3
  5
11EE
 10
32.9774
 20
31.1811
 30
0.000000
  70
    32
  0
VERTEX
  8
3
  5
11EF
 10
32.9757
 20
31.1828
 30
0.000000
  70
    32
  0
VERTEX
  8
3
  5
11F0
 10
32.9740
 20
31.1844
 30
0.000000
  70
    32
  0
VERTEX
  8
3
  5
11F1
 10
32.9723
 20
31.1860
 30
0.000000
  70
    32
  0
VERTEX
  8
3
  5
11F2
 10
32.9706
 20
31.1876
 30
0.000000
  70
    32
  0
VERTEX
  8
3
  5
11F3
 10
32.9688
 20
31.1893
 30
0.000000
  70
    32
  0
VERTEX
  8
3
  5
11F4
 10
32.9671
 20
31.1909
 30
0.000000
  70
    32
  0
VERTEX
  8
3
  5
11F5
 10
32.9654
 20
31.1925
 30
0.000000
  70
    32
  0
VERTEX
  8
3
  5
11F6
 10
32.9637
 20
31.1942
 30
0.000000
  70
    32
  0
VERTEX
  8
3
  5
11F7
 10
32.9619
 20
31.1958
 30
0.000000
  70
    32
  0
VERTEX
  8
3
  5
11F8
 10
32.9602
 20
31.1974
 30
0.000000
  70
    32
  0
VERTEX
  8
3
  5
11F9
 10
32.9584
 20
31.1990
 30
0.000000
  70
    32
  0
VERTEX
  8
3
  5
11FA
 10
32.9567
 20
31.2006
 30
0.000000
  70
    32
  0
VERTEX
  8
3
  5
11FB
 10
32.9550
 20
31.2022
 30
0.000000
  70
    32
  0
VERTEX
  8
3
  5
11FC
 10
32.9532
 20
31.2039
 30
0.000000
  70
    32
  0
VERTEX
  8
3
  5
11FD
 10
32.9515
 20
31.2055
 30
0.000000
  70
    32
  0
VERTEX
  8
3
  5
11FE
 10
32.9497
 20
31.2071
 30
0.000000
  70
    32
  0
VERTEX
  8
3
  5
11FF
 10
32.9480
 20
31.2087
 30
0.000000
  70
    32
  0
VERTEX
  8
3
  5
1200
 10
32.9462
 20
31.2103
 30
0.000000
  70
    32
  0
VERTEX
  8
3
  5
1201
 10
32.9445
 20
31.2119
 30
0.000000
  70
    32
  0
VERTEX
  8
3
  5
1202
 10
32.9427
 20
31.2135
 30
0.000000
  70
    32
  0
VERTEX
  8
3
  5
1203
 10
32.9409
 20
31.2151
 30
0.000000
  70
    32
  0
VERTEX
  8
3
  5
1204
 10
32.9392
 20
31.2167
 30
0.000000
  70
    32
  0
VERTEX
  8
3
  5
1205
 10
32.9374
 20
31.2183
 30
0.000000
  70
    32
  0
VERTEX
  8
3
  5
1206
 10
32.9356
 20
31.2199
 30
0.000000
  70
    32
  0
VERTEX
  8
3
  5
1207
 10
32.9339
 20
31.2215
 30
0.000000
  70
    32
  0
VERTEX
  8
3
  5
1208
 10
32.9321
 20
31.2231
 30
0.000000
  70
    32
  0
VERTEX
  8
3
  5
1209
 10
32.9303
 20
31.2247
 30
0.000000
  70
    32
  0
VERTEX
  8
3
  5
120A
 10
32.9285
 20
31.2263
 30
0.000000
  70
    32
  0
VERTEX
  8
3
  5
120B
 10
32.9268
 20
31.2279
 30
0.000000
  70
    32
  0
VERTEX
  8
3
  5
120C
 10
32.9250
 20
31.2294
 30
0.000000
  70
    32
  0
VERTEX
  8
3
  5
120D
 10
32.9232
 20
31.2310
 30
0.000000
  70
    32
  0
VERTEX
  8
3
  5
120E
 10
32.9214
 20
31.2326
 30
0.000000
  70
    32
  0
VERTEX
  8
3
  5
120F
 10
32.9196
 20
31.2342
 30
0.000000
  70
    32
  0
VERTEX
  8
3
  5
1210
 10
32.9178
 20
31.2358
 30
0.000000
  70
    32
  0
VERTEX
  8
3
  5
1211
 10
32.9160
 20
31.2373
 30
0.000000
  70
    32
  0
VERTEX
  8
3
  5
1212
 10
32.9142
 20
31.2389
 30
0.000000
  70
    32
  0
VERTEX
  8
3
  5
1213
 10
32.9125
 20
31.2405
 30
0.000000
  70
    32
  0
VERTEX
  8
3
  5
1214
 10
32.9107
 20
31.2421
 30
0.000000
  70
    32
  0
VERTEX
  8
3
  5
1215
 10
32.9088
 20
31.2436
 30
0.000000
  70
    32
  0
VERTEX
  8
3
  5
1216
 10
32.9070
 20
31.2452
 30
0.000000
  70
    32
  0
VERTEX
  8
3
  5
1217
 10
32.9052
 20
31.2468
 30
0.000000
  70
    32
  0
VERTEX
  8
3
  5
1218
 10
32.9034
 20
31.2483
 30
0.000000
  70
    32
  0
VERTEX
  8
3
  5
1219
 10
32.9016
 20
31.2499
 30
0.000000
  70
    32
  0
VERTEX
  8
3
  5
121A
 10
32.8998
 20
31.2515
 30
0.000000
  70
    32
  0
VERTEX
  8
3
  5
121B
 10
32.8980
 20
31.2530
 30
0.000000
  70
    32
  0
VERTEX
  8
3
  5
121C
 10
32.8962
 20
31.2546
 30
0.000000
  70
    32
  0
VERTEX
  8
3
  5
121D
 10
32.8943
 20
31.2561
 30
0.000000
  70
    32
  0
VERTEX
  8
3
  5
121E
 10
32.8925
 20
31.2577
 30
0.000000
  70
    32
  0
VERTEX
  8
3
  5
121F
 10
32.8907
 20
31.2592
 30
0.000000
  70
    32
  0
VERTEX
  8
3
  5
1220
 10
32.8889
 20
31.2608
 30
0.000000
  70
    32
  0
VERTEX
  8
3
  5
1221
 10
32.8870
 20
31.2623
 30
0.000000
  70
    32
  0
VERTEX
  8
3
  5
1222
 10
32.8852
 20
31.2639
 30
0.000000
  70
    32
  0
VERTEX
  8
3
  5
1223
 10
32.8834
 20
31.2654
 30
0.000000
  70
    32
  0
VERTEX
  8
3
  5
1224
 10
32.8815
 20
31.2670
 30
0.000000
  70
    32
  0
VERTEX
  8
3
  5
1225
 10
32.8797
 20
31.2685
 30
0.000000
  70
    32
  0
VERTEX
  8
3
  5
1226
 10
32.8779
 20
31.2701
 30
0.000000
  70
    32
  0
VERTEX
  8
3
  5
1227
 10
32.8760
 20
31.2716
 30
0.000000
  70
    32
  0
VERTEX
  8
3
  5
1228
 10
32.8742
 20
31.2731
 30
0.000000
  70
    32
  0
VERTEX
  8
3
  5
1229
 10
32.8723
 20
31.2747
 30
0.000000
  70
    32
  0
VERTEX
  8
3
  5
122A
 10
32.8705
 20
31.2762
 30
0.000000
  70
    32
  0
VERTEX
  8
3
  5
122B
 10
32.8686
 20
31.2777
 30
0.000000
  70
    32
  0
VERTEX
  8
3
  5
122C
 10
32.8668
 20
31.2793
 30
0.000000
  70
    32
  0
SEQEND
  8
3
  5
122D
  0
LINE
  5
705
  8
3
 10
31.677302527241409
 20
31.497697434388101
 30
0.0
 11
32.901636529713869
 21
31.497697434388101
 31
0.0
  0
LINE
  5
706
  8
3
 10
32.901636529713869
 20
31.497697434388101
 30
0.0
 11
32.866772236302488
 21
31.279272371903058
 31
0.0
  0
LINE
  5
707
  8
3
 10
30.857250008266419
 20
32.444749930873513
 30
0.0
 11
30.730249972548339
 21
32.444749930873513
 31
0.0
  0
LINE
  5
708
  8
3
 10
30.857250008266419
 20
32.31774989515543
 30
0.0
 11
30.857250008266419
 21
32.444749930873513
 31
0.0
  0
LINE
  5
709
  8
3
 10
30.730249972548339
 20
32.31774989515543
 30
0.0
 11
30.857250008266419
 21
32.31774989515543
 31
0.0
  0
LINE
  5
70A
  8
3
 10
30.730249972548339
 20
32.444749930873513
 30
0.0
 11
30.730249972548339
 21
32.31774989515543
 31
0.0
  0
LINE
  5
70B
  8
3
 10
31.497697434388101
 20
31.677302527241409
 30
0.0
 11
30.089802560978569
 21
31.677302527241409
 31
0.0
  0
LINE
  5
70C
  8
3
 10
30.089802560978569
 20
31.677302527241409
 30
0.0
 11
30.730249972548339
 21
32.31774989515543
 31
0.0
  0
LINE
  5
70D
  8
3
 10
31.497697434388101
 20
31.677302527241409
 30
0.0
 11
30.857250008266419
 21
32.31774989515543
 31
0.0
  0
LINE
  5
70E
  8
3
 10
30.089802560978569
 20
31.677302527241409
 30
0.0
 11
30.089802560978569
 21
33.085197415202863
 31
0.0
  0
LINE
  5
70F
  8
3
 10
30.730249972548339
 20
32.444749930873513
 30
0.0
 11
30.089802560978569
 21
33.085197415202863
 31
0.0
  0
LINE
  5
710
  8
3
 10
30.089802560978569
 20
33.085197415202863
 30
0.0
 11
31.06964900624007
 21
33.085197415202863
 31
0.0
  0
POLYLINE
  5
711
  8
3
 10
31.27927206213695
 20
32.866772096076055
 30
0.0
 66
     1
 70
     8
  0
VERTEX
  8
3
  5
122E
 10
31.2793
 20
32.8668
 30
0.000000
  70
    32
  0
VERTEX
  8
3
  5
122F
 10
31.2777
 20
32.8686
 30
0.000000
  70
    32
  0
VERTEX
  8
3
  5
1230
 10
31.2762
 20
32.8705
 30
0.000000
  70
    32
  0
VERTEX
  8
3
  5
1231
 10
31.2747
 20
32.8723
 30
0.000000
  70
    32
  0
VERTEX
  8
3
  5
1232
 10
31.2731
 20
32.8742
 30
0.000000
  70
    32
  0
VERTEX
  8
3
  5
1233
 10
31.2716
 20
32.8760
 30
0.000000
  70
    32
  0
VERTEX
  8
3
  5
1234
 10
31.2701
 20
32.8779
 30
0.000000
  70
    32
  0
VERTEX
  8
3
  5
1235
 10
31.2685
 20
32.8797
 30
0.000000
  70
    32
  0
VERTEX
  8
3
  5
1236
 10
31.2670
 20
32.8815
 30
0.000000
  70
    32
  0
VERTEX
  8
3
  5
1237
 10
31.2654
 20
32.8834
 30
0.000000
  70
    32
  0
VERTEX
  8
3
  5
1238
 10
31.2639
 20
32.8852
 30
0.000000
  70
    32
  0
VERTEX
  8
3
  5
1239
 10
31.2623
 20
32.8870
 30
0.000000
  70
    32
  0
VERTEX
  8
3
  5
123A
 10
31.2608
 20
32.8889
 30
0.000000
  70
    32
  0
VERTEX
  8
3
  5
123B
 10
31.2592
 20
32.8907
 30
0.000000
  70
    32
  0
VERTEX
  8
3
  5
123C
 10
31.2577
 20
32.8925
 30
0.000000
  70
    32
  0
VERTEX
  8
3
  5
123D
 10
31.2561
 20
32.8943
 30
0.000000
  70
    32
  0
VERTEX
  8
3
  5
123E
 10
31.2546
 20
32.8962
 30
0.000000
  70
    32
  0
VERTEX
  8
3
  5
123F
 10
31.2530
 20
32.8980
 30
0.000000
  70
    32
  0
VERTEX
  8
3
  5
1240
 10
31.2515
 20
32.8998
 30
0.000000
  70
    32
  0
VERTEX
  8
3
  5
1241
 10
31.2499
 20
32.9016
 30
0.000000
  70
    32
  0
VERTEX
  8
3
  5
1242
 10
31.2483
 20
32.9034
 30
0.000000
  70
    32
  0
VERTEX
  8
3
  5
1243
 10
31.2468
 20
32.9052
 30
0.000000
  70
    32
  0
VERTEX
  8
3
  5
1244
 10
31.2452
 20
32.9070
 30
0.000000
  70
    32
  0
VERTEX
  8
3
  5
1245
 10
31.2436
 20
32.9088
 30
0.000000
  70
    32
  0
VERTEX
  8
3
  5
1246
 10
31.2421
 20
32.9107
 30
0.000000
  70
    32
  0
VERTEX
  8
3
  5
1247
 10
31.2405
 20
32.9125
 30
0.000000
  70
    32
  0
VERTEX
  8
3
  5
1248
 10
31.2389
 20
32.9142
 30
0.000000
  70
    32
  0
VERTEX
  8
3
  5
1249
 10
31.2373
 20
32.9160
 30
0.000000
  70
    32
  0
VERTEX
  8
3
  5
124A
 10
31.2358
 20
32.9178
 30
0.000000
  70
    32
  0
VERTEX
  8
3
  5
124B
 10
31.2342
 20
32.9196
 30
0.000000
  70
    32
  0
VERTEX
  8
3
  5
124C
 10
31.2326
 20
32.9214
 30
0.000000
  70
    32
  0
VERTEX
  8
3
  5
124D
 10
31.2310
 20
32.9232
 30
0.000000
  70
    32
  0
VERTEX
  8
3
  5
124E
 10
31.2294
 20
32.9250
 30
0.000000
  70
    32
  0
VERTEX
  8
3
  5
124F
 10
31.2279
 20
32.9268
 30
0.000000
  70
    32
  0
VERTEX
  8
3
  5
1250
 10
31.2263
 20
32.9285
 30
0.000000
  70
    32
  0
VERTEX
  8
3
  5
1251
 10
31.2247
 20
32.9303
 30
0.000000
  70
    32
  0
VERTEX
  8
3
  5
1252
 10
31.2231
 20
32.9321
 30
0.000000
  70
    32
  0
VERTEX
  8
3
  5
1253
 10
31.2215
 20
32.9339
 30
0.000000
  70
    32
  0
VERTEX
  8
3
  5
1254
 10
31.2199
 20
32.9356
 30
0.000000
  70
    32
  0
VERTEX
  8
3
  5
1255
 10
31.2183
 20
32.9374
 30
0.000000
  70
    32
  0
VERTEX
  8
3
  5
1256
 10
31.2167
 20
32.9392
 30
0.000000
  70
    32
  0
VERTEX
  8
3
  5
1257
 10
31.2151
 20
32.9409
 30
0.000000
  70
    32
  0
VERTEX
  8
3
  5
1258
 10
31.2135
 20
32.9427
 30
0.000000
  70
    32
  0
VERTEX
  8
3
  5
1259
 10
31.2119
 20
32.9445
 30
0.000000
  70
    32
  0
VERTEX
  8
3
  5
125A
 10
31.2103
 20
32.9462
 30
0.000000
  70
    32
  0
VERTEX
  8
3
  5
125B
 10
31.2087
 20
32.9480
 30
0.000000
  70
    32
  0
VERTEX
  8
3
  5
125C
 10
31.2071
 20
32.9497
 30
0.000000
  70
    32
  0
VERTEX
  8
3
  5
125D
 10
31.2055
 20
32.9515
 30
0.000000
  70
    32
  0
VERTEX
  8
3
  5
125E
 10
31.2039
 20
32.9532
 30
0.000000
  70
    32
  0
VERTEX
  8
3
  5
125F
 10
31.2022
 20
32.9550
 30
0.000000
  70
    32
  0
VERTEX
  8
3
  5
1260
 10
31.2006
 20
32.9567
 30
0.000000
  70
    32
  0
VERTEX
  8
3
  5
1261
 10
31.1990
 20
32.9584
 30
0.000000
  70
    32
  0
VERTEX
  8
3
  5
1262
 10
31.1974
 20
32.9602
 30
0.000000
  70
    32
  0
VERTEX
  8
3
  5
1263
 10
31.1958
 20
32.9619
 30
0.000000
  70
    32
  0
VERTEX
  8
3
  5
1264
 10
31.1942
 20
32.9637
 30
0.000000
  70
    32
  0
VERTEX
  8
3
  5
1265
 10
31.1925
 20
32.9654
 30
0.000000
  70
    32
  0
VERTEX
  8
3
  5
1266
 10
31.1909
 20
32.9671
 30
0.000000
  70
    32
  0
VERTEX
  8
3
  5
1267
 10
31.1893
 20
32.9688
 30
0.000000
  70
    32
  0
VERTEX
  8
3
  5
1268
 10
31.1876
 20
32.9706
 30
0.000000
  70
    32
  0
VERTEX
  8
3
  5
1269
 10
31.1860
 20
32.9723
 30
0.000000
  70
    32
  0
VERTEX
  8
3
  5
126A
 10
31.1844
 20
32.9740
 30
0.000000
  70
    32
  0
VERTEX
  8
3
  5
126B
 10
31.1828
 20
32.9757
 30
0.000000
  70
    32
  0
VERTEX
  8
3
  5
126C
 10
31.1811
 20
32.9774
 30
0.000000
  70
    32
  0
VERTEX
  8
3
  5
126D
 10
31.1795
 20
32.9791
 30
0.000000
  70
    32
  0
VERTEX
  8
3
  5
126E
 10
31.1778
 20
32.9809
 30
0.000000
  70
    32
  0
VERTEX
  8
3
  5
126F
 10
31.1762
 20
32.9826
 30
0.000000
  70
    32
  0
VERTEX
  8
3
  5
1270
 10
31.1746
 20
32.9843
 30
0.000000
  70
    32
  0
VERTEX
  8
3
  5
1271
 10
31.1729
 20
32.9860
 30
0.000000
  70
    32
  0
VERTEX
  8
3
  5
1272
 10
31.1713
 20
32.9877
 30
0.000000
  70
    32
  0
VERTEX
  8
3
  5
1273
 10
31.1696
 20
32.9894
 30
0.000000
  70
    32
  0
VERTEX
  8
3
  5
1274
 10
31.1680
 20
32.9911
 30
0.000000
  70
    32
  0
VERTEX
  8
3
  5
1275
 10
31.1663
 20
32.9927
 30
0.000000
  70
    32
  0
VERTEX
  8
3
  5
1276
 10
31.1647
 20
32.9944
 30
0.000000
  70
    32
  0
VERTEX
  8
3
  5
1277
 10
31.1630
 20
32.9961
 30
0.000000
  70
    32
  0
VERTEX
  8
3
  5
1278
 10
31.1614
 20
32.9978
 30
0.000000
  70
    32
  0
VERTEX
  8
3
  5
1279
 10
31.1597
 20
32.9995
 30
0.000000
  70
    32
  0
VERTEX
  8
3
  5
127A
 10
31.1581
 20
33.0012
 30
0.000000
  70
    32
  0
VERTEX
  8
3
  5
127B
 10
31.1564
 20
33.0029
 30
0.000000
  70
    32
  0
VERTEX
  8
3
  5
127C
 10
31.1547
 20
33.0045
 30
0.000000
  70
    32
  0
VERTEX
  8
3
  5
127D
 10
31.1531
 20
33.0062
 30
0.000000
  70
    32
  0
VERTEX
  8
3
  5
127E
 10
31.1514
 20
33.0079
 30
0.000000
  70
    32
  0
VERTEX
  8
3
  5
127F
 10
31.1497
 20
33.0095
 30
0.000000
  70
    32
  0
VERTEX
  8
3
  5
1280
 10
31.1481
 20
33.0112
 30
0.000000
  70
    32
  0
VERTEX
  8
3
  5
1281
 10
31.1464
 20
33.0129
 30
0.000000
  70
    32
  0
VERTEX
  8
3
  5
1282
 10
31.1447
 20
33.0145
 30
0.000000
  70
    32
  0
VERTEX
  8
3
  5
1283
 10
31.1431
 20
33.0162
 30
0.000000
  70
    32
  0
VERTEX
  8
3
  5
1284
 10
31.1414
 20
33.0178
 30
0.000000
  70
    32
  0
VERTEX
  8
3
  5
1285
 10
31.1397
 20
33.0195
 30
0.000000
  70
    32
  0
VERTEX
  8
3
  5
1286
 10
31.1380
 20
33.0212
 30
0.000000
  70
    32
  0
VERTEX
  8
3
  5
1287
 10
31.1363
 20
33.0228
 30
0.000000
  70
    32
  0
VERTEX
  8
3
  5
1288
 10
31.1347
 20
33.0245
 30
0.000000
  70
    32
  0
VERTEX
  8
3
  5
1289
 10
31.1330
 20
33.0261
 30
0.000000
  70
    32
  0
VERTEX
  8
3
  5
128A
 10
31.1313
 20
33.0277
 30
0.000000
  70
    32
  0
VERTEX
  8
3
  5
128B
 10
31.1296
 20
33.0294
 30
0.000000
  70
    32
  0
VERTEX
  8
3
  5
128C
 10
31.1279
 20
33.0310
 30
0.000000
  70
    32
  0
VERTEX
  8
3
  5
128D
 10
31.1262
 20
33.0326
 30
0.000000
  70
    32
  0
VERTEX
  8
3
  5
128E
 10
31.1246
 20
33.0343
 30
0.000000
  70
    32
  0
VERTEX
  8
3
  5
128F
 10
31.1229
 20
33.0359
 30
0.000000
  70
    32
  0
VERTEX
  8
3
  5
1290
 10
31.1212
 20
33.0375
 30
0.000000
  70
    32
  0
VERTEX
  8
3
  5
1291
 10
31.1195
 20
33.0392
 30
0.000000
  70
    32
  0
VERTEX
  8
3
  5
1292
 10
31.1178
 20
33.0408
 30
0.000000
  70
    32
  0
VERTEX
  8
3
  5
1293
 10
31.1161
 20
33.0424
 30
0.000000
  70
    32
  0
VERTEX
  8
3
  5
1294
 10
31.1144
 20
33.0440
 30
0.000000
  70
    32
  0
VERTEX
  8
3
  5
1295
 10
31.1127
 20
33.0456
 30
0.000000
  70
    32
  0
VERTEX
  8
3
  5
1296
 10
31.1110
 20
33.0472
 30
0.000000
  70
    32
  0
VERTEX
  8
3
  5
1297
 10
31.1093
 20
33.0489
 30
0.000000
  70
    32
  0
VERTEX
  8
3
  5
1298
 10
31.1076
 20
33.0505
 30
0.000000
  70
    32
  0
VERTEX
  8
3
  5
1299
 10
31.1059
 20
33.0521
 30
0.000000
  70
    32
  0
VERTEX
  8
3
  5
129A
 10
31.1041
 20
33.0537
 30
0.000000
  70
    32
  0
VERTEX
  8
3
  5
129B
 10
31.1024
 20
33.0553
 30
0.000000
  70
    32
  0
VERTEX
  8
3
  5
129C
 10
31.1007
 20
33.0569
 30
0.000000
  70
    32
  0
VERTEX
  8
3
  5
129D
 10
31.0990
 20
33.0585
 30
0.000000
  70
    32
  0
VERTEX
  8
3
  5
129E
 10
31.0973
 20
33.0601
 30
0.000000
  70
    32
  0
VERTEX
  8
3
  5
129F
 10
31.0956
 20
33.0616
 30
0.000000
  70
    32
  0
VERTEX
  8
3
  5
12A0
 10
31.0939
 20
33.0632
 30
0.000000
  70
    32
  0
VERTEX
  8
3
  5
12A1
 10
31.0921
 20
33.0648
 30
0.000000
  70
    32
  0
VERTEX
  8
3
  5
12A2
 10
31.0904
 20
33.0664
 30
0.000000
  70
    32
  0
VERTEX
  8
3
  5
12A3
 10
31.0887
 20
33.0680
 30
0.000000
  70
    32
  0
VERTEX
  8
3
  5
12A4
 10
31.0870
 20
33.0696
 30
0.000000
  70
    32
  0
VERTEX
  8
3
  5
12A5
 10
31.0852
 20
33.0711
 30
0.000000
  70
    32
  0
VERTEX
  8
3
  5
12A6
 10
31.0835
 20
33.0727
 30
0.000000
  70
    32
  0
VERTEX
  8
3
  5
12A7
 10
31.0818
 20
33.0743
 30
0.000000
  70
    32
  0
VERTEX
  8
3
  5
12A8
 10
31.0801
 20
33.0758
 30
0.000000
  70
    32
  0
VERTEX
  8
3
  5
12A9
 10
31.0783
 20
33.0774
 30
0.000000
  70
    32
  0
VERTEX
  8
3
  5
12AA
 10
31.0766
 20
33.0790
 30
0.000000
  70
    32
  0
VERTEX
  8
3
  5
12AB
 10
31.0749
 20
33.0805
 30
0.000000
  70
    32
  0
VERTEX
  8
3
  5
12AC
 10
31.0731
 20
33.0821
 30
0.000000
  70
    32
  0
VERTEX
  8
3
  5
12AD
 10
31.0714
 20
33.0836
 30
0.000000
  70
    32
  0
VERTEX
  8
3
  5
12AE
 10
31.0696
 20
33.0852
 30
0.000000
  70
    32
  0
SEQEND
  8
3
  5
12AF
  0
LINE
  5
712
  8
3
 10
30.857250008266419
 20
32.444749930873513
 30
0.0
 11
31.2792720226571
 21
32.866772003471851
 31
0.0
  0
LINE
  5
713
  8
3
 10
31.497697434388101
 20
31.677302527241409
 30
0.0
 11
31.497696852311488
 21
32.901636529713869
 31
0.0
  0
LINE
  5
714
  8
3
 10
31.279272139072422
 20
32.866772003471851
 30
0.0
 11
31.497696270234879
 21
32.901636296883218
 31
0.0
  0
LINE
  5
715
  8
3
 10
31.497697434388101
 20
30.089802560978569
 30
0.0
 11
31.497697434388101
 21
31.497697434388101
 31
0.0
  0
LINE
  5
716
  8
3
 10
31.497697434388101
 20
30.089802560978569
 30
0.0
 11
30.857250008266419
 21
30.730249972548339
 31
0.0
  0
LINE
  5
717
  8
3
 10
30.857250008266419
 20
30.730249972548339
 30
0.0
 11
30.857250008266419
 21
30.857250008266419
 31
0.0
  0
LINE
  5
718
  8
3
 10
30.857250008266419
 20
30.857250008266419
 30
0.0
 11
31.497697434388101
 21
31.497697434388101
 31
0.0
  0
LINE
  5
719
  8
3
 10
31.497697434388101
 20
30.089802560978569
 30
0.0
 11
30.089802560978569
 21
30.089802560978569
 31
0.0
  0
LINE
  5
71A
  8
3
 10
30.089802560978569
 20
30.089802560978569
 30
0.0
 11
30.730249972548339
 21
30.730249972548339
 31
0.0
  0
LINE
  5
71B
  8
3
 10
30.730249972548339
 20
30.730249972548339
 30
0.0
 11
30.857250008266419
 21
30.730249972548339
 31
0.0
  0
LINE
  5
71C
  8
3
 10
30.857250008266419
 20
30.857250008266419
 30
0.0
 11
30.730249972548339
 21
30.857250008266419
 31
0.0
  0
LINE
  5
71D
  8
3
 10
30.730249972548339
 20
30.857250008266419
 30
0.0
 11
30.730249972548339
 21
30.730249972548339
 31
0.0
  0
LINE
  5
71E
  8
3
 10
26.91480258479714
 20
29.910197439021431
 30
0.0
 11
27.55525006912649
 21
29.269750027451661
 31
0.0
  0
LINE
  5
71F
  8
3
 10
26.91480258479714
 20
29.910197439021431
 30
0.0
 11
28.322697472758591
 21
29.910197439021431
 31
0.0
  0
POLYLINE
  5
720
  8
3
 10
26.914802561253307
 20
28.930350979229949
 30
0.0
 66
     1
 70
     8
  0
VERTEX
  8
3
  5
12B0
 10
26.9148
 20
28.9304
 30
0.000000
  70
    32
  0
VERTEX
  8
3
  5
12B1
 10
26.9164
 20
28.9286
 30
0.000000
  70
    32
  0
VERTEX
  8
3
  5
12B2
 10
26.9179
 20
28.9269
 30
0.000000
  70
    32
  0
VERTEX
  8
3
  5
12B3
 10
26.9195
 20
28.9251
 30
0.000000
  70
    32
  0
VERTEX
  8
3
  5
12B4
 10
26.9210
 20
28.9234
 30
0.000000
  70
    32
  0
VERTEX
  8
3
  5
12B5
 10
26.9226
 20
28.9217
 30
0.000000
  70
    32
  0
VERTEX
  8
3
  5
12B6
 10
26.9242
 20
28.9199
 30
0.000000
  70
    32
  0
VERTEX
  8
3
  5
12B7
 10
26.9257
 20
28.9182
 30
0.000000
  70
    32
  0
VERTEX
  8
3
  5
12B8
 10
26.9273
 20
28.9165
 30
0.000000
  70
    32
  0
VERTEX
  8
3
  5
12B9
 10
26.9289
 20
28.9148
 30
0.000000
  70
    32
  0
VERTEX
  8
3
  5
12BA
 10
26.9304
 20
28.9130
 30
0.000000
  70
    32
  0
VERTEX
  8
3
  5
12BB
 10
26.9320
 20
28.9113
 30
0.000000
  70
    32
  0
VERTEX
  8
3
  5
12BC
 10
26.9336
 20
28.9096
 30
0.000000
  70
    32
  0
VERTEX
  8
3
  5
12BD
 10
26.9352
 20
28.9079
 30
0.000000
  70
    32
  0
VERTEX
  8
3
  5
12BE
 10
26.9368
 20
28.9061
 30
0.000000
  70
    32
  0
VERTEX
  8
3
  5
12BF
 10
26.9384
 20
28.9044
 30
0.000000
  70
    32
  0
VERTEX
  8
3
  5
12C0
 10
26.9399
 20
28.9027
 30
0.000000
  70
    32
  0
VERTEX
  8
3
  5
12C1
 10
26.9415
 20
28.9010
 30
0.000000
  70
    32
  0
VERTEX
  8
3
  5
12C2
 10
26.9431
 20
28.8993
 30
0.000000
  70
    32
  0
VERTEX
  8
3
  5
12C3
 10
26.9447
 20
28.8976
 30
0.000000
  70
    32
  0
VERTEX
  8
3
  5
12C4
 10
26.9463
 20
28.8959
 30
0.000000
  70
    32
  0
VERTEX
  8
3
  5
12C5
 10
26.9479
 20
28.8941
 30
0.000000
  70
    32
  0
VERTEX
  8
3
  5
12C6
 10
26.9495
 20
28.8924
 30
0.000000
  70
    32
  0
VERTEX
  8
3
  5
12C7
 10
26.9511
 20
28.8907
 30
0.000000
  70
    32
  0
VERTEX
  8
3
  5
12C8
 10
26.9528
 20
28.8890
 30
0.000000
  70
    32
  0
VERTEX
  8
3
  5
12C9
 10
26.9544
 20
28.8873
 30
0.000000
  70
    32
  0
VERTEX
  8
3
  5
12CA
 10
26.9560
 20
28.8856
 30
0.000000
  70
    32
  0
VERTEX
  8
3
  5
12CB
 10
26.9576
 20
28.8839
 30
0.000000
  70
    32
  0
VERTEX
  8
3
  5
12CC
 10
26.9592
 20
28.8822
 30
0.000000
  70
    32
  0
VERTEX
  8
3
  5
12CD
 10
26.9608
 20
28.8805
 30
0.000000
  70
    32
  0
VERTEX
  8
3
  5
12CE
 10
26.9625
 20
28.8788
 30
0.000000
  70
    32
  0
VERTEX
  8
3
  5
12CF
 10
26.9641
 20
28.8771
 30
0.000000
  70
    32
  0
VERTEX
  8
3
  5
12D0
 10
26.9657
 20
28.8754
 30
0.000000
  70
    32
  0
VERTEX
  8
3
  5
12D1
 10
26.9674
 20
28.8738
 30
0.000000
  70
    32
  0
VERTEX
  8
3
  5
12D2
 10
26.9690
 20
28.8721
 30
0.000000
  70
    32
  0
VERTEX
  8
3
  5
12D3
 10
26.9706
 20
28.8704
 30
0.000000
  70
    32
  0
VERTEX
  8
3
  5
12D4
 10
26.9723
 20
28.8687
 30
0.000000
  70
    32
  0
VERTEX
  8
3
  5
12D5
 10
26.9739
 20
28.8670
 30
0.000000
  70
    32
  0
VERTEX
  8
3
  5
12D6
 10
26.9755
 20
28.8653
 30
0.000000
  70
    32
  0
VERTEX
  8
3
  5
12D7
 10
26.9772
 20
28.8637
 30
0.000000
  70
    32
  0
VERTEX
  8
3
  5
12D8
 10
26.9788
 20
28.8620
 30
0.000000
  70
    32
  0
VERTEX
  8
3
  5
12D9
 10
26.9805
 20
28.8603
 30
0.000000
  70
    32
  0
VERTEX
  8
3
  5
12DA
 10
26.9822
 20
28.8586
 30
0.000000
  70
    32
  0
VERTEX
  8
3
  5
12DB
 10
26.9838
 20
28.8569
 30
0.000000
  70
    32
  0
VERTEX
  8
3
  5
12DC
 10
26.9855
 20
28.8553
 30
0.000000
  70
    32
  0
VERTEX
  8
3
  5
12DD
 10
26.9871
 20
28.8536
 30
0.000000
  70
    32
  0
VERTEX
  8
3
  5
12DE
 10
26.9888
 20
28.8519
 30
0.000000
  70
    32
  0
VERTEX
  8
3
  5
12DF
 10
26.9905
 20
28.8503
 30
0.000000
  70
    32
  0
VERTEX
  8
3
  5
12E0
 10
26.9921
 20
28.8486
 30
0.000000
  70
    32
  0
VERTEX
  8
3
  5
12E1
 10
26.9938
 20
28.8469
 30
0.000000
  70
    32
  0
VERTEX
  8
3
  5
12E2
 10
26.9955
 20
28.8453
 30
0.000000
  70
    32
  0
VERTEX
  8
3
  5
12E3
 10
26.9971
 20
28.8436
 30
0.000000
  70
    32
  0
VERTEX
  8
3
  5
12E4
 10
26.9988
 20
28.8419
 30
0.000000
  70
    32
  0
VERTEX
  8
3
  5
12E5
 10
27.0005
 20
28.8403
 30
0.000000
  70
    32
  0
VERTEX
  8
3
  5
12E6
 10
27.0022
 20
28.8386
 30
0.000000
  70
    32
  0
VERTEX
  8
3
  5
12E7
 10
27.0039
 20
28.8370
 30
0.000000
  70
    32
  0
VERTEX
  8
3
  5
12E8
 10
27.0056
 20
28.8353
 30
0.000000
  70
    32
  0
VERTEX
  8
3
  5
12E9
 10
27.0073
 20
28.8337
 30
0.000000
  70
    32
  0
VERTEX
  8
3
  5
12EA
 10
27.0089
 20
28.8320
 30
0.000000
  70
    32
  0
VERTEX
  8
3
  5
12EB
 10
27.0106
 20
28.8304
 30
0.000000
  70
    32
  0
VERTEX
  8
3
  5
12EC
 10
27.0123
 20
28.8287
 30
0.000000
  70
    32
  0
VERTEX
  8
3
  5
12ED
 10
27.0140
 20
28.8271
 30
0.000000
  70
    32
  0
VERTEX
  8
3
  5
12EE
 10
27.0157
 20
28.8254
 30
0.000000
  70
    32
  0
VERTEX
  8
3
  5
12EF
 10
27.0174
 20
28.8238
 30
0.000000
  70
    32
  0
VERTEX
  8
3
  5
12F0
 10
27.0191
 20
28.8222
 30
0.000000
  70
    32
  0
VERTEX
  8
3
  5
12F1
 10
27.0209
 20
28.8205
 30
0.000000
  70
    32
  0
VERTEX
  8
3
  5
12F2
 10
27.0226
 20
28.8189
 30
0.000000
  70
    32
  0
VERTEX
  8
3
  5
12F3
 10
27.0243
 20
28.8172
 30
0.000000
  70
    32
  0
VERTEX
  8
3
  5
12F4
 10
27.0260
 20
28.8156
 30
0.000000
  70
    32
  0
VERTEX
  8
3
  5
12F5
 10
27.0277
 20
28.8140
 30
0.000000
  70
    32
  0
VERTEX
  8
3
  5
12F6
 10
27.0294
 20
28.8124
 30
0.000000
  70
    32
  0
VERTEX
  8
3
  5
12F7
 10
27.0312
 20
28.8107
 30
0.000000
  70
    32
  0
VERTEX
  8
3
  5
12F8
 10
27.0329
 20
28.8091
 30
0.000000
  70
    32
  0
VERTEX
  8
3
  5
12F9
 10
27.0346
 20
28.8075
 30
0.000000
  70
    32
  0
VERTEX
  8
3
  5
12FA
 10
27.0363
 20
28.8058
 30
0.000000
  70
    32
  0
VERTEX
  8
3
  5
12FB
 10
27.0381
 20
28.8042
 30
0.000000
  70
    32
  0
VERTEX
  8
3
  5
12FC
 10
27.0398
 20
28.8026
 30
0.000000
  70
    32
  0
VERTEX
  8
3
  5
12FD
 10
27.0416
 20
28.8010
 30
0.000000
  70
    32
  0
VERTEX
  8
3
  5
12FE
 10
27.0433
 20
28.7994
 30
0.000000
  70
    32
  0
VERTEX
  8
3
  5
12FF
 10
27.0450
 20
28.7978
 30
0.000000
  70
    32
  0
VERTEX
  8
3
  5
1300
 10
27.0468
 20
28.7961
 30
0.000000
  70
    32
  0
VERTEX
  8
3
  5
1301
 10
27.0485
 20
28.7945
 30
0.000000
  70
    32
  0
VERTEX
  8
3
  5
1302
 10
27.0503
 20
28.7929
 30
0.000000
  70
    32
  0
VERTEX
  8
3
  5
1303
 10
27.0520
 20
28.7913
 30
0.000000
  70
    32
  0
VERTEX
  8
3
  5
1304
 10
27.0538
 20
28.7897
 30
0.000000
  70
    32
  0
VERTEX
  8
3
  5
1305
 10
27.0555
 20
28.7881
 30
0.000000
  70
    32
  0
VERTEX
  8
3
  5
1306
 10
27.0573
 20
28.7865
 30
0.000000
  70
    32
  0
VERTEX
  8
3
  5
1307
 10
27.0591
 20
28.7849
 30
0.000000
  70
    32
  0
VERTEX
  8
3
  5
1308
 10
27.0608
 20
28.7833
 30
0.000000
  70
    32
  0
VERTEX
  8
3
  5
1309
 10
27.0626
 20
28.7817
 30
0.000000
  70
    32
  0
VERTEX
  8
3
  5
130A
 10
27.0644
 20
28.7801
 30
0.000000
  70
    32
  0
VERTEX
  8
3
  5
130B
 10
27.0661
 20
28.7785
 30
0.000000
  70
    32
  0
VERTEX
  8
3
  5
130C
 10
27.0679
 20
28.7769
 30
0.000000
  70
    32
  0
VERTEX
  8
3
  5
130D
 10
27.0697
 20
28.7753
 30
0.000000
  70
    32
  0
VERTEX
  8
3
  5
130E
 10
27.0715
 20
28.7737
 30
0.000000
  70
    32
  0
VERTEX
  8
3
  5
130F
 10
27.0732
 20
28.7721
 30
0.000000
  70
    32
  0
VERTEX
  8
3
  5
1310
 10
27.0750
 20
28.7706
 30
0.000000
  70
    32
  0
VERTEX
  8
3
  5
1311
 10
27.0768
 20
28.7690
 30
0.000000
  70
    32
  0
VERTEX
  8
3
  5
1312
 10
27.0786
 20
28.7674
 30
0.000000
  70
    32
  0
VERTEX
  8
3
  5
1313
 10
27.0804
 20
28.7658
 30
0.000000
  70
    32
  0
VERTEX
  8
3
  5
1314
 10
27.0822
 20
28.7642
 30
0.000000
  70
    32
  0
VERTEX
  8
3
  5
1315
 10
27.0840
 20
28.7627
 30
0.000000
  70
    32
  0
VERTEX
  8
3
  5
1316
 10
27.0858
 20
28.7611
 30
0.000000
  70
    32
  0
VERTEX
  8
3
  5
1317
 10
27.0875
 20
28.7595
 30
0.000000
  70
    32
  0
VERTEX
  8
3
  5
1318
 10
27.0893
 20
28.7579
 30
0.000000
  70
    32
  0
VERTEX
  8
3
  5
1319
 10
27.0912
 20
28.7564
 30
0.000000
  70
    32
  0
VERTEX
  8
3
  5
131A
 10
27.0930
 20
28.7548
 30
0.000000
  70
    32
  0
VERTEX
  8
3
  5
131B
 10
27.0948
 20
28.7532
 30
0.000000
  70
    32
  0
VERTEX
  8
3
  5
131C
 10
27.0966
 20
28.7517
 30
0.000000
  70
    32
  0
VERTEX
  8
3
  5
131D
 10
27.0984
 20
28.7501
 30
0.000000
  70
    32
  0
VERTEX
  8
3
  5
131E
 10
27.1002
 20
28.7485
 30
0.000000
  70
    32
  0
VERTEX
  8
3
  5
131F
 10
27.1020
 20
28.7470
 30
0.000000
  70
    32
  0
VERTEX
  8
3
  5
1320
 10
27.1038
 20
28.7454
 30
0.000000
  70
    32
  0
VERTEX
  8
3
  5
1321
 10
27.1057
 20
28.7439
 30
0.000000
  70
    32
  0
VERTEX
  8
3
  5
1322
 10
27.1075
 20
28.7423
 30
0.000000
  70
    32
  0
VERTEX
  8
3
  5
1323
 10
27.1093
 20
28.7408
 30
0.000000
  70
    32
  0
VERTEX
  8
3
  5
1324
 10
27.1111
 20
28.7392
 30
0.000000
  70
    32
  0
VERTEX
  8
3
  5
1325
 10
27.1130
 20
28.7377
 30
0.000000
  70
    32
  0
VERTEX
  8
3
  5
1326
 10
27.1148
 20
28.7361
 30
0.000000
  70
    32
  0
VERTEX
  8
3
  5
1327
 10
27.1166
 20
28.7346
 30
0.000000
  70
    32
  0
VERTEX
  8
3
  5
1328
 10
27.1185
 20
28.7330
 30
0.000000
  70
    32
  0
VERTEX
  8
3
  5
1329
 10
27.1203
 20
28.7315
 30
0.000000
  70
    32
  0
VERTEX
  8
3
  5
132A
 10
27.1221
 20
28.7299
 30
0.000000
  70
    32
  0
VERTEX
  8
3
  5
132B
 10
27.1240
 20
28.7284
 30
0.000000
  70
    32
  0
VERTEX
  8
3
  5
132C
 10
27.1258
 20
28.7269
 30
0.000000
  70
    32
  0
VERTEX
  8
3
  5
132D
 10
27.1277
 20
28.7253
 30
0.000000
  70
    32
  0
VERTEX
  8
3
  5
132E
 10
27.1295
 20
28.7238
 30
0.000000
  70
    32
  0
VERTEX
  8
3
  5
132F
 10
27.1314
 20
28.7223
 30
0.000000
  70
    32
  0
VERTEX
  8
3
  5
1330
 10
27.1332
 20
28.7207
 30
0.000000
  70
    32
  0
SEQEND
  8
3
  5
1331
  0
LINE
  5
721
  8
3
 10
26.91480258479714
 20
29.910197439021431
 30
0.0
 11
26.91480258479714
 21
28.93035099375993
 31
0.0
  0
POLYLINE
  5
722
  8
3
 10
28.930350979229978
 20
33.085197438746683
 30
0.0
 66
     1
 70
     8
  0
VERTEX
  8
3
  5
1332
 10
28.9304
 20
33.0852
 30
0.000000
  70
    32
  0
VERTEX
  8
3
  5
1333
 10
28.9286
 20
33.0836
 30
0.000000
  70
    32
  0
VERTEX
  8
3
  5
1334
 10
28.9269
 20
33.0821
 30
0.000000
  70
    32
  0
VERTEX
  8
3
  5
1335
 10
28.9251
 20
33.0805
 30
0.000000
  70
    32
  0
VERTEX
  8
3
  5
1336
 10
28.9234
 20
33.0790
 30
0.000000
  70
    32
  0
VERTEX
  8
3
  5
1337
 10
28.9217
 20
33.0774
 30
0.000000
  70
    32
  0
VERTEX
  8
3
  5
1338
 10
28.9199
 20
33.0758
 30
0.000000
  70
    32
  0
VERTEX
  8
3
  5
1339
 10
28.9182
 20
33.0743
 30
0.000000
  70
    32
  0
VERTEX
  8
3
  5
133A
 10
28.9165
 20
33.0727
 30
0.000000
  70
    32
  0
VERTEX
  8
3
  5
133B
 10
28.9148
 20
33.0711
 30
0.000000
  70
    32
  0
VERTEX
  8
3
  5
133C
 10
28.9130
 20
33.0696
 30
0.000000
  70
    32
  0
VERTEX
  8
3
  5
133D
 10
28.9113
 20
33.0680
 30
0.000000
  70
    32
  0
VERTEX
  8
3
  5
133E
 10
28.9096
 20
33.0664
 30
0.000000
  70
    32
  0
VERTEX
  8
3
  5
133F
 10
28.9079
 20
33.0648
 30
0.000000
  70
    32
  0
VERTEX
  8
3
  5
1340
 10
28.9061
 20
33.0632
 30
0.000000
  70
    32
  0
VERTEX
  8
3
  5
1341
 10
28.9044
 20
33.0616
 30
0.000000
  70
    32
  0
VERTEX
  8
3
  5
1342
 10
28.9027
 20
33.0601
 30
0.000000
  70
    32
  0
VERTEX
  8
3
  5
1343
 10
28.9010
 20
33.0585
 30
0.000000
  70
    32
  0
VERTEX
  8
3
  5
1344
 10
28.8993
 20
33.0569
 30
0.000000
  70
    32
  0
VERTEX
  8
3
  5
1345
 10
28.8976
 20
33.0553
 30
0.000000
  70
    32
  0
VERTEX
  8
3
  5
1346
 10
28.8959
 20
33.0537
 30
0.000000
  70
    32
  0
VERTEX
  8
3
  5
1347
 10
28.8941
 20
33.0521
 30
0.000000
  70
    32
  0
VERTEX
  8
3
  5
1348
 10
28.8924
 20
33.0505
 30
0.000000
  70
    32
  0
VERTEX
  8
3
  5
1349
 10
28.8907
 20
33.0489
 30
0.000000
  70
    32
  0
VERTEX
  8
3
  5
134A
 10
28.8890
 20
33.0472
 30
0.000000
  70
    32
  0
VERTEX
  8
3
  5
134B
 10
28.8873
 20
33.0456
 30
0.000000
  70
    32
  0
VERTEX
  8
3
  5
134C
 10
28.8856
 20
33.0440
 30
0.000000
  70
    32
  0
VERTEX
  8
3
  5
134D
 10
28.8839
 20
33.0424
 30
0.000000
  70
    32
  0
VERTEX
  8
3
  5
134E
 10
28.8822
 20
33.0408
 30
0.000000
  70
    32
  0
VERTEX
  8
3
  5
134F
 10
28.8805
 20
33.0392
 30
0.000000
  70
    32
  0
VERTEX
  8
3
  5
1350
 10
28.8788
 20
33.0375
 30
0.000000
  70
    32
  0
VERTEX
  8
3
  5
1351
 10
28.8771
 20
33.0359
 30
0.000000
  70
    32
  0
VERTEX
  8
3
  5
1352
 10
28.8754
 20
33.0343
 30
0.000000
  70
    32
  0
VERTEX
  8
3
  5
1353
 10
28.8738
 20
33.0326
 30
0.000000
  70
    32
  0
VERTEX
  8
3
  5
1354
 10
28.8721
 20
33.0310
 30
0.000000
  70
    32
  0
VERTEX
  8
3
  5
1355
 10
28.8704
 20
33.0294
 30
0.000000
  70
    32
  0
VERTEX
  8
3
  5
1356
 10
28.8687
 20
33.0277
 30
0.000000
  70
    32
  0
VERTEX
  8
3
  5
1357
 10
28.8670
 20
33.0261
 30
0.000000
  70
    32
  0
VERTEX
  8
3
  5
1358
 10
28.8653
 20
33.0245
 30
0.000000
  70
    32
  0
VERTEX
  8
3
  5
1359
 10
28.8637
 20
33.0228
 30
0.000000
  70
    32
  0
VERTEX
  8
3
  5
135A
 10
28.8620
 20
33.0212
 30
0.000000
  70
    32
  0
VERTEX
  8
3
  5
135B
 10
28.8603
 20
33.0195
 30
0.000000
  70
    32
  0
VERTEX
  8
3
  5
135C
 10
28.8586
 20
33.0178
 30
0.000000
  70
    32
  0
VERTEX
  8
3
  5
135D
 10
28.8569
 20
33.0162
 30
0.000000
  70
    32
  0
VERTEX
  8
3
  5
135E
 10
28.8553
 20
33.0145
 30
0.000000
  70
    32
  0
VERTEX
  8
3
  5
135F
 10
28.8536
 20
33.0129
 30
0.000000
  70
    32
  0
VERTEX
  8
3
  5
1360
 10
28.8519
 20
33.0112
 30
0.000000
  70
    32
  0
VERTEX
  8
3
  5
1361
 10
28.8503
 20
33.0095
 30
0.000000
  70
    32
  0
VERTEX
  8
3
  5
1362
 10
28.8486
 20
33.0079
 30
0.000000
  70
    32
  0
VERTEX
  8
3
  5
1363
 10
28.8469
 20
33.0062
 30
0.000000
  70
    32
  0
VERTEX
  8
3
  5
1364
 10
28.8453
 20
33.0045
 30
0.000000
  70
    32
  0
VERTEX
  8
3
  5
1365
 10
28.8436
 20
33.0029
 30
0.000000
  70
    32
  0
VERTEX
  8
3
  5
1366
 10
28.8419
 20
33.0012
 30
0.000000
  70
    32
  0
VERTEX
  8
3
  5
1367
 10
28.8403
 20
32.9995
 30
0.000000
  70
    32
  0
VERTEX
  8
3
  5
1368
 10
28.8386
 20
32.9978
 30
0.000000
  70
    32
  0
VERTEX
  8
3
  5
1369
 10
28.8370
 20
32.9961
 30
0.000000
  70
    32
  0
VERTEX
  8
3
  5
136A
 10
28.8353
 20
32.9944
 30
0.000000
  70
    32
  0
VERTEX
  8
3
  5
136B
 10
28.8337
 20
32.9927
 30
0.000000
  70
    32
  0
VERTEX
  8
3
  5
136C
 10
28.8320
 20
32.9911
 30
0.000000
  70
    32
  0
VERTEX
  8
3
  5
136D
 10
28.8304
 20
32.9894
 30
0.000000
  70
    32
  0
VERTEX
  8
3
  5
136E
 10
28.8287
 20
32.9877
 30
0.000000
  70
    32
  0
VERTEX
  8
3
  5
136F
 10
28.8271
 20
32.9860
 30
0.000000
  70
    32
  0
VERTEX
  8
3
  5
1370
 10
28.8254
 20
32.9843
 30
0.000000
  70
    32
  0
VERTEX
  8
3
  5
1371
 10
28.8238
 20
32.9826
 30
0.000000
  70
    32
  0
VERTEX
  8
3
  5
1372
 10
28.8222
 20
32.9809
 30
0.000000
  70
    32
  0
VERTEX
  8
3
  5
1373
 10
28.8205
 20
32.9791
 30
0.000000
  70
    32
  0
VERTEX
  8
3
  5
1374
 10
28.8189
 20
32.9774
 30
0.000000
  70
    32
  0
VERTEX
  8
3
  5
1375
 10
28.8172
 20
32.9757
 30
0.000000
  70
    32
  0
VERTEX
  8
3
  5
1376
 10
28.8156
 20
32.9740
 30
0.000000
  70
    32
  0
VERTEX
  8
3
  5
1377
 10
28.8140
 20
32.9723
 30
0.000000
  70
    32
  0
VERTEX
  8
3
  5
1378
 10
28.8124
 20
32.9706
 30
0.000000
  70
    32
  0
VERTEX
  8
3
  5
1379
 10
28.8107
 20
32.9688
 30
0.000000
  70
    32
  0
VERTEX
  8
3
  5
137A
 10
28.8091
 20
32.9671
 30
0.000000
  70
    32
  0
VERTEX
  8
3
  5
137B
 10
28.8075
 20
32.9654
 30
0.000000
  70
    32
  0
VERTEX
  8
3
  5
137C
 10
28.8058
 20
32.9637
 30
0.000000
  70
    32
  0
VERTEX
  8
3
  5
137D
 10
28.8042
 20
32.9619
 30
0.000000
  70
    32
  0
VERTEX
  8
3
  5
137E
 10
28.8026
 20
32.9602
 30
0.000000
  70
    32
  0
VERTEX
  8
3
  5
137F
 10
28.8010
 20
32.9584
 30
0.000000
  70
    32
  0
VERTEX
  8
3
  5
1380
 10
28.7994
 20
32.9567
 30
0.000000
  70
    32
  0
VERTEX
  8
3
  5
1381
 10
28.7978
 20
32.9550
 30
0.000000
  70
    32
  0
VERTEX
  8
3
  5
1382
 10
28.7961
 20
32.9532
 30
0.000000
  70
    32
  0
VERTEX
  8
3
  5
1383
 10
28.7945
 20
32.9515
 30
0.000000
  70
    32
  0
VERTEX
  8
3
  5
1384
 10
28.7929
 20
32.9497
 30
0.000000
  70
    32
  0
VERTEX
  8
3
  5
1385
 10
28.7913
 20
32.9480
 30
0.000000
  70
    32
  0
VERTEX
  8
3
  5
1386
 10
28.7897
 20
32.9462
 30
0.000000
  70
    32
  0
VERTEX
  8
3
  5
1387
 10
28.7881
 20
32.9445
 30
0.000000
  70
    32
  0
VERTEX
  8
3
  5
1388
 10
28.7865
 20
32.9427
 30
0.000000
  70
    32
  0
VERTEX
  8
3
  5
1389
 10
28.7849
 20
32.9409
 30
0.000000
  70
    32
  0
VERTEX
  8
3
  5
138A
 10
28.7833
 20
32.9392
 30
0.000000
  70
    32
  0
VERTEX
  8
3
  5
138B
 10
28.7817
 20
32.9374
 30
0.000000
  70
    32
  0
VERTEX
  8
3
  5
138C
 10
28.7801
 20
32.9356
 30
0.000000
  70
    32
  0
VERTEX
  8
3
  5
138D
 10
28.7785
 20
32.9339
 30
0.000000
  70
    32
  0
VERTEX
  8
3
  5
138E
 10
28.7769
 20
32.9321
 30
0.000000
  70
    32
  0
VERTEX
  8
3
  5
138F
 10
28.7753
 20
32.9303
 30
0.000000
  70
    32
  0
VERTEX
  8
3
  5
1390
 10
28.7737
 20
32.9285
 30
0.000000
  70
    32
  0
VERTEX
  8
3
  5
1391
 10
28.7721
 20
32.9268
 30
0.000000
  70
    32
  0
VERTEX
  8
3
  5
1392
 10
28.7706
 20
32.9250
 30
0.000000
  70
    32
  0
VERTEX
  8
3
  5
1393
 10
28.7690
 20
32.9232
 30
0.000000
  70
    32
  0
VERTEX
  8
3
  5
1394
 10
28.7674
 20
32.9214
 30
0.000000
  70
    32
  0
VERTEX
  8
3
  5
1395
 10
28.7658
 20
32.9196
 30
0.000000
  70
    32
  0
VERTEX
  8
3
  5
1396
 10
28.7642
 20
32.9178
 30
0.000000
  70
    32
  0
VERTEX
  8
3
  5
1397
 10
28.7627
 20
32.9160
 30
0.000000
  70
    32
  0
VERTEX
  8
3
  5
1398
 10
28.7611
 20
32.9142
 30
0.000000
  70
    32
  0
VERTEX
  8
3
  5
1399
 10
28.7595
 20
32.9125
 30
0.000000
  70
    32
  0
VERTEX
  8
3
  5
139A
 10
28.7579
 20
32.9107
 30
0.000000
  70
    32
  0
VERTEX
  8
3
  5
139B
 10
28.7564
 20
32.9088
 30
0.000000
  70
    32
  0
VERTEX
  8
3
  5
139C
 10
28.7548
 20
32.9070
 30
0.000000
  70
    32
  0
VERTEX
  8
3
  5
139D
 10
28.7532
 20
32.9052
 30
0.000000
  70
    32
  0
VERTEX
  8
3
  5
139E
 10
28.7517
 20
32.9034
 30
0.000000
  70
    32
  0
VERTEX
  8
3
  5
139F
 10
28.7501
 20
32.9016
 30
0.000000
  70
    32
  0
VERTEX
  8
3
  5
13A0
 10
28.7485
 20
32.8998
 30
0.000000
  70
    32
  0
VERTEX
  8
3
  5
13A1
 10
28.7470
 20
32.8980
 30
0.000000
  70
    32
  0
VERTEX
  8
3
  5
13A2
 10
28.7454
 20
32.8962
 30
0.000000
  70
    32
  0
VERTEX
  8
3
  5
13A3
 10
28.7439
 20
32.8943
 30
0.000000
  70
    32
  0
VERTEX
  8
3
  5
13A4
 10
28.7423
 20
32.8925
 30
0.000000
  70
    32
  0
VERTEX
  8
3
  5
13A5
 10
28.7408
 20
32.8907
 30
0.000000
  70
    32
  0
VERTEX
  8
3
  5
13A6
 10
28.7392
 20
32.8889
 30
0.000000
  70
    32
  0
VERTEX
  8
3
  5
13A7
 10
28.7377
 20
32.8870
 30
0.000000
  70
    32
  0
VERTEX
  8
3
  5
13A8
 10
28.7361
 20
32.8852
 30
0.000000
  70
    32
  0
VERTEX
  8
3
  5
13A9
 10
28.7346
 20
32.8834
 30
0.000000
  70
    32
  0
VERTEX
  8
3
  5
13AA
 10
28.7330
 20
32.8815
 30
0.000000
  70
    32
  0
VERTEX
  8
3
  5
13AB
 10
28.7315
 20
32.8797
 30
0.000000
  70
    32
  0
VERTEX
  8
3
  5
13AC
 10
28.7299
 20
32.8779
 30
0.000000
  70
    32
  0
VERTEX
  8
3
  5
13AD
 10
28.7284
 20
32.8760
 30
0.000000
  70
    32
  0
VERTEX
  8
3
  5
13AE
 10
28.7269
 20
32.8742
 30
0.000000
  70
    32
  0
VERTEX
  8
3
  5
13AF
 10
28.7253
 20
32.8723
 30
0.000000
  70
    32
  0
VERTEX
  8
3
  5
13B0
 10
28.7238
 20
32.8705
 30
0.000000
  70
    32
  0
VERTEX
  8
3
  5
13B1
 10
28.7223
 20
32.8686
 30
0.000000
  70
    32
  0
VERTEX
  8
3
  5
13B2
 10
28.7207
 20
32.8668
 30
0.000000
  70
    32
  0
SEQEND
  8
3
  5
13B3
  0
LINE
  5
723
  8
3
 10
29.910197439021431
 20
33.085197415202863
 30
0.0
 11
28.93035099375993
 21
33.085197415202863
 31
0.0
  0
LINE
  5
724
  8
3
 10
27.68225010484457
 20
30.857250008266419
 30
0.0
 11
27.55525006912649
 21
30.857250008266419
 31
0.0
  0
LINE
  5
725
  8
3
 10
27.68225010484457
 20
30.730249972548339
 30
0.0
 11
27.68225010484457
 21
30.857250008266419
 31
0.0
  0
LINE
  5
726
  8
3
 10
27.55525006912649
 20
30.730249972548339
 30
0.0
 11
27.68225010484457
 21
30.730249972548339
 31
0.0
  0
LINE
  5
727
  8
3
 10
27.55525006912649
 20
30.857250008266419
 30
0.0
 11
27.55525006912649
 21
30.730249972548339
 31
0.0
  0
LINE
  5
728
  8
3
 10
28.322697472758591
 20
31.497697434388101
 30
0.0
 11
28.322697472758591
 21
30.089802560978569
 31
0.0
  0
LINE
  5
729
  8
3
 10
28.322697472758591
 20
30.089802560978569
 30
0.0
 11
27.68225010484457
 21
30.730249972548339
 31
0.0
  0
LINE
  5
72A
  8
3
 10
28.322697472758591
 20
31.497697434388101
 30
0.0
 11
27.68225010484457
 21
30.857250008266419
 31
0.0
  0
LINE
  5
72B
  8
3
 10
28.322697472758591
 20
30.089802560978569
 30
0.0
 11
26.91480258479714
 21
30.089802560978569
 31
0.0
  0
LINE
  5
72C
  8
3
 10
27.55525006912649
 20
30.730249972548339
 30
0.0
 11
26.91480258479714
 21
30.089802560978569
 31
0.0
  0
LINE
  5
72D
  8
3
 10
27.55525006912649
 20
30.857250008266419
 30
0.0
 11
27.133227996528149
 21
31.2792720226571
 31
0.0
  0
LINE
  5
72E
  8
3
 10
27.133227996528149
 20
31.279272139072422
 30
0.0
 11
27.098363703116771
 21
31.497696270234879
 31
0.0
  0
LINE
  5
72F
  8
3
 10
28.322697472758591
 20
31.497697434388101
 30
0.0
 11
27.098363470286131
 21
31.497696852311488
 31
0.0
  0
LINE
  5
730
  8
3
 10
30.089802560978569
 20
30.089802560978569
 30
0.0
 11
30.089802560978569
 21
31.497697434388101
 31
0.0
  0
LINE
  5
731
  8
3
 10
30.730249972548339
 20
30.857250008266419
 30
0.0
 11
30.089802560978569
 21
31.497697434388101
 31
0.0
  0
LINE
  5
732
  8
3
 10
31.497697434388101
 20
31.497697434388101
 30
0.0
 11
30.089802560978569
 21
31.497697434388101
 31
0.0
  0
LINE
  5
733
  8
3
 10
26.91480258479714
 20
30.089802560978569
 30
0.0
 11
26.91480258479714
 21
31.06964900624007
 31
0.0
  0
POLYLINE
  5
734
  8
3
 10
27.133227903923942
 20
31.279272062136979
 30
0.0
 66
     1
 70
     8
  0
VERTEX
  8
3
  5
13B4
 10
27.1332
 20
31.2793
 30
0.000000
  70
    32
  0
VERTEX
  8
3
  5
13B5
 10
27.1314
 20
31.2777
 30
0.000000
  70
    32
  0
VERTEX
  8
3
  5
13B6
 10
27.1295
 20
31.2762
 30
0.000000
  70
    32
  0
VERTEX
  8
3
  5
13B7
 10
27.1277
 20
31.2747
 30
0.000000
  70
    32
  0
VERTEX
  8
3
  5
13B8
 10
27.1258
 20
31.2731
 30
0.000000
  70
    32
  0
VERTEX
  8
3
  5
13B9
 10
27.1240
 20
31.2716
 30
0.000000
  70
    32
  0
VERTEX
  8
3
  5
13BA
 10
27.1221
 20
31.2701
 30
0.000000
  70
    32
  0
VERTEX
  8
3
  5
13BB
 10
27.1203
 20
31.2685
 30
0.000000
  70
    32
  0
VERTEX
  8
3
  5
13BC
 10
27.1185
 20
31.2670
 30
0.000000
  70
    32
  0
VERTEX
  8
3
  5
13BD
 10
27.1166
 20
31.2654
 30
0.000000
  70
    32
  0
VERTEX
  8
3
  5
13BE
 10
27.1148
 20
31.2639
 30
0.000000
  70
    32
  0
VERTEX
  8
3
  5
13BF
 10
27.1130
 20
31.2623
 30
0.000000
  70
    32
  0
VERTEX
  8
3
  5
13C0
 10
27.1111
 20
31.2608
 30
0.000000
  70
    32
  0
VERTEX
  8
3
  5
13C1
 10
27.1093
 20
31.2592
 30
0.000000
  70
    32
  0
VERTEX
  8
3
  5
13C2
 10
27.1075
 20
31.2577
 30
0.000000
  70
    32
  0
VERTEX
  8
3
  5
13C3
 10
27.1057
 20
31.2561
 30
0.000000
  70
    32
  0
VERTEX
  8
3
  5
13C4
 10
27.1038
 20
31.2546
 30
0.000000
  70
    32
  0
VERTEX
  8
3
  5
13C5
 10
27.1020
 20
31.2530
 30
0.000000
  70
    32
  0
VERTEX
  8
3
  5
13C6
 10
27.1002
 20
31.2515
 30
0.000000
  70
    32
  0
VERTEX
  8
3
  5
13C7
 10
27.0984
 20
31.2499
 30
0.000000
  70
    32
  0
VERTEX
  8
3
  5
13C8
 10
27.0966
 20
31.2483
 30
0.000000
  70
    32
  0
VERTEX
  8
3
  5
13C9
 10
27.0948
 20
31.2468
 30
0.000000
  70
    32
  0
VERTEX
  8
3
  5
13CA
 10
27.0930
 20
31.2452
 30
0.000000
  70
    32
  0
VERTEX
  8
3
  5
13CB
 10
27.0912
 20
31.2436
 30
0.000000
  70
    32
  0
VERTEX
  8
3
  5
13CC
 10
27.0893
 20
31.2421
 30
0.000000
  70
    32
  0
VERTEX
  8
3
  5
13CD
 10
27.0875
 20
31.2405
 30
0.000000
  70
    32
  0
VERTEX
  8
3
  5
13CE
 10
27.0858
 20
31.2389
 30
0.000000
  70
    32
  0
VERTEX
  8
3
  5
13CF
 10
27.0840
 20
31.2373
 30
0.000000
  70
    32
  0
VERTEX
  8
3
  5
13D0
 10
27.0822
 20
31.2358
 30
0.000000
  70
    32
  0
VERTEX
  8
3
  5
13D1
 10
27.0804
 20
31.2342
 30
0.000000
  70
    32
  0
VERTEX
  8
3
  5
13D2
 10
27.0786
 20
31.2326
 30
0.000000
  70
    32
  0
VERTEX
  8
3
  5
13D3
 10
27.0768
 20
31.2310
 30
0.000000
  70
    32
  0
VERTEX
  8
3
  5
13D4
 10
27.0750
 20
31.2294
 30
0.000000
  70
    32
  0
VERTEX
  8
3
  5
13D5
 10
27.0732
 20
31.2279
 30
0.000000
  70
    32
  0
VERTEX
  8
3
  5
13D6
 10
27.0715
 20
31.2263
 30
0.000000
  70
    32
  0
VERTEX
  8
3
  5
13D7
 10
27.0697
 20
31.2247
 30
0.000000
  70
    32
  0
VERTEX
  8
3
  5
13D8
 10
27.0679
 20
31.2231
 30
0.000000
  70
    32
  0
VERTEX
  8
3
  5
13D9
 10
27.0661
 20
31.2215
 30
0.000000
  70
    32
  0
VERTEX
  8
3
  5
13DA
 10
27.0644
 20
31.2199
 30
0.000000
  70
    32
  0
VERTEX
  8
3
  5
13DB
 10
27.0626
 20
31.2183
 30
0.000000
  70
    32
  0
VERTEX
  8
3
  5
13DC
 10
27.0608
 20
31.2167
 30
0.000000
  70
    32
  0
VERTEX
  8
3
  5
13DD
 10
27.0591
 20
31.2151
 30
0.000000
  70
    32
  0
VERTEX
  8
3
  5
13DE
 10
27.0573
 20
31.2135
 30
0.000000
  70
    32
  0
VERTEX
  8
3
  5
13DF
 10
27.0555
 20
31.2119
 30
0.000000
  70
    32
  0
VERTEX
  8
3
  5
13E0
 10
27.0538
 20
31.2103
 30
0.000000
  70
    32
  0
VERTEX
  8
3
  5
13E1
 10
27.0520
 20
31.2087
 30
0.000000
  70
    32
  0
VERTEX
  8
3
  5
13E2
 10
27.0503
 20
31.2071
 30
0.000000
  70
    32
  0
VERTEX
  8
3
  5
13E3
 10
27.0485
 20
31.2055
 30
0.000000
  70
    32
  0
VERTEX
  8
3
  5
13E4
 10
27.0468
 20
31.2039
 30
0.000000
  70
    32
  0
VERTEX
  8
3
  5
13E5
 10
27.0450
 20
31.2022
 30
0.000000
  70
    32
  0
VERTEX
  8
3
  5
13E6
 10
27.0433
 20
31.2006
 30
0.000000
  70
    32
  0
VERTEX
  8
3
  5
13E7
 10
27.0416
 20
31.1990
 30
0.000000
  70
    32
  0
VERTEX
  8
3
  5
13E8
 10
27.0398
 20
31.1974
 30
0.000000
  70
    32
  0
VERTEX
  8
3
  5
13E9
 10
27.0381
 20
31.1958
 30
0.000000
  70
    32
  0
VERTEX
  8
3
  5
13EA
 10
27.0363
 20
31.1942
 30
0.000000
  70
    32
  0
VERTEX
  8
3
  5
13EB
 10
27.0346
 20
31.1925
 30
0.000000
  70
    32
  0
VERTEX
  8
3
  5
13EC
 10
27.0329
 20
31.1909
 30
0.000000
  70
    32
  0
VERTEX
  8
3
  5
13ED
 10
27.0312
 20
31.1893
 30
0.000000
  70
    32
  0
VERTEX
  8
3
  5
13EE
 10
27.0294
 20
31.1876
 30
0.000000
  70
    32
  0
VERTEX
  8
3
  5
13EF
 10
27.0277
 20
31.1860
 30
0.000000
  70
    32
  0
VERTEX
  8
3
  5
13F0
 10
27.0260
 20
31.1844
 30
0.000000
  70
    32
  0
VERTEX
  8
3
  5
13F1
 10
27.0243
 20
31.1828
 30
0.000000
  70
    32
  0
VERTEX
  8
3
  5
13F2
 10
27.0226
 20
31.1811
 30
0.000000
  70
    32
  0
VERTEX
  8
3
  5
13F3
 10
27.0209
 20
31.1795
 30
0.000000
  70
    32
  0
VERTEX
  8
3
  5
13F4
 10
27.0191
 20
31.1778
 30
0.000000
  70
    32
  0
VERTEX
  8
3
  5
13F5
 10
27.0174
 20
31.1762
 30
0.000000
  70
    32
  0
VERTEX
  8
3
  5
13F6
 10
27.0157
 20
31.1746
 30
0.000000
  70
    32
  0
VERTEX
  8
3
  5
13F7
 10
27.0140
 20
31.1729
 30
0.000000
  70
    32
  0
VERTEX
  8
3
  5
13F8
 10
27.0123
 20
31.1713
 30
0.000000
  70
    32
  0
VERTEX
  8
3
  5
13F9
 10
27.0106
 20
31.1696
 30
0.000000
  70
    32
  0
VERTEX
  8
3
  5
13FA
 10
27.0089
 20
31.1680
 30
0.000000
  70
    32
  0
VERTEX
  8
3
  5
13FB
 10
27.0073
 20
31.1663
 30
0.000000
  70
    32
  0
VERTEX
  8
3
  5
13FC
 10
27.0056
 20
31.1647
 30
0.000000
  70
    32
  0
VERTEX
  8
3
  5
13FD
 10
27.0039
 20
31.1630
 30
0.000000
  70
    32
  0
VERTEX
  8
3
  5
13FE
 10
27.0022
 20
31.1614
 30
0.000000
  70
    32
  0
VERTEX
  8
3
  5
13FF
 10
27.0005
 20
31.1597
 30
0.000000
  70
    32
  0
VERTEX
  8
3
  5
1400
 10
26.9988
 20
31.1581
 30
0.000000
  70
    32
  0
VERTEX
  8
3
  5
1401
 10
26.9971
 20
31.1564
 30
0.000000
  70
    32
  0
VERTEX
  8
3
  5
1402
 10
26.9955
 20
31.1547
 30
0.000000
  70
    32
  0
VERTEX
  8
3
  5
1403
 10
26.9938
 20
31.1531
 30
0.000000
  70
    32
  0
VERTEX
  8
3
  5
1404
 10
26.9921
 20
31.1514
 30
0.000000
  70
    32
  0
VERTEX
  8
3
  5
1405
 10
26.9905
 20
31.1497
 30
0.000000
  70
    32
  0
VERTEX
  8
3
  5
1406
 10
26.9888
 20
31.1481
 30
0.000000
  70
    32
  0
VERTEX
  8
3
  5
1407
 10
26.9871
 20
31.1464
 30
0.000000
  70
    32
  0
VERTEX
  8
3
  5
1408
 10
26.9855
 20
31.1447
 30
0.000000
  70
    32
  0
VERTEX
  8
3
  5
1409
 10
26.9838
 20
31.1431
 30
0.000000
  70
    32
  0
VERTEX
  8
3
  5
140A
 10
26.9822
 20
31.1414
 30
0.000000
  70
    32
  0
VERTEX
  8
3
  5
140B
 10
26.9805
 20
31.1397
 30
0.000000
  70
    32
  0
VERTEX
  8
3
  5
140C
 10
26.9788
 20
31.1380
 30
0.000000
  70
    32
  0
VERTEX
  8
3
  5
140D
 10
26.9772
 20
31.1363
 30
0.000000
  70
    32
  0
VERTEX
  8
3
  5
140E
 10
26.9755
 20
31.1347
 30
0.000000
  70
    32
  0
VERTEX
  8
3
  5
140F
 10
26.9739
 20
31.1330
 30
0.000000
  70
    32
  0
VERTEX
  8
3
  5
1410
 10
26.9723
 20
31.1313
 30
0.000000
  70
    32
  0
VERTEX
  8
3
  5
1411
 10
26.9706
 20
31.1296
 30
0.000000
  70
    32
  0
VERTEX
  8
3
  5
1412
 10
26.9690
 20
31.1279
 30
0.000000
  70
    32
  0
VERTEX
  8
3
  5
1413
 10
26.9674
 20
31.1262
 30
0.000000
  70
    32
  0
VERTEX
  8
3
  5
1414
 10
26.9657
 20
31.1246
 30
0.000000
  70
    32
  0
VERTEX
  8
3
  5
1415
 10
26.9641
 20
31.1229
 30
0.000000
  70
    32
  0
VERTEX
  8
3
  5
1416
 10
26.9625
 20
31.1212
 30
0.000000
  70
    32
  0
VERTEX
  8
3
  5
1417
 10
26.9608
 20
31.1195
 30
0.000000
  70
    32
  0
VERTEX
  8
3
  5
1418
 10
26.9592
 20
31.1178
 30
0.000000
  70
    32
  0
VERTEX
  8
3
  5
1419
 10
26.9576
 20
31.1161
 30
0.000000
  70
    32
  0
VERTEX
  8
3
  5
141A
 10
26.9560
 20
31.1144
 30
0.000000
  70
    32
  0
VERTEX
  8
3
  5
141B
 10
26.9544
 20
31.1127
 30
0.000000
  70
    32
  0
VERTEX
  8
3
  5
141C
 10
26.9528
 20
31.1110
 30
0.000000
  70
    32
  0
VERTEX
  8
3
  5
141D
 10
26.9511
 20
31.1093
 30
0.000000
  70
    32
  0
VERTEX
  8
3
  5
141E
 10
26.9495
 20
31.1076
 30
0.000000
  70
    32
  0
VERTEX
  8
3
  5
141F
 10
26.9479
 20
31.1059
 30
0.000000
  70
    32
  0
VERTEX
  8
3
  5
1420
 10
26.9463
 20
31.1041
 30
0.000000
  70
    32
  0
VERTEX
  8
3
  5
1421
 10
26.9447
 20
31.1024
 30
0.000000
  70
    32
  0
VERTEX
  8
3
  5
1422
 10
26.9431
 20
31.1007
 30
0.000000
  70
    32
  0
VERTEX
  8
3
  5
1423
 10
26.9415
 20
31.0990
 30
0.000000
  70
    32
  0
VERTEX
  8
3
  5
1424
 10
26.9399
 20
31.0973
 30
0.000000
  70
    32
  0
VERTEX
  8
3
  5
1425
 10
26.9384
 20
31.0956
 30
0.000000
  70
    32
  0
VERTEX
  8
3
  5
1426
 10
26.9368
 20
31.0939
 30
0.000000
  70
    32
  0
VERTEX
  8
3
  5
1427
 10
26.9352
 20
31.0921
 30
0.000000
  70
    32
  0
VERTEX
  8
3
  5
1428
 10
26.9336
 20
31.0904
 30
0.000000
  70
    32
  0
VERTEX
  8
3
  5
1429
 10
26.9320
 20
31.0887
 30
0.000000
  70
    32
  0
VERTEX
  8
3
  5
142A
 10
26.9304
 20
31.0870
 30
0.000000
  70
    32
  0
VERTEX
  8
3
  5
142B
 10
26.9289
 20
31.0852
 30
0.000000
  70
    32
  0
VERTEX
  8
3
  5
142C
 10
26.9273
 20
31.0835
 30
0.000000
  70
    32
  0
VERTEX
  8
3
  5
142D
 10
26.9257
 20
31.0818
 30
0.000000
  70
    32
  0
VERTEX
  8
3
  5
142E
 10
26.9242
 20
31.0801
 30
0.000000
  70
    32
  0
VERTEX
  8
3
  5
142F
 10
26.9226
 20
31.0783
 30
0.000000
  70
    32
  0
VERTEX
  8
3
  5
1430
 10
26.9210
 20
31.0766
 30
0.000000
  70
    32
  0
VERTEX
  8
3
  5
1431
 10
26.9195
 20
31.0749
 30
0.000000
  70
    32
  0
VERTEX
  8
3
  5
1432
 10
26.9179
 20
31.0731
 30
0.000000
  70
    32
  0
VERTEX
  8
3
  5
1433
 10
26.9164
 20
31.0714
 30
0.000000
  70
    32
  0
VERTEX
  8
3
  5
1434
 10
26.9148
 20
31.0696
 30
0.000000
  70
    32
  0
SEQEND
  8
3
  5
1435
  0
LINE
  5
735
  8
3
 10
29.910197439021431
 20
28.322697472758591
 30
0.0
 11
29.910197439021431
 21
26.91480258479714
 31
0.0
  0
ARC
  5
736
  8
3
 10
32.680513488658782
 20
31.492232368973792
 30
0.0
 40
0.2211905654078303
 50
1.4157794190028721
 51
56.793386879422279
  0
POLYLINE
  5
737
  8
3
 10
32.801650861468111
 20
31.677302678041713
 30
0.0
 66
     1
 70
     8
  0
VERTEX
  8
3
  5
1436
 10
32.8017
 20
31.6773
 30
0.000000
  70
    32
  0
VERTEX
  8
3
  5
1437
 10
32.7966
 20
31.6813
 30
0.000000
  70
    32
  0
VERTEX
  8
3
  5
1438
 10
32.7915
 20
31.6852
 30
0.000000
  70
    32
  0
VERTEX
  8
3
  5
1439
 10
32.7865
 20
31.6892
 30
0.000000
  70
    32
  0
VERTEX
  8
3
  5
143A
 10
32.7814
 20
31.6932
 30
0.000000
  70
    32
  0
VERTEX
  8
3
  5
143B
 10
32.7763
 20
31.6971
 30
0.000000
  70
    32
  0
VERTEX
  8
3
  5
143C
 10
32.7712
 20
31.7010
 30
0.000000
  70
    32
  0
VERTEX
  8
3
  5
143D
 10
32.7662
 20
31.7050
 30
0.000000
  70
    32
  0
VERTEX
  8
3
  5
143E
 10
32.7611
 20
31.7089
 30
0.000000
  70
    32
  0
VERTEX
  8
3
  5
143F
 10
32.7560
 20
31.7128
 30
0.000000
  70
    32
  0
VERTEX
  8
3
  5
1440
 10
32.7509
 20
31.7167
 30
0.000000
  70
    32
  0
VERTEX
  8
3
  5
1441
 10
32.7458
 20
31.7206
 30
0.000000
  70
    32
  0
VERTEX
  8
3
  5
1442
 10
32.7407
 20
31.7245
 30
0.000000
  70
    32
  0
VERTEX
  8
3
  5
1443
 10
32.7356
 20
31.7284
 30
0.000000
  70
    32
  0
VERTEX
  8
3
  5
1444
 10
32.7305
 20
31.7323
 30
0.000000
  70
    32
  0
VERTEX
  8
3
  5
1445
 10
32.7254
 20
31.7362
 30
0.000000
  70
    32
  0
VERTEX
  8
3
  5
1446
 10
32.7202
 20
31.7400
 30
0.000000
  70
    32
  0
VERTEX
  8
3
  5
1447
 10
32.7151
 20
31.7439
 30
0.000000
  70
    32
  0
VERTEX
  8
3
  5
1448
 10
32.7100
 20
31.7477
 30
0.000000
  70
    32
  0
VERTEX
  8
3
  5
1449
 10
32.7049
 20
31.7516
 30
0.000000
  70
    32
  0
VERTEX
  8
3
  5
144A
 10
32.6998
 20
31.7554
 30
0.000000
  70
    32
  0
VERTEX
  8
3
  5
144B
 10
32.6946
 20
31.7592
 30
0.000000
  70
    32
  0
VERTEX
  8
3
  5
144C
 10
32.6895
 20
31.7631
 30
0.000000
  70
    32
  0
VERTEX
  8
3
  5
144D
 10
32.6843
 20
31.7669
 30
0.000000
  70
    32
  0
VERTEX
  8
3
  5
144E
 10
32.6792
 20
31.7707
 30
0.000000
  70
    32
  0
VERTEX
  8
3
  5
144F
 10
32.6740
 20
31.7745
 30
0.000000
  70
    32
  0
VERTEX
  8
3
  5
1450
 10
32.6689
 20
31.7783
 30
0.000000
  70
    32
  0
VERTEX
  8
3
  5
1451
 10
32.6637
 20
31.7821
 30
0.000000
  70
    32
  0
VERTEX
  8
3
  5
1452
 10
32.6586
 20
31.7858
 30
0.000000
  70
    32
  0
VERTEX
  8
3
  5
1453
 10
32.6534
 20
31.7896
 30
0.000000
  70
    32
  0
VERTEX
  8
3
  5
1454
 10
32.6483
 20
31.7934
 30
0.000000
  70
    32
  0
VERTEX
  8
3
  5
1455
 10
32.6431
 20
31.7971
 30
0.000000
  70
    32
  0
VERTEX
  8
3
  5
1456
 10
32.6379
 20
31.8009
 30
0.000000
  70
    32
  0
VERTEX
  8
3
  5
1457
 10
32.6327
 20
31.8046
 30
0.000000
  70
    32
  0
VERTEX
  8
3
  5
1458
 10
32.6276
 20
31.8084
 30
0.000000
  70
    32
  0
VERTEX
  8
3
  5
1459
 10
32.6224
 20
31.8121
 30
0.000000
  70
    32
  0
VERTEX
  8
3
  5
145A
 10
32.6172
 20
31.8158
 30
0.000000
  70
    32
  0
VERTEX
  8
3
  5
145B
 10
32.6120
 20
31.8195
 30
0.000000
  70
    32
  0
VERTEX
  8
3
  5
145C
 10
32.6068
 20
31.8232
 30
0.000000
  70
    32
  0
VERTEX
  8
3
  5
145D
 10
32.6016
 20
31.8269
 30
0.000000
  70
    32
  0
VERTEX
  8
3
  5
145E
 10
32.5964
 20
31.8306
 30
0.000000
  70
    32
  0
VERTEX
  8
3
  5
145F
 10
32.5912
 20
31.8343
 30
0.000000
  70
    32
  0
VERTEX
  8
3
  5
1460
 10
32.5860
 20
31.8380
 30
0.000000
  70
    32
  0
VERTEX
  8
3
  5
1461
 10
32.5808
 20
31.8416
 30
0.000000
  70
    32
  0
VERTEX
  8
3
  5
1462
 10
32.5756
 20
31.8453
 30
0.000000
  70
    32
  0
VERTEX
  8
3
  5
1463
 10
32.5703
 20
31.8489
 30
0.000000
  70
    32
  0
VERTEX
  8
3
  5
1464
 10
32.5651
 20
31.8526
 30
0.000000
  70
    32
  0
VERTEX
  8
3
  5
1465
 10
32.5599
 20
31.8562
 30
0.000000
  70
    32
  0
VERTEX
  8
3
  5
1466
 10
32.5547
 20
31.8599
 30
0.000000
  70
    32
  0
VERTEX
  8
3
  5
1467
 10
32.5494
 20
31.8635
 30
0.000000
  70
    32
  0
VERTEX
  8
3
  5
1468
 10
32.5442
 20
31.8671
 30
0.000000
  70
    32
  0
VERTEX
  8
3
  5
1469
 10
32.5390
 20
31.8707
 30
0.000000
  70
    32
  0
VERTEX
  8
3
  5
146A
 10
32.5337
 20
31.8743
 30
0.000000
  70
    32
  0
VERTEX
  8
3
  5
146B
 10
32.5285
 20
31.8779
 30
0.000000
  70
    32
  0
VERTEX
  8
3
  5
146C
 10
32.5232
 20
31.8815
 30
0.000000
  70
    32
  0
VERTEX
  8
3
  5
146D
 10
32.5180
 20
31.8851
 30
0.000000
  70
    32
  0
VERTEX
  8
3
  5
146E
 10
32.5127
 20
31.8886
 30
0.000000
  70
    32
  0
VERTEX
  8
3
  5
146F
 10
32.5075
 20
31.8922
 30
0.000000
  70
    32
  0
VERTEX
  8
3
  5
1470
 10
32.5022
 20
31.8958
 30
0.000000
  70
    32
  0
VERTEX
  8
3
  5
1471
 10
32.4969
 20
31.8993
 30
0.000000
  70
    32
  0
VERTEX
  8
3
  5
1472
 10
32.4917
 20
31.9028
 30
0.000000
  70
    32
  0
VERTEX
  8
3
  5
1473
 10
32.4864
 20
31.9064
 30
0.000000
  70
    32
  0
VERTEX
  8
3
  5
1474
 10
32.4811
 20
31.9099
 30
0.000000
  70
    32
  0
VERTEX
  8
3
  5
1475
 10
32.4758
 20
31.9134
 30
0.000000
  70
    32
  0
VERTEX
  8
3
  5
1476
 10
32.4705
 20
31.9169
 30
0.000000
  70
    32
  0
VERTEX
  8
3
  5
1477
 10
32.4653
 20
31.9204
 30
0.000000
  70
    32
  0
VERTEX
  8
3
  5
1478
 10
32.4600
 20
31.9239
 30
0.000000
  70
    32
  0
VERTEX
  8
3
  5
1479
 10
32.4547
 20
31.9274
 30
0.000000
  70
    32
  0
VERTEX
  8
3
  5
147A
 10
32.4494
 20
31.9309
 30
0.000000
  70
    32
  0
VERTEX
  8
3
  5
147B
 10
32.4441
 20
31.9344
 30
0.000000
  70
    32
  0
VERTEX
  8
3
  5
147C
 10
32.4388
 20
31.9378
 30
0.000000
  70
    32
  0
VERTEX
  8
3
  5
147D
 10
32.4335
 20
31.9413
 30
0.000000
  70
    32
  0
VERTEX
  8
3
  5
147E
 10
32.4282
 20
31.9448
 30
0.000000
  70
    32
  0
VERTEX
  8
3
  5
147F
 10
32.4228
 20
31.9482
 30
0.000000
  70
    32
  0
VERTEX
  8
3
  5
1480
 10
32.4175
 20
31.9516
 30
0.000000
  70
    32
  0
VERTEX
  8
3
  5
1481
 10
32.4122
 20
31.9551
 30
0.000000
  70
    32
  0
VERTEX
  8
3
  5
1482
 10
32.4069
 20
31.9585
 30
0.000000
  70
    32
  0
VERTEX
  8
3
  5
1483
 10
32.4016
 20
31.9619
 30
0.000000
  70
    32
  0
VERTEX
  8
3
  5
1484
 10
32.3962
 20
31.9653
 30
0.000000
  70
    32
  0
VERTEX
  8
3
  5
1485
 10
32.3909
 20
31.9687
 30
0.000000
  70
    32
  0
VERTEX
  8
3
  5
1486
 10
32.3856
 20
31.9721
 30
0.000000
  70
    32
  0
VERTEX
  8
3
  5
1487
 10
32.3802
 20
31.9755
 30
0.000000
  70
    32
  0
VERTEX
  8
3
  5
1488
 10
32.3749
 20
31.9788
 30
0.000000
  70
    32
  0
VERTEX
  8
3
  5
1489
 10
32.3695
 20
31.9822
 30
0.000000
  70
    32
  0
VERTEX
  8
3
  5
148A
 10
32.3642
 20
31.9856
 30
0.000000
  70
    32
  0
VERTEX
  8
3
  5
148B
 10
32.3588
 20
31.9889
 30
0.000000
  70
    32
  0
VERTEX
  8
3
  5
148C
 10
32.3535
 20
31.9923
 30
0.000000
  70
    32
  0
VERTEX
  8
3
  5
148D
 10
32.3481
 20
31.9956
 30
0.000000
  70
    32
  0
VERTEX
  8
3
  5
148E
 10
32.3428
 20
31.9989
 30
0.000000
  70
    32
  0
VERTEX
  8
3
  5
148F
 10
32.3374
 20
32.0023
 30
0.000000
  70
    32
  0
VERTEX
  8
3
  5
1490
 10
32.3320
 20
32.0056
 30
0.000000
  70
    32
  0
VERTEX
  8
3
  5
1491
 10
32.3267
 20
32.0089
 30
0.000000
  70
    32
  0
VERTEX
  8
3
  5
1492
 10
32.3213
 20
32.0122
 30
0.000000
  70
    32
  0
VERTEX
  8
3
  5
1493
 10
32.3159
 20
32.0155
 30
0.000000
  70
    32
  0
VERTEX
  8
3
  5
1494
 10
32.3105
 20
32.0188
 30
0.000000
  70
    32
  0
VERTEX
  8
3
  5
1495
 10
32.3052
 20
32.0220
 30
0.000000
  70
    32
  0
VERTEX
  8
3
  5
1496
 10
32.2998
 20
32.0253
 30
0.000000
  70
    32
  0
VERTEX
  8
3
  5
1497
 10
32.2944
 20
32.0286
 30
0.000000
  70
    32
  0
VERTEX
  8
3
  5
1498
 10
32.2890
 20
32.0318
 30
0.000000
  70
    32
  0
VERTEX
  8
3
  5
1499
 10
32.2836
 20
32.0351
 30
0.000000
  70
    32
  0
VERTEX
  8
3
  5
149A
 10
32.2782
 20
32.0383
 30
0.000000
  70
    32
  0
VERTEX
  8
3
  5
149B
 10
32.2728
 20
32.0415
 30
0.000000
  70
    32
  0
VERTEX
  8
3
  5
149C
 10
32.2674
 20
32.0448
 30
0.000000
  70
    32
  0
VERTEX
  8
3
  5
149D
 10
32.2620
 20
32.0480
 30
0.000000
  70
    32
  0
VERTEX
  8
3
  5
149E
 10
32.2566
 20
32.0512
 30
0.000000
  70
    32
  0
VERTEX
  8
3
  5
149F
 10
32.2512
 20
32.0544
 30
0.000000
  70
    32
  0
VERTEX
  8
3
  5
14A0
 10
32.2458
 20
32.0576
 30
0.000000
  70
    32
  0
VERTEX
  8
3
  5
14A1
 10
32.2403
 20
32.0608
 30
0.000000
  70
    32
  0
VERTEX
  8
3
  5
14A2
 10
32.2349
 20
32.0639
 30
0.000000
  70
    32
  0
VERTEX
  8
3
  5
14A3
 10
32.2295
 20
32.0671
 30
0.000000
  70
    32
  0
VERTEX
  8
3
  5
14A4
 10
32.2241
 20
32.0703
 30
0.000000
  70
    32
  0
VERTEX
  8
3
  5
14A5
 10
32.2186
 20
32.0734
 30
0.000000
  70
    32
  0
VERTEX
  8
3
  5
14A6
 10
32.2132
 20
32.0766
 30
0.000000
  70
    32
  0
VERTEX
  8
3
  5
14A7
 10
32.2078
 20
32.0797
 30
0.000000
  70
    32
  0
VERTEX
  8
3
  5
14A8
 10
32.2023
 20
32.0828
 30
0.000000
  70
    32
  0
VERTEX
  8
3
  5
14A9
 10
32.1969
 20
32.0860
 30
0.000000
  70
    32
  0
VERTEX
  8
3
  5
14AA
 10
32.1914
 20
32.0891
 30
0.000000
  70
    32
  0
VERTEX
  8
3
  5
14AB
 10
32.1860
 20
32.0922
 30
0.000000
  70
    32
  0
VERTEX
  8
3
  5
14AC
 10
32.1805
 20
32.0953
 30
0.000000
  70
    32
  0
VERTEX
  8
3
  5
14AD
 10
32.1751
 20
32.0984
 30
0.000000
  70
    32
  0
VERTEX
  8
3
  5
14AE
 10
32.1696
 20
32.1015
 30
0.000000
  70
    32
  0
VERTEX
  8
3
  5
14AF
 10
32.1641
 20
32.1045
 30
0.000000
  70
    32
  0
VERTEX
  8
3
  5
14B0
 10
32.1587
 20
32.1076
 30
0.000000
  70
    32
  0
VERTEX
  8
3
  5
14B1
 10
32.1532
 20
32.1107
 30
0.000000
  70
    32
  0
VERTEX
  8
3
  5
14B2
 10
32.1478
 20
32.1137
 30
0.000000
  70
    32
  0
VERTEX
  8
3
  5
14B3
 10
32.1423
 20
32.1168
 30
0.000000
  70
    32
  0
VERTEX
  8
3
  5
14B4
 10
32.1368
 20
32.1198
 30
0.000000
  70
    32
  0
VERTEX
  8
3
  5
14B5
 10
32.1313
 20
32.1228
 30
0.000000
  70
    32
  0
VERTEX
  8
3
  5
14B6
 10
32.1258
 20
32.1258
 30
0.000000
  70
    32
  0
SEQEND
  8
3
  5
14B7
  0
POLYLINE
  5
738
  8
3
 10
32.125843781285532
 20
32.12584378128556
 30
0.0
 66
     1
 70
     8
  0
VERTEX
  8
3
  5
14B8
 10
32.1258
 20
32.1258
 30
0.000000
  70
    32
  0
VERTEX
  8
3
  5
14B9
 10
32.1228
 20
32.1313
 30
0.000000
  70
    32
  0
VERTEX
  8
3
  5
14BA
 10
32.1198
 20
32.1368
 30
0.000000
  70
    32
  0
VERTEX
  8
3
  5
14BB
 10
32.1168
 20
32.1423
 30
0.000000
  70
    32
  0
VERTEX
  8
3
  5
14BC
 10
32.1137
 20
32.1478
 30
0.000000
  70
    32
  0
VERTEX
  8
3
  5
14BD
 10
32.1107
 20
32.1532
 30
0.000000
  70
    32
  0
VERTEX
  8
3
  5
14BE
 10
32.1076
 20
32.1587
 30
0.000000
  70
    32
  0
VERTEX
  8
3
  5
14BF
 10
32.1045
 20
32.1641
 30
0.000000
  70
    32
  0
VERTEX
  8
3
  5
14C0
 10
32.1015
 20
32.1696
 30
0.000000
  70
    32
  0
VERTEX
  8
3
  5
14C1
 10
32.0984
 20
32.1751
 30
0.000000
  70
    32
  0
VERTEX
  8
3
  5
14C2
 10
32.0953
 20
32.1805
 30
0.000000
  70
    32
  0
VERTEX
  8
3
  5
14C3
 10
32.0922
 20
32.1860
 30
0.000000
  70
    32
  0
VERTEX
  8
3
  5
14C4
 10
32.0891
 20
32.1914
 30
0.000000
  70
    32
  0
VERTEX
  8
3
  5
14C5
 10
32.0860
 20
32.1969
 30
0.000000
  70
    32
  0
VERTEX
  8
3
  5
14C6
 10
32.0828
 20
32.2023
 30
0.000000
  70
    32
  0
VERTEX
  8
3
  5
14C7
 10
32.0797
 20
32.2078
 30
0.000000
  70
    32
  0
VERTEX
  8
3
  5
14C8
 10
32.0766
 20
32.2132
 30
0.000000
  70
    32
  0
VERTEX
  8
3
  5
14C9
 10
32.0734
 20
32.2186
 30
0.000000
  70
    32
  0
VERTEX
  8
3
  5
14CA
 10
32.0703
 20
32.2241
 30
0.000000
  70
    32
  0
VERTEX
  8
3
  5
14CB
 10
32.0671
 20
32.2295
 30
0.000000
  70
    32
  0
VERTEX
  8
3
  5
14CC
 10
32.0639
 20
32.2349
 30
0.000000
  70
    32
  0
VERTEX
  8
3
  5
14CD
 10
32.0608
 20
32.2403
 30
0.000000
  70
    32
  0
VERTEX
  8
3
  5
14CE
 10
32.0576
 20
32.2458
 30
0.000000
  70
    32
  0
VERTEX
  8
3
  5
14CF
 10
32.0544
 20
32.2512
 30
0.000000
  70
    32
  0
VERTEX
  8
3
  5
14D0
 10
32.0512
 20
32.2566
 30
0.000000
  70
    32
  0
VERTEX
  8
3
  5
14D1
 10
32.0480
 20
32.2620
 30
0.000000
  70
    32
  0
VERTEX
  8
3
  5
14D2
 10
32.0448
 20
32.2674
 30
0.000000
  70
    32
  0
VERTEX
  8
3
  5
14D3
 10
32.0415
 20
32.2728
 30
0.000000
  70
    32
  0
VERTEX
  8
3
  5
14D4
 10
32.0383
 20
32.2782
 30
0.000000
  70
    32
  0
VERTEX
  8
3
  5
14D5
 10
32.0351
 20
32.2836
 30
0.000000
  70
    32
  0
VERTEX
  8
3
  5
14D6
 10
32.0318
 20
32.2890
 30
0.000000
  70
    32
  0
VERTEX
  8
3
  5
14D7
 10
32.0286
 20
32.2944
 30
0.000000
  70
    32
  0
VERTEX
  8
3
  5
14D8
 10
32.0253
 20
32.2998
 30
0.000000
  70
    32
  0
VERTEX
  8
3
  5
14D9
 10
32.0220
 20
32.3052
 30
0.000000
  70
    32
  0
VERTEX
  8
3
  5
14DA
 10
32.0188
 20
32.3105
 30
0.000000
  70
    32
  0
VERTEX
  8
3
  5
14DB
 10
32.0155
 20
32.3159
 30
0.000000
  70
    32
  0
VERTEX
  8
3
  5
14DC
 10
32.0122
 20
32.3213
 30
0.000000
  70
    32
  0
VERTEX
  8
3
  5
14DD
 10
32.0089
 20
32.3267
 30
0.000000
  70
    32
  0
VERTEX
  8
3
  5
14DE
 10
32.0056
 20
32.3320
 30
0.000000
  70
    32
  0
VERTEX
  8
3
  5
14DF
 10
32.0023
 20
32.3374
 30
0.000000
  70
    32
  0
VERTEX
  8
3
  5
14E0
 10
31.9989
 20
32.3428
 30
0.000000
  70
    32
  0
VERTEX
  8
3
  5
14E1
 10
31.9956
 20
32.3481
 30
0.000000
  70
    32
  0
VERTEX
  8
3
  5
14E2
 10
31.9923
 20
32.3535
 30
0.000000
  70
    32
  0
VERTEX
  8
3
  5
14E3
 10
31.9889
 20
32.3588
 30
0.000000
  70
    32
  0
VERTEX
  8
3
  5
14E4
 10
31.9856
 20
32.3642
 30
0.000000
  70
    32
  0
VERTEX
  8
3
  5
14E5
 10
31.9822
 20
32.3695
 30
0.000000
  70
    32
  0
VERTEX
  8
3
  5
14E6
 10
31.9788
 20
32.3749
 30
0.000000
  70
    32
  0
VERTEX
  8
3
  5
14E7
 10
31.9755
 20
32.3802
 30
0.000000
  70
    32
  0
VERTEX
  8
3
  5
14E8
 10
31.9721
 20
32.3856
 30
0.000000
  70
    32
  0
VERTEX
  8
3
  5
14E9
 10
31.9687
 20
32.3909
 30
0.000000
  70
    32
  0
VERTEX
  8
3
  5
14EA
 10
31.9653
 20
32.3962
 30
0.000000
  70
    32
  0
VERTEX
  8
3
  5
14EB
 10
31.9619
 20
32.4016
 30
0.000000
  70
    32
  0
VERTEX
  8
3
  5
14EC
 10
31.9585
 20
32.4069
 30
0.000000
  70
    32
  0
VERTEX
  8
3
  5
14ED
 10
31.9551
 20
32.4122
 30
0.000000
  70
    32
  0
VERTEX
  8
3
  5
14EE
 10
31.9516
 20
32.4175
 30
0.000000
  70
    32
  0
VERTEX
  8
3
  5
14EF
 10
31.9482
 20
32.4228
 30
0.000000
  70
    32
  0
VERTEX
  8
3
  5
14F0
 10
31.9448
 20
32.4282
 30
0.000000
  70
    32
  0
VERTEX
  8
3
  5
14F1
 10
31.9413
 20
32.4335
 30
0.000000
  70
    32
  0
VERTEX
  8
3
  5
14F2
 10
31.9378
 20
32.4388
 30
0.000000
  70
    32
  0
VERTEX
  8
3
  5
14F3
 10
31.9344
 20
32.4441
 30
0.000000
  70
    32
  0
VERTEX
  8
3
  5
14F4
 10
31.9309
 20
32.4494
 30
0.000000
  70
    32
  0
VERTEX
  8
3
  5
14F5
 10
31.9274
 20
32.4547
 30
0.000000
  70
    32
  0
VERTEX
  8
3
  5
14F6
 10
31.9239
 20
32.4600
 30
0.000000
  70
    32
  0
VERTEX
  8
3
  5
14F7
 10
31.9204
 20
32.4653
 30
0.000000
  70
    32
  0
VERTEX
  8
3
  5
14F8
 10
31.9169
 20
32.4705
 30
0.000000
  70
    32
  0
VERTEX
  8
3
  5
14F9
 10
31.9134
 20
32.4758
 30
0.000000
  70
    32
  0
VERTEX
  8
3
  5
14FA
 10
31.9099
 20
32.4811
 30
0.000000
  70
    32
  0
VERTEX
  8
3
  5
14FB
 10
31.9064
 20
32.4864
 30
0.000000
  70
    32
  0
VERTEX
  8
3
  5
14FC
 10
31.9028
 20
32.4917
 30
0.000000
  70
    32
  0
VERTEX
  8
3
  5
14FD
 10
31.8993
 20
32.4969
 30
0.000000
  70
    32
  0
VERTEX
  8
3
  5
14FE
 10
31.8958
 20
32.5022
 30
0.000000
  70
    32
  0
VERTEX
  8
3
  5
14FF
 10
31.8922
 20
32.5075
 30
0.000000
  70
    32
  0
VERTEX
  8
3
  5
1500
 10
31.8886
 20
32.5127
 30
0.000000
  70
    32
  0
VERTEX
  8
3
  5
1501
 10
31.8851
 20
32.5180
 30
0.000000
  70
    32
  0
VERTEX
  8
3
  5
1502
 10
31.8815
 20
32.5232
 30
0.000000
  70
    32
  0
VERTEX
  8
3
  5
1503
 10
31.8779
 20
32.5285
 30
0.000000
  70
    32
  0
VERTEX
  8
3
  5
1504
 10
31.8743
 20
32.5337
 30
0.000000
  70
    32
  0
VERTEX
  8
3
  5
1505
 10
31.8707
 20
32.5390
 30
0.000000
  70
    32
  0
VERTEX
  8
3
  5
1506
 10
31.8671
 20
32.5442
 30
0.000000
  70
    32
  0
VERTEX
  8
3
  5
1507
 10
31.8635
 20
32.5494
 30
0.000000
  70
    32
  0
VERTEX
  8
3
  5
1508
 10
31.8599
 20
32.5547
 30
0.000000
  70
    32
  0
VERTEX
  8
3
  5
1509
 10
31.8562
 20
32.5599
 30
0.000000
  70
    32
  0
VERTEX
  8
3
  5
150A
 10
31.8526
 20
32.5651
 30
0.000000
  70
    32
  0
VERTEX
  8
3
  5
150B
 10
31.8489
 20
32.5703
 30
0.000000
  70
    32
  0
VERTEX
  8
3
  5
150C
 10
31.8453
 20
32.5756
 30
0.000000
  70
    32
  0
VERTEX
  8
3
  5
150D
 10
31.8416
 20
32.5808
 30
0.000000
  70
    32
  0
VERTEX
  8
3
  5
150E
 10
31.8380
 20
32.5860
 30
0.000000
  70
    32
  0
VERTEX
  8
3
  5
150F
 10
31.8343
 20
32.5912
 30
0.000000
  70
    32
  0
VERTEX
  8
3
  5
1510
 10
31.8306
 20
32.5964
 30
0.000000
  70
    32
  0
VERTEX
  8
3
  5
1511
 10
31.8269
 20
32.6016
 30
0.000000
  70
    32
  0
VERTEX
  8
3
  5
1512
 10
31.8232
 20
32.6068
 30
0.000000
  70
    32
  0
VERTEX
  8
3
  5
1513
 10
31.8195
 20
32.6120
 30
0.000000
  70
    32
  0
VERTEX
  8
3
  5
1514
 10
31.8158
 20
32.6172
 30
0.000000
  70
    32
  0
VERTEX
  8
3
  5
1515
 10
31.8121
 20
32.6224
 30
0.000000
  70
    32
  0
VERTEX
  8
3
  5
1516
 10
31.8084
 20
32.6276
 30
0.000000
  70
    32
  0
VERTEX
  8
3
  5
1517
 10
31.8046
 20
32.6327
 30
0.000000
  70
    32
  0
VERTEX
  8
3
  5
1518
 10
31.8009
 20
32.6379
 30
0.000000
  70
    32
  0
VERTEX
  8
3
  5
1519
 10
31.7971
 20
32.6431
 30
0.000000
  70
    32
  0
VERTEX
  8
3
  5
151A
 10
31.7934
 20
32.6483
 30
0.000000
  70
    32
  0
VERTEX
  8
3
  5
151B
 10
31.7896
 20
32.6534
 30
0.000000
  70
    32
  0
VERTEX
  8
3
  5
151C
 10
31.7858
 20
32.6586
 30
0.000000
  70
    32
  0
VERTEX
  8
3
  5
151D
 10
31.7821
 20
32.6637
 30
0.000000
  70
    32
  0
VERTEX
  8
3
  5
151E
 10
31.7783
 20
32.6689
 30
0.000000
  70
    32
  0
VERTEX
  8
3
  5
151F
 10
31.7745
 20
32.6740
 30
0.000000
  70
    32
  0
VERTEX
  8
3
  5
1520
 10
31.7707
 20
32.6792
 30
0.000000
  70
    32
  0
VERTEX
  8
3
  5
1521
 10
31.7669
 20
32.6843
 30
0.000000
  70
    32
  0
VERTEX
  8
3
  5
1522
 10
31.7631
 20
32.6895
 30
0.000000
  70
    32
  0
VERTEX
  8
3
  5
1523
 10
31.7592
 20
32.6946
 30
0.000000
  70
    32
  0
VERTEX
  8
3
  5
1524
 10
31.7554
 20
32.6998
 30
0.000000
  70
    32
  0
VERTEX
  8
3
  5
1525
 10
31.7516
 20
32.7049
 30
0.000000
  70
    32
  0
VERTEX
  8
3
  5
1526
 10
31.7477
 20
32.7100
 30
0.000000
  70
    32
  0
VERTEX
  8
3
  5
1527
 10
31.7439
 20
32.7151
 30
0.000000
  70
    32
  0
VERTEX
  8
3
  5
1528
 10
31.7400
 20
32.7202
 30
0.000000
  70
    32
  0
VERTEX
  8
3
  5
1529
 10
31.7362
 20
32.7254
 30
0.000000
  70
    32
  0
VERTEX
  8
3
  5
152A
 10
31.7323
 20
32.7305
 30
0.000000
  70
    32
  0
VERTEX
  8
3
  5
152B
 10
31.7284
 20
32.7356
 30
0.000000
  70
    32
  0
VERTEX
  8
3
  5
152C
 10
31.7245
 20
32.7407
 30
0.000000
  70
    32
  0
VERTEX
  8
3
  5
152D
 10
31.7206
 20
32.7458
 30
0.000000
  70
    32
  0
VERTEX
  8
3
  5
152E
 10
31.7167
 20
32.7509
 30
0.000000
  70
    32
  0
VERTEX
  8
3
  5
152F
 10
31.7128
 20
32.7560
 30
0.000000
  70
    32
  0
VERTEX
  8
3
  5
1530
 10
31.7089
 20
32.7611
 30
0.000000
  70
    32
  0
VERTEX
  8
3
  5
1531
 10
31.7050
 20
32.7662
 30
0.000000
  70
    32
  0
VERTEX
  8
3
  5
1532
 10
31.7010
 20
32.7712
 30
0.000000
  70
    32
  0
VERTEX
  8
3
  5
1533
 10
31.6971
 20
32.7763
 30
0.000000
  70
    32
  0
VERTEX
  8
3
  5
1534
 10
31.6932
 20
32.7814
 30
0.000000
  70
    32
  0
VERTEX
  8
3
  5
1535
 10
31.6892
 20
32.7865
 30
0.000000
  70
    32
  0
VERTEX
  8
3
  5
1536
 10
31.6852
 20
32.7915
 30
0.000000
  70
    32
  0
VERTEX
  8
3
  5
1537
 10
31.6813
 20
32.7966
 30
0.000000
  70
    32
  0
VERTEX
  8
3
  5
1538
 10
31.6773
 20
32.8017
 30
0.000000
  70
    32
  0
SEQEND
  8
3
  5
1539
  0
ARC
  5
739
  8
3
 10
31.487189502218872
 20
32.67145506560562
 30
0.0
 40
0.2304211755989705
 50
34.404663850956901
 51
87.386283255456235
  0
ARC
  5
73A
  8
3
 10
30.30171041965276
 20
31.65499339446021
 30
0.0
 40
1.6233339809534459
 50
61.766719396244753
 51
97.515724174265657
  0
ARC
  5
73B
  8
3
 10
30.00000015162604
 20
33.103275378486067
 30
0.0
 40
0.1842392002205817
 50
60.978648875219747
 51
119.02150037556819
  0
ARC
  5
73C
  8
3
 10
29.733530110118409
 20
31.462201605633279
 30
0.0
 40
1.810859489533833
 50
84.387928704830216
 51
116.32963073356581
  0
ARC
  5
73D
  8
3
 10
28.507767631026251
 20
32.680513488658761
 30
0.0
 40
0.2211905654078598
 50
91.415779419010192
 51
146.7933868794226
  0
POLYLINE
  5
73E
  8
3
 10
28.322697321966437
 20
32.801650861478478
 30
0.0
 66
     1
 70
     8
  0
VERTEX
  8
3
  5
153A
 10
28.3227
 20
32.8017
 30
0.000000
  70
    32
  0
VERTEX
  8
3
  5
153B
 10
28.3187
 20
32.7966
 30
0.000000
  70
    32
  0
VERTEX
  8
3
  5
153C
 10
28.3148
 20
32.7915
 30
0.000000
  70
    32
  0
VERTEX
  8
3
  5
153D
 10
28.3108
 20
32.7865
 30
0.000000
  70
    32
  0
VERTEX
  8
3
  5
153E
 10
28.3068
 20
32.7814
 30
0.000000
  70
    32
  0
VERTEX
  8
3
  5
153F
 10
28.3029
 20
32.7763
 30
0.000000
  70
    32
  0
VERTEX
  8
3
  5
1540
 10
28.2990
 20
32.7712
 30
0.000000
  70
    32
  0
VERTEX
  8
3
  5
1541
 10
28.2950
 20
32.7662
 30
0.000000
  70
    32
  0
VERTEX
  8
3
  5
1542
 10
28.2911
 20
32.7611
 30
0.000000
  70
    32
  0
VERTEX
  8
3
  5
1543
 10
28.2872
 20
32.7560
 30
0.000000
  70
    32
  0
VERTEX
  8
3
  5
1544
 10
28.2833
 20
32.7509
 30
0.000000
  70
    32
  0
VERTEX
  8
3
  5
1545
 10
28.2794
 20
32.7458
 30
0.000000
  70
    32
  0
VERTEX
  8
3
  5
1546
 10
28.2755
 20
32.7407
 30
0.000000
  70
    32
  0
VERTEX
  8
3
  5
1547
 10
28.2716
 20
32.7356
 30
0.000000
  70
    32
  0
VERTEX
  8
3
  5
1548
 10
28.2677
 20
32.7305
 30
0.000000
  70
    32
  0
VERTEX
  8
3
  5
1549
 10
28.2638
 20
32.7254
 30
0.000000
  70
    32
  0
VERTEX
  8
3
  5
154A
 10
28.2600
 20
32.7202
 30
0.000000
  70
    32
  0
VERTEX
  8
3
  5
154B
 10
28.2561
 20
32.7151
 30
0.000000
  70
    32
  0
VERTEX
  8
3
  5
154C
 10
28.2523
 20
32.7100
 30
0.000000
  70
    32
  0
VERTEX
  8
3
  5
154D
 10
28.2484
 20
32.7049
 30
0.000000
  70
    32
  0
VERTEX
  8
3
  5
154E
 10
28.2446
 20
32.6998
 30
0.000000
  70
    32
  0
VERTEX
  8
3
  5
154F
 10
28.2408
 20
32.6946
 30
0.000000
  70
    32
  0
VERTEX
  8
3
  5
1550
 10
28.2369
 20
32.6895
 30
0.000000
  70
    32
  0
VERTEX
  8
3
  5
1551
 10
28.2331
 20
32.6843
 30
0.000000
  70
    32
  0
VERTEX
  8
3
  5
1552
 10
28.2293
 20
32.6792
 30
0.000000
  70
    32
  0
VERTEX
  8
3
  5
1553
 10
28.2255
 20
32.6740
 30
0.000000
  70
    32
  0
VERTEX
  8
3
  5
1554
 10
28.2217
 20
32.6689
 30
0.000000
  70
    32
  0
VERTEX
  8
3
  5
1555
 10
28.2179
 20
32.6637
 30
0.000000
  70
    32
  0
VERTEX
  8
3
  5
1556
 10
28.2142
 20
32.6586
 30
0.000000
  70
    32
  0
VERTEX
  8
3
  5
1557
 10
28.2104
 20
32.6534
 30
0.000000
  70
    32
  0
VERTEX
  8
3
  5
1558
 10
28.2066
 20
32.6483
 30
0.000000
  70
    32
  0
VERTEX
  8
3
  5
1559
 10
28.2029
 20
32.6431
 30
0.000000
  70
    32
  0
VERTEX
  8
3
  5
155A
 10
28.1991
 20
32.6379
 30
0.000000
  70
    32
  0
VERTEX
  8
3
  5
155B
 10
28.1954
 20
32.6327
 30
0.000000
  70
    32
  0
VERTEX
  8
3
  5
155C
 10
28.1916
 20
32.6276
 30
0.000000
  70
    32
  0
VERTEX
  8
3
  5
155D
 10
28.1879
 20
32.6224
 30
0.000000
  70
    32
  0
VERTEX
  8
3
  5
155E
 10
28.1842
 20
32.6172
 30
0.000000
  70
    32
  0
VERTEX
  8
3
  5
155F
 10
28.1805
 20
32.6120
 30
0.000000
  70
    32
  0
VERTEX
  8
3
  5
1560
 10
28.1768
 20
32.6068
 30
0.000000
  70
    32
  0
VERTEX
  8
3
  5
1561
 10
28.1731
 20
32.6016
 30
0.000000
  70
    32
  0
VERTEX
  8
3
  5
1562
 10
28.1694
 20
32.5964
 30
0.000000
  70
    32
  0
VERTEX
  8
3
  5
1563
 10
28.1657
 20
32.5912
 30
0.000000
  70
    32
  0
VERTEX
  8
3
  5
1564
 10
28.1620
 20
32.5860
 30
0.000000
  70
    32
  0
VERTEX
  8
3
  5
1565
 10
28.1584
 20
32.5808
 30
0.000000
  70
    32
  0
VERTEX
  8
3
  5
1566
 10
28.1547
 20
32.5756
 30
0.000000
  70
    32
  0
VERTEX
  8
3
  5
1567
 10
28.1511
 20
32.5703
 30
0.000000
  70
    32
  0
VERTEX
  8
3
  5
1568
 10
28.1474
 20
32.5651
 30
0.000000
  70
    32
  0
VERTEX
  8
3
  5
1569
 10
28.1438
 20
32.5599
 30
0.000000
  70
    32
  0
VERTEX
  8
3
  5
156A
 10
28.1401
 20
32.5547
 30
0.000000
  70
    32
  0
VERTEX
  8
3
  5
156B
 10
28.1365
 20
32.5494
 30
0.000000
  70
    32
  0
VERTEX
  8
3
  5
156C
 10
28.1329
 20
32.5442
 30
0.000000
  70
    32
  0
VERTEX
  8
3
  5
156D
 10
28.1293
 20
32.5390
 30
0.000000
  70
    32
  0
VERTEX
  8
3
  5
156E
 10
28.1257
 20
32.5337
 30
0.000000
  70
    32
  0
VERTEX
  8
3
  5
156F
 10
28.1221
 20
32.5285
 30
0.000000
  70
    32
  0
VERTEX
  8
3
  5
1570
 10
28.1185
 20
32.5232
 30
0.000000
  70
    32
  0
VERTEX
  8
3
  5
1571
 10
28.1149
 20
32.5180
 30
0.000000
  70
    32
  0
VERTEX
  8
3
  5
1572
 10
28.1114
 20
32.5127
 30
0.000000
  70
    32
  0
VERTEX
  8
3
  5
1573
 10
28.1078
 20
32.5075
 30
0.000000
  70
    32
  0
VERTEX
  8
3
  5
1574
 10
28.1042
 20
32.5022
 30
0.000000
  70
    32
  0
VERTEX
  8
3
  5
1575
 10
28.1007
 20
32.4969
 30
0.000000
  70
    32
  0
VERTEX
  8
3
  5
1576
 10
28.0972
 20
32.4917
 30
0.000000
  70
    32
  0
VERTEX
  8
3
  5
1577
 10
28.0936
 20
32.4864
 30
0.000000
  70
    32
  0
VERTEX
  8
3
  5
1578
 10
28.0901
 20
32.4811
 30
0.000000
  70
    32
  0
VERTEX
  8
3
  5
1579
 10
28.0866
 20
32.4758
 30
0.000000
  70
    32
  0
VERTEX
  8
3
  5
157A
 10
28.0831
 20
32.4705
 30
0.000000
  70
    32
  0
VERTEX
  8
3
  5
157B
 10
28.0796
 20
32.4653
 30
0.000000
  70
    32
  0
VERTEX
  8
3
  5
157C
 10
28.0761
 20
32.4600
 30
0.000000
  70
    32
  0
VERTEX
  8
3
  5
157D
 10
28.0726
 20
32.4547
 30
0.000000
  70
    32
  0
VERTEX
  8
3
  5
157E
 10
28.0691
 20
32.4494
 30
0.000000
  70
    32
  0
VERTEX
  8
3
  5
157F
 10
28.0656
 20
32.4441
 30
0.000000
  70
    32
  0
VERTEX
  8
3
  5
1580
 10
28.0622
 20
32.4388
 30
0.000000
  70
    32
  0
VERTEX
  8
3
  5
1581
 10
28.0587
 20
32.4335
 30
0.000000
  70
    32
  0
VERTEX
  8
3
  5
1582
 10
28.0552
 20
32.4282
 30
0.000000
  70
    32
  0
VERTEX
  8
3
  5
1583
 10
28.0518
 20
32.4228
 30
0.000000
  70
    32
  0
VERTEX
  8
3
  5
1584
 10
28.0484
 20
32.4175
 30
0.000000
  70
    32
  0
VERTEX
  8
3
  5
1585
 10
28.0449
 20
32.4122
 30
0.000000
  70
    32
  0
VERTEX
  8
3
  5
1586
 10
28.0415
 20
32.4069
 30
0.000000
  70
    32
  0
VERTEX
  8
3
  5
1587
 10
28.0381
 20
32.4016
 30
0.000000
  70
    32
  0
VERTEX
  8
3
  5
1588
 10
28.0347
 20
32.3962
 30
0.000000
  70
    32
  0
VERTEX
  8
3
  5
1589
 10
28.0313
 20
32.3909
 30
0.000000
  70
    32
  0
VERTEX
  8
3
  5
158A
 10
28.0279
 20
32.3856
 30
0.000000
  70
    32
  0
VERTEX
  8
3
  5
158B
 10
28.0245
 20
32.3802
 30
0.000000
  70
    32
  0
VERTEX
  8
3
  5
158C
 10
28.0212
 20
32.3749
 30
0.000000
  70
    32
  0
VERTEX
  8
3
  5
158D
 10
28.0178
 20
32.3695
 30
0.000000
  70
    32
  0
VERTEX
  8
3
  5
158E
 10
28.0144
 20
32.3642
 30
0.000000
  70
    32
  0
VERTEX
  8
3
  5
158F
 10
28.0111
 20
32.3588
 30
0.000000
  70
    32
  0
VERTEX
  8
3
  5
1590
 10
28.0077
 20
32.3535
 30
0.000000
  70
    32
  0
VERTEX
  8
3
  5
1591
 10
28.0044
 20
32.3481
 30
0.000000
  70
    32
  0
VERTEX
  8
3
  5
1592
 10
28.0011
 20
32.3428
 30
0.000000
  70
    32
  0
VERTEX
  8
3
  5
1593
 10
27.9977
 20
32.3374
 30
0.000000
  70
    32
  0
VERTEX
  8
3
  5
1594
 10
27.9944
 20
32.3320
 30
0.000000
  70
    32
  0
VERTEX
  8
3
  5
1595
 10
27.9911
 20
32.3267
 30
0.000000
  70
    32
  0
VERTEX
  8
3
  5
1596
 10
27.9878
 20
32.3213
 30
0.000000
  70
    32
  0
VERTEX
  8
3
  5
1597
 10
27.9845
 20
32.3159
 30
0.000000
  70
    32
  0
VERTEX
  8
3
  5
1598
 10
27.9812
 20
32.3105
 30
0.000000
  70
    32
  0
VERTEX
  8
3
  5
1599
 10
27.9780
 20
32.3052
 30
0.000000
  70
    32
  0
VERTEX
  8
3
  5
159A
 10
27.9747
 20
32.2998
 30
0.000000
  70
    32
  0
VERTEX
  8
3
  5
159B
 10
27.9714
 20
32.2944
 30
0.000000
  70
    32
  0
VERTEX
  8
3
  5
159C
 10
27.9682
 20
32.2890
 30
0.000000
  70
    32
  0
VERTEX
  8
3
  5
159D
 10
27.9649
 20
32.2836
 30
0.000000
  70
    32
  0
VERTEX
  8
3
  5
159E
 10
27.9617
 20
32.2782
 30
0.000000
  70
    32
  0
VERTEX
  8
3
  5
159F
 10
27.9585
 20
32.2728
 30
0.000000
  70
    32
  0
VERTEX
  8
3
  5
15A0
 10
27.9552
 20
32.2674
 30
0.000000
  70
    32
  0
VERTEX
  8
3
  5
15A1
 10
27.9520
 20
32.2620
 30
0.000000
  70
    32
  0
VERTEX
  8
3
  5
15A2
 10
27.9488
 20
32.2566
 30
0.000000
  70
    32
  0
VERTEX
  8
3
  5
15A3
 10
27.9456
 20
32.2512
 30
0.000000
  70
    32
  0
VERTEX
  8
3
  5
15A4
 10
27.9424
 20
32.2458
 30
0.000000
  70
    32
  0
VERTEX
  8
3
  5
15A5
 10
27.9392
 20
32.2403
 30
0.000000
  70
    32
  0
VERTEX
  8
3
  5
15A6
 10
27.9361
 20
32.2349
 30
0.000000
  70
    32
  0
VERTEX
  8
3
  5
15A7
 10
27.9329
 20
32.2295
 30
0.000000
  70
    32
  0
VERTEX
  8
3
  5
15A8
 10
27.9297
 20
32.2241
 30
0.000000
  70
    32
  0
VERTEX
  8
3
  5
15A9
 10
27.9266
 20
32.2186
 30
0.000000
  70
    32
  0
VERTEX
  8
3
  5
15AA
 10
27.9234
 20
32.2132
 30
0.000000
  70
    32
  0
VERTEX
  8
3
  5
15AB
 10
27.9203
 20
32.2078
 30
0.000000
  70
    32
  0
VERTEX
  8
3
  5
15AC
 10
27.9172
 20
32.2023
 30
0.000000
  70
    32
  0
VERTEX
  8
3
  5
15AD
 10
27.9140
 20
32.1969
 30
0.000000
  70
    32
  0
VERTEX
  8
3
  5
15AE
 10
27.9109
 20
32.1914
 30
0.000000
  70
    32
  0
VERTEX
  8
3
  5
15AF
 10
27.9078
 20
32.1860
 30
0.000000
  70
    32
  0
VERTEX
  8
3
  5
15B0
 10
27.9047
 20
32.1805
 30
0.000000
  70
    32
  0
VERTEX
  8
3
  5
15B1
 10
27.9016
 20
32.1751
 30
0.000000
  70
    32
  0
VERTEX
  8
3
  5
15B2
 10
27.8985
 20
32.1696
 30
0.000000
  70
    32
  0
VERTEX
  8
3
  5
15B3
 10
27.8955
 20
32.1641
 30
0.000000
  70
    32
  0
VERTEX
  8
3
  5
15B4
 10
27.8924
 20
32.1587
 30
0.000000
  70
    32
  0
VERTEX
  8
3
  5
15B5
 10
27.8893
 20
32.1532
 30
0.000000
  70
    32
  0
VERTEX
  8
3
  5
15B6
 10
27.8863
 20
32.1478
 30
0.000000
  70
    32
  0
VERTEX
  8
3
  5
15B7
 10
27.8832
 20
32.1423
 30
0.000000
  70
    32
  0
VERTEX
  8
3
  5
15B8
 10
27.8802
 20
32.1368
 30
0.000000
  70
    32
  0
VERTEX
  8
3
  5
15B9
 10
27.8772
 20
32.1313
 30
0.000000
  70
    32
  0
VERTEX
  8
3
  5
15BA
 10
27.8742
 20
32.1258
 30
0.000000
  70
    32
  0
SEQEND
  8
3
  5
15BB
  0
POLYLINE
  5
73F
  8
3
 10
27.874156218714461
 20
32.125843781285539
 30
0.0
 66
     1
 70
     8
  0
VERTEX
  8
3
  5
15BC
 10
27.8742
 20
32.1258
 30
0.000000
  70
    32
  0
VERTEX
  8
3
  5
15BD
 10
27.8687
 20
32.1228
 30
0.000000
  70
    32
  0
VERTEX
  8
3
  5
15BE
 10
27.8632
 20
32.1198
 30
0.000000
  70
    32
  0
VERTEX
  8
3
  5
15BF
 10
27.8577
 20
32.1168
 30
0.000000
  70
    32
  0
VERTEX
  8
3
  5
15C0
 10
27.8522
 20
32.1137
 30
0.000000
  70
    32
  0
VERTEX
  8
3
  5
15C1
 10
27.8468
 20
32.1107
 30
0.000000
  70
    32
  0
VERTEX
  8
3
  5
15C2
 10
27.8413
 20
32.1076
 30
0.000000
  70
    32
  0
VERTEX
  8
3
  5
15C3
 10
27.8359
 20
32.1045
 30
0.000000
  70
    32
  0
VERTEX
  8
3
  5
15C4
 10
27.8304
 20
32.1015
 30
0.000000
  70
    32
  0
VERTEX
  8
3
  5
15C5
 10
27.8249
 20
32.0984
 30
0.000000
  70
    32
  0
VERTEX
  8
3
  5
15C6
 10
27.8195
 20
32.0953
 30
0.000000
  70
    32
  0
VERTEX
  8
3
  5
15C7
 10
27.8140
 20
32.0922
 30
0.000000
  70
    32
  0
VERTEX
  8
3
  5
15C8
 10
27.8086
 20
32.0891
 30
0.000000
  70
    32
  0
VERTEX
  8
3
  5
15C9
 10
27.8031
 20
32.0860
 30
0.000000
  70
    32
  0
VERTEX
  8
3
  5
15CA
 10
27.7977
 20
32.0828
 30
0.000000
  70
    32
  0
VERTEX
  8
3
  5
15CB
 10
27.7922
 20
32.0797
 30
0.000000
  70
    32
  0
VERTEX
  8
3
  5
15CC
 10
27.7868
 20
32.0766
 30
0.000000
  70
    32
  0
VERTEX
  8
3
  5
15CD
 10
27.7814
 20
32.0734
 30
0.000000
  70
    32
  0
VERTEX
  8
3
  5
15CE
 10
27.7759
 20
32.0703
 30
0.000000
  70
    32
  0
VERTEX
  8
3
  5
15CF
 10
27.7705
 20
32.0671
 30
0.000000
  70
    32
  0
VERTEX
  8
3
  5
15D0
 10
27.7651
 20
32.0639
 30
0.000000
  70
    32
  0
VERTEX
  8
3
  5
15D1
 10
27.7597
 20
32.0608
 30
0.000000
  70
    32
  0
VERTEX
  8
3
  5
15D2
 10
27.7542
 20
32.0576
 30
0.000000
  70
    32
  0
VERTEX
  8
3
  5
15D3
 10
27.7488
 20
32.0544
 30
0.000000
  70
    32
  0
VERTEX
  8
3
  5
15D4
 10
27.7434
 20
32.0512
 30
0.000000
  70
    32
  0
VERTEX
  8
3
  5
15D5
 10
27.7380
 20
32.0480
 30
0.000000
  70
    32
  0
VERTEX
  8
3
  5
15D6
 10
27.7326
 20
32.0448
 30
0.000000
  70
    32
  0
VERTEX
  8
3
  5
15D7
 10
27.7272
 20
32.0415
 30
0.000000
  70
    32
  0
VERTEX
  8
3
  5
15D8
 10
27.7218
 20
32.0383
 30
0.000000
  70
    32
  0
VERTEX
  8
3
  5
15D9
 10
27.7164
 20
32.0351
 30
0.000000
  70
    32
  0
VERTEX
  8
3
  5
15DA
 10
27.7110
 20
32.0318
 30
0.000000
  70
    32
  0
VERTEX
  8
3
  5
15DB
 10
27.7056
 20
32.0286
 30
0.000000
  70
    32
  0
VERTEX
  8
3
  5
15DC
 10
27.7002
 20
32.0253
 30
0.000000
  70
    32
  0
VERTEX
  8
3
  5
15DD
 10
27.6948
 20
32.0220
 30
0.000000
  70
    32
  0
VERTEX
  8
3
  5
15DE
 10
27.6895
 20
32.0188
 30
0.000000
  70
    32
  0
VERTEX
  8
3
  5
15DF
 10
27.6841
 20
32.0155
 30
0.000000
  70
    32
  0
VERTEX
  8
3
  5
15E0
 10
27.6787
 20
32.0122
 30
0.000000
  70
    32
  0
VERTEX
  8
3
  5
15E1
 10
27.6733
 20
32.0089
 30
0.000000
  70
    32
  0
VERTEX
  8
3
  5
15E2
 10
27.6680
 20
32.0056
 30
0.000000
  70
    32
  0
VERTEX
  8
3
  5
15E3
 10
27.6626
 20
32.0023
 30
0.000000
  70
    32
  0
VERTEX
  8
3
  5
15E4
 10
27.6572
 20
31.9989
 30
0.000000
  70
    32
  0
VERTEX
  8
3
  5
15E5
 10
27.6519
 20
31.9956
 30
0.000000
  70
    32
  0
VERTEX
  8
3
  5
15E6
 10
27.6465
 20
31.9923
 30
0.000000
  70
    32
  0
VERTEX
  8
3
  5
15E7
 10
27.6412
 20
31.9889
 30
0.000000
  70
    32
  0
VERTEX
  8
3
  5
15E8
 10
27.6358
 20
31.9856
 30
0.000000
  70
    32
  0
VERTEX
  8
3
  5
15E9
 10
27.6305
 20
31.9822
 30
0.000000
  70
    32
  0
VERTEX
  8
3
  5
15EA
 10
27.6251
 20
31.9788
 30
0.000000
  70
    32
  0
VERTEX
  8
3
  5
15EB
 10
27.6198
 20
31.9755
 30
0.000000
  70
    32
  0
VERTEX
  8
3
  5
15EC
 10
27.6144
 20
31.9721
 30
0.000000
  70
    32
  0
VERTEX
  8
3
  5
15ED
 10
27.6091
 20
31.9687
 30
0.000000
  70
    32
  0
VERTEX
  8
3
  5
15EE
 10
27.6038
 20
31.9653
 30
0.000000
  70
    32
  0
VERTEX
  8
3
  5
15EF
 10
27.5984
 20
31.9619
 30
0.000000
  70
    32
  0
VERTEX
  8
3
  5
15F0
 10
27.5931
 20
31.9585
 30
0.000000
  70
    32
  0
VERTEX
  8
3
  5
15F1
 10
27.5878
 20
31.9551
 30
0.000000
  70
    32
  0
VERTEX
  8
3
  5
15F2
 10
27.5825
 20
31.9516
 30
0.000000
  70
    32
  0
VERTEX
  8
3
  5
15F3
 10
27.5772
 20
31.9482
 30
0.000000
  70
    32
  0
VERTEX
  8
3
  5
15F4
 10
27.5718
 20
31.9448
 30
0.000000
  70
    32
  0
VERTEX
  8
3
  5
15F5
 10
27.5665
 20
31.9413
 30
0.000000
  70
    32
  0
VERTEX
  8
3
  5
15F6
 10
27.5612
 20
31.9378
 30
0.000000
  70
    32
  0
VERTEX
  8
3
  5
15F7
 10
27.5559
 20
31.9344
 30
0.000000
  70
    32
  0
VERTEX
  8
3
  5
15F8
 10
27.5506
 20
31.9309
 30
0.000000
  70
    32
  0
VERTEX
  8
3
  5
15F9
 10
27.5453
 20
31.9274
 30
0.000000
  70
    32
  0
VERTEX
  8
3
  5
15FA
 10
27.5400
 20
31.9239
 30
0.000000
  70
    32
  0
VERTEX
  8
3
  5
15FB
 10
27.5347
 20
31.9204
 30
0.000000
  70
    32
  0
VERTEX
  8
3
  5
15FC
 10
27.5295
 20
31.9169
 30
0.000000
  70
    32
  0
VERTEX
  8
3
  5
15FD
 10
27.5242
 20
31.9134
 30
0.000000
  70
    32
  0
VERTEX
  8
3
  5
15FE
 10
27.5189
 20
31.9099
 30
0.000000
  70
    32
  0
VERTEX
  8
3
  5
15FF
 10
27.5136
 20
31.9064
 30
0.000000
  70
    32
  0
VERTEX
  8
3
  5
1600
 10
27.5083
 20
31.9028
 30
0.000000
  70
    32
  0
VERTEX
  8
3
  5
1601
 10
27.5031
 20
31.8993
 30
0.000000
  70
    32
  0
VERTEX
  8
3
  5
1602
 10
27.4978
 20
31.8958
 30
0.000000
  70
    32
  0
VERTEX
  8
3
  5
1603
 10
27.4925
 20
31.8922
 30
0.000000
  70
    32
  0
VERTEX
  8
3
  5
1604
 10
27.4873
 20
31.8886
 30
0.000000
  70
    32
  0
VERTEX
  8
3
  5
1605
 10
27.4820
 20
31.8851
 30
0.000000
  70
    32
  0
VERTEX
  8
3
  5
1606
 10
27.4768
 20
31.8815
 30
0.000000
  70
    32
  0
VERTEX
  8
3
  5
1607
 10
27.4715
 20
31.8779
 30
0.000000
  70
    32
  0
VERTEX
  8
3
  5
1608
 10
27.4663
 20
31.8743
 30
0.000000
  70
    32
  0
VERTEX
  8
3
  5
1609
 10
27.4610
 20
31.8707
 30
0.000000
  70
    32
  0
VERTEX
  8
3
  5
160A
 10
27.4558
 20
31.8671
 30
0.000000
  70
    32
  0
VERTEX
  8
3
  5
160B
 10
27.4506
 20
31.8635
 30
0.000000
  70
    32
  0
VERTEX
  8
3
  5
160C
 10
27.4453
 20
31.8599
 30
0.000000
  70
    32
  0
VERTEX
  8
3
  5
160D
 10
27.4401
 20
31.8562
 30
0.000000
  70
    32
  0
VERTEX
  8
3
  5
160E
 10
27.4349
 20
31.8526
 30
0.000000
  70
    32
  0
VERTEX
  8
3
  5
160F
 10
27.4297
 20
31.8489
 30
0.000000
  70
    32
  0
VERTEX
  8
3
  5
1610
 10
27.4244
 20
31.8453
 30
0.000000
  70
    32
  0
VERTEX
  8
3
  5
1611
 10
27.4192
 20
31.8416
 30
0.000000
  70
    32
  0
VERTEX
  8
3
  5
1612
 10
27.4140
 20
31.8380
 30
0.000000
  70
    32
  0
VERTEX
  8
3
  5
1613
 10
27.4088
 20
31.8343
 30
0.000000
  70
    32
  0
VERTEX
  8
3
  5
1614
 10
27.4036
 20
31.8306
 30
0.000000
  70
    32
  0
VERTEX
  8
3
  5
1615
 10
27.3984
 20
31.8269
 30
0.000000
  70
    32
  0
VERTEX
  8
3
  5
1616
 10
27.3932
 20
31.8232
 30
0.000000
  70
    32
  0
VERTEX
  8
3
  5
1617
 10
27.3880
 20
31.8195
 30
0.000000
  70
    32
  0
VERTEX
  8
3
  5
1618
 10
27.3828
 20
31.8158
 30
0.000000
  70
    32
  0
VERTEX
  8
3
  5
1619
 10
27.3776
 20
31.8121
 30
0.000000
  70
    32
  0
VERTEX
  8
3
  5
161A
 10
27.3724
 20
31.8084
 30
0.000000
  70
    32
  0
VERTEX
  8
3
  5
161B
 10
27.3673
 20
31.8046
 30
0.000000
  70
    32
  0
VERTEX
  8
3
  5
161C
 10
27.3621
 20
31.8009
 30
0.000000
  70
    32
  0
VERTEX
  8
3
  5
161D
 10
27.3569
 20
31.7971
 30
0.000000
  70
    32
  0
VERTEX
  8
3
  5
161E
 10
27.3517
 20
31.7934
 30
0.000000
  70
    32
  0
VERTEX
  8
3
  5
161F
 10
27.3466
 20
31.7896
 30
0.000000
  70
    32
  0
VERTEX
  8
3
  5
1620
 10
27.3414
 20
31.7858
 30
0.000000
  70
    32
  0
VERTEX
  8
3
  5
1621
 10
27.3363
 20
31.7821
 30
0.000000
  70
    32
  0
VERTEX
  8
3
  5
1622
 10
27.3311
 20
31.7783
 30
0.000000
  70
    32
  0
VERTEX
  8
3
  5
1623
 10
27.3260
 20
31.7745
 30
0.000000
  70
    32
  0
VERTEX
  8
3
  5
1624
 10
27.3208
 20
31.7707
 30
0.000000
  70
    32
  0
VERTEX
  8
3
  5
1625
 10
27.3157
 20
31.7669
 30
0.000000
  70
    32
  0
VERTEX
  8
3
  5
1626
 10
27.3105
 20
31.7631
 30
0.000000
  70
    32
  0
VERTEX
  8
3
  5
1627
 10
27.3054
 20
31.7592
 30
0.000000
  70
    32
  0
VERTEX
  8
3
  5
1628
 10
27.3002
 20
31.7554
 30
0.000000
  70
    32
  0
VERTEX
  8
3
  5
1629
 10
27.2951
 20
31.7516
 30
0.000000
  70
    32
  0
VERTEX
  8
3
  5
162A
 10
27.2900
 20
31.7477
 30
0.000000
  70
    32
  0
VERTEX
  8
3
  5
162B
 10
27.2849
 20
31.7439
 30
0.000000
  70
    32
  0
VERTEX
  8
3
  5
162C
 10
27.2798
 20
31.7400
 30
0.000000
  70
    32
  0
VERTEX
  8
3
  5
162D
 10
27.2746
 20
31.7362
 30
0.000000
  70
    32
  0
VERTEX
  8
3
  5
162E
 10
27.2695
 20
31.7323
 30
0.000000
  70
    32
  0
VERTEX
  8
3
  5
162F
 10
27.2644
 20
31.7284
 30
0.000000
  70
    32
  0
VERTEX
  8
3
  5
1630
 10
27.2593
 20
31.7245
 30
0.000000
  70
    32
  0
VERTEX
  8
3
  5
1631
 10
27.2542
 20
31.7206
 30
0.000000
  70
    32
  0
VERTEX
  8
3
  5
1632
 10
27.2491
 20
31.7167
 30
0.000000
  70
    32
  0
VERTEX
  8
3
  5
1633
 10
27.2440
 20
31.7128
 30
0.000000
  70
    32
  0
VERTEX
  8
3
  5
1634
 10
27.2389
 20
31.7089
 30
0.000000
  70
    32
  0
VERTEX
  8
3
  5
1635
 10
27.2338
 20
31.7050
 30
0.000000
  70
    32
  0
VERTEX
  8
3
  5
1636
 10
27.2288
 20
31.7010
 30
0.000000
  70
    32
  0
VERTEX
  8
3
  5
1637
 10
27.2237
 20
31.6971
 30
0.000000
  70
    32
  0
VERTEX
  8
3
  5
1638
 10
27.2186
 20
31.6932
 30
0.000000
  70
    32
  0
VERTEX
  8
3
  5
1639
 10
27.2135
 20
31.6892
 30
0.000000
  70
    32
  0
VERTEX
  8
3
  5
163A
 10
27.2085
 20
31.6852
 30
0.000000
  70
    32
  0
VERTEX
  8
3
  5
163B
 10
27.2034
 20
31.6813
 30
0.000000
  70
    32
  0
VERTEX
  8
3
  5
163C
 10
27.1983
 20
31.6773
 30
0.000000
  70
    32
  0
SEQEND
  8
3
  5
163D
  0
ARC
  5
740
  8
3
 10
27.328544934394401
 20
31.487189502218879
 30
0.0
 40
0.2304211755989815
 50
124.4046638509619
 51
177.38628325545949
  0
ARC
  5
741
  8
3
 10
28.34500660553978
 20
30.301710419652778
 30
0.0
 40
1.6233339809534311
 50
151.76671939624509
 51
187.5157241742657
  0
ARC
  5
742
  8
3
 10
26.896724621513918
 20
30.00000015162604
 30
0.0
 40
0.1842392002205817
 50
150.97864887521979
 51
209.0215003755695
  0
ARC
  5
743
  8
3
 10
28.5377983943667
 20
29.73353011011838
 30
0.0
 40
1.8108594895338319
 50
174.38792870483019
 51
206.3296307335664
  0
ARC
  5
744
  8
3
 10
27.319486511341228
 20
28.507767631026269
 30
0.0
 40
0.2211905654078717
 50
181.415779419015
 51
236.79338687942649
  0
POLYLINE
  5
745
  8
3
 10
27.198349138521522
 20
28.322697321966473
 30
0.0
 66
     1
 70
     8
  0
VERTEX
  8
3
  5
163E
 10
27.1983
 20
28.3227
 30
0.000000
  70
    32
  0
VERTEX
  8
3
  5
163F
 10
27.2034
 20
28.3187
 30
0.000000
  70
    32
  0
VERTEX
  8
3
  5
1640
 10
27.2085
 20
28.3148
 30
0.000000
  70
    32
  0
VERTEX
  8
3
  5
1641
 10
27.2135
 20
28.3108
 30
0.000000
  70
    32
  0
VERTEX
  8
3
  5
1642
 10
27.2186
 20
28.3068
 30
0.000000
  70
    32
  0
VERTEX
  8
3
  5
1643
 10
27.2237
 20
28.3029
 30
0.000000
  70
    32
  0
VERTEX
  8
3
  5
1644
 10
27.2288
 20
28.2990
 30
0.000000
  70
    32
  0
VERTEX
  8
3
  5
1645
 10
27.2338
 20
28.2950
 30
0.000000
  70
    32
  0
VERTEX
  8
3
  5
1646
 10
27.2389
 20
28.2911
 30
0.000000
  70
    32
  0
VERTEX
  8
3
  5
1647
 10
27.2440
 20
28.2872
 30
0.000000
  70
    32
  0
VERTEX
  8
3
  5
1648
 10
27.2491
 20
28.2833
 30
0.000000
  70
    32
  0
VERTEX
  8
3
  5
1649
 10
27.2542
 20
28.2794
 30
0.000000
  70
    32
  0
VERTEX
  8
3
  5
164A
 10
27.2593
 20
28.2755
 30
0.000000
  70
    32
  0
VERTEX
  8
3
  5
164B
 10
27.2644
 20
28.2716
 30
0.000000
  70
    32
  0
VERTEX
  8
3
  5
164C
 10
27.2695
 20
28.2677
 30
0.000000
  70
    32
  0
VERTEX
  8
3
  5
164D
 10
27.2746
 20
28.2638
 30
0.000000
  70
    32
  0
VERTEX
  8
3
  5
164E
 10
27.2798
 20
28.2600
 30
0.000000
  70
    32
  0
VERTEX
  8
3
  5
164F
 10
27.2849
 20
28.2561
 30
0.000000
  70
    32
  0
VERTEX
  8
3
  5
1650
 10
27.2900
 20
28.2523
 30
0.000000
  70
    32
  0
VERTEX
  8
3
  5
1651
 10
27.2951
 20
28.2484
 30
0.000000
  70
    32
  0
VERTEX
  8
3
  5
1652
 10
27.3002
 20
28.2446
 30
0.000000
  70
    32
  0
VERTEX
  8
3
  5
1653
 10
27.3054
 20
28.2408
 30
0.000000
  70
    32
  0
VERTEX
  8
3
  5
1654
 10
27.3105
 20
28.2369
 30
0.000000
  70
    32
  0
VERTEX
  8
3
  5
1655
 10
27.3157
 20
28.2331
 30
0.000000
  70
    32
  0
VERTEX
  8
3
  5
1656
 10
27.3208
 20
28.2293
 30
0.000000
  70
    32
  0
VERTEX
  8
3
  5
1657
 10
27.3260
 20
28.2255
 30
0.000000
  70
    32
  0
VERTEX
  8
3
  5
1658
 10
27.3311
 20
28.2217
 30
0.000000
  70
    32
  0
VERTEX
  8
3
  5
1659
 10
27.3363
 20
28.2179
 30
0.000000
  70
    32
  0
VERTEX
  8
3
  5
165A
 10
27.3414
 20
28.2142
 30
0.000000
  70
    32
  0
VERTEX
  8
3
  5
165B
 10
27.3466
 20
28.2104
 30
0.000000
  70
    32
  0
VERTEX
  8
3
  5
165C
 10
27.3517
 20
28.2066
 30
0.000000
  70
    32
  0
VERTEX
  8
3
  5
165D
 10
27.3569
 20
28.2029
 30
0.000000
  70
    32
  0
VERTEX
  8
3
  5
165E
 10
27.3621
 20
28.1991
 30
0.000000
  70
    32
  0
VERTEX
  8
3
  5
165F
 10
27.3673
 20
28.1954
 30
0.000000
  70
    32
  0
VERTEX
  8
3
  5
1660
 10
27.3724
 20
28.1916
 30
0.000000
  70
    32
  0
VERTEX
  8
3
  5
1661
 10
27.3776
 20
28.1879
 30
0.000000
  70
    32
  0
VERTEX
  8
3
  5
1662
 10
27.3828
 20
28.1842
 30
0.000000
  70
    32
  0
VERTEX
  8
3
  5
1663
 10
27.3880
 20
28.1805
 30
0.000000
  70
    32
  0
VERTEX
  8
3
  5
1664
 10
27.3932
 20
28.1768
 30
0.000000
  70
    32
  0
VERTEX
  8
3
  5
1665
 10
27.3984
 20
28.1731
 30
0.000000
  70
    32
  0
VERTEX
  8
3
  5
1666
 10
27.4036
 20
28.1694
 30
0.000000
  70
    32
  0
VERTEX
  8
3
  5
1667
 10
27.4088
 20
28.1657
 30
0.000000
  70
    32
  0
VERTEX
  8
3
  5
1668
 10
27.4140
 20
28.1620
 30
0.000000
  70
    32
  0
VERTEX
  8
3
  5
1669
 10
27.4192
 20
28.1584
 30
0.000000
  70
    32
  0
VERTEX
  8
3
  5
166A
 10
27.4244
 20
28.1547
 30
0.000000
  70
    32
  0
VERTEX
  8
3
  5
166B
 10
27.4297
 20
28.1511
 30
0.000000
  70
    32
  0
VERTEX
  8
3
  5
166C
 10
27.4349
 20
28.1474
 30
0.000000
  70
    32
  0
VERTEX
  8
3
  5
166D
 10
27.4401
 20
28.1438
 30
0.000000
  70
    32
  0
VERTEX
  8
3
  5
166E
 10
27.4453
 20
28.1401
 30
0.000000
  70
    32
  0
VERTEX
  8
3
  5
166F
 10
27.4506
 20
28.1365
 30
0.000000
  70
    32
  0
VERTEX
  8
3
  5
1670
 10
27.4558
 20
28.1329
 30
0.000000
  70
    32
  0
VERTEX
  8
3
  5
1671
 10
27.4610
 20
28.1293
 30
0.000000
  70
    32
  0
VERTEX
  8
3
  5
1672
 10
27.4663
 20
28.1257
 30
0.000000
  70
    32
  0
VERTEX
  8
3
  5
1673
 10
27.4715
 20
28.1221
 30
0.000000
  70
    32
  0
VERTEX
  8
3
  5
1674
 10
27.4768
 20
28.1185
 30
0.000000
  70
    32
  0
VERTEX
  8
3
  5
1675
 10
27.4820
 20
28.1149
 30
0.000000
  70
    32
  0
VERTEX
  8
3
  5
1676
 10
27.4873
 20
28.1114
 30
0.000000
  70
    32
  0
VERTEX
  8
3
  5
1677
 10
27.4925
 20
28.1078
 30
0.000000
  70
    32
  0
VERTEX
  8
3
  5
1678
 10
27.4978
 20
28.1042
 30
0.000000
  70
    32
  0
VERTEX
  8
3
  5
1679
 10
27.5031
 20
28.1007
 30
0.000000
  70
    32
  0
VERTEX
  8
3
  5
167A
 10
27.5083
 20
28.0972
 30
0.000000
  70
    32
  0
VERTEX
  8
3
  5
167B
 10
27.5136
 20
28.0936
 30
0.000000
  70
    32
  0
VERTEX
  8
3
  5
167C
 10
27.5189
 20
28.0901
 30
0.000000
  70
    32
  0
VERTEX
  8
3
  5
167D
 10
27.5242
 20
28.0866
 30
0.000000
  70
    32
  0
VERTEX
  8
3
  5
167E
 10
27.5295
 20
28.0831
 30
0.000000
  70
    32
  0
VERTEX
  8
3
  5
167F
 10
27.5347
 20
28.0796
 30
0.000000
  70
    32
  0
VERTEX
  8
3
  5
1680
 10
27.5400
 20
28.0761
 30
0.000000
  70
    32
  0
VERTEX
  8
3
  5
1681
 10
27.5453
 20
28.0726
 30
0.000000
  70
    32
  0
VERTEX
  8
3
  5
1682
 10
27.5506
 20
28.0691
 30
0.000000
  70
    32
  0
VERTEX
  8
3
  5
1683
 10
27.5559
 20
28.0656
 30
0.000000
  70
    32
  0
VERTEX
  8
3
  5
1684
 10
27.5612
 20
28.0622
 30
0.000000
  70
    32
  0
VERTEX
  8
3
  5
1685
 10
27.5665
 20
28.0587
 30
0.000000
  70
    32
  0
VERTEX
  8
3
  5
1686
 10
27.5718
 20
28.0552
 30
0.000000
  70
    32
  0
VERTEX
  8
3
  5
1687
 10
27.5772
 20
28.0518
 30
0.000000
  70
    32
  0
VERTEX
  8
3
  5
1688
 10
27.5825
 20
28.0484
 30
0.000000
  70
    32
  0
VERTEX
  8
3
  5
1689
 10
27.5878
 20
28.0449
 30
0.000000
  70
    32
  0
VERTEX
  8
3
  5
168A
 10
27.5931
 20
28.0415
 30
0.000000
  70
    32
  0
VERTEX
  8
3
  5
168B
 10
27.5984
 20
28.0381
 30
0.000000
  70
    32
  0
VERTEX
  8
3
  5
168C
 10
27.6038
 20
28.0347
 30
0.000000
  70
    32
  0
VERTEX
  8
3
  5
168D
 10
27.6091
 20
28.0313
 30
0.000000
  70
    32
  0
VERTEX
  8
3
  5
168E
 10
27.6144
 20
28.0279
 30
0.000000
  70
    32
  0
VERTEX
  8
3
  5
168F
 10
27.6198
 20
28.0245
 30
0.000000
  70
    32
  0
VERTEX
  8
3
  5
1690
 10
27.6251
 20
28.0212
 30
0.000000
  70
    32
  0
VERTEX
  8
3
  5
1691
 10
27.6305
 20
28.0178
 30
0.000000
  70
    32
  0
VERTEX
  8
3
  5
1692
 10
27.6358
 20
28.0144
 30
0.000000
  70
    32
  0
VERTEX
  8
3
  5
1693
 10
27.6412
 20
28.0111
 30
0.000000
  70
    32
  0
VERTEX
  8
3
  5
1694
 10
27.6465
 20
28.0077
 30
0.000000
  70
    32
  0
VERTEX
  8
3
  5
1695
 10
27.6519
 20
28.0044
 30
0.000000
  70
    32
  0
VERTEX
  8
3
  5
1696
 10
27.6572
 20
28.0011
 30
0.000000
  70
    32
  0
VERTEX
  8
3
  5
1697
 10
27.6626
 20
27.9977
 30
0.000000
  70
    32
  0
VERTEX
  8
3
  5
1698
 10
27.6680
 20
27.9944
 30
0.000000
  70
    32
  0
VERTEX
  8
3
  5
1699
 10
27.6733
 20
27.9911
 30
0.000000
  70
    32
  0
VERTEX
  8
3
  5
169A
 10
27.6787
 20
27.9878
 30
0.000000
  70
    32
  0
VERTEX
  8
3
  5
169B
 10
27.6841
 20
27.9845
 30
0.000000
  70
    32
  0
VERTEX
  8
3
  5
169C
 10
27.6895
 20
27.9812
 30
0.000000
  70
    32
  0
VERTEX
  8
3
  5
169D
 10
27.6948
 20
27.9780
 30
0.000000
  70
    32
  0
VERTEX
  8
3
  5
169E
 10
27.7002
 20
27.9747
 30
0.000000
  70
    32
  0
VERTEX
  8
3
  5
169F
 10
27.7056
 20
27.9714
 30
0.000000
  70
    32
  0
VERTEX
  8
3
  5
16A0
 10
27.7110
 20
27.9682
 30
0.000000
  70
    32
  0
VERTEX
  8
3
  5
16A1
 10
27.7164
 20
27.9649
 30
0.000000
  70
    32
  0
VERTEX
  8
3
  5
16A2
 10
27.7218
 20
27.9617
 30
0.000000
  70
    32
  0
VERTEX
  8
3
  5
16A3
 10
27.7272
 20
27.9585
 30
0.000000
  70
    32
  0
VERTEX
  8
3
  5
16A4
 10
27.7326
 20
27.9552
 30
0.000000
  70
    32
  0
VERTEX
  8
3
  5
16A5
 10
27.7380
 20
27.9520
 30
0.000000
  70
    32
  0
VERTEX
  8
3
  5
16A6
 10
27.7434
 20
27.9488
 30
0.000000
  70
    32
  0
VERTEX
  8
3
  5
16A7
 10
27.7488
 20
27.9456
 30
0.000000
  70
    32
  0
VERTEX
  8
3
  5
16A8
 10
27.7542
 20
27.9424
 30
0.000000
  70
    32
  0
VERTEX
  8
3
  5
16A9
 10
27.7597
 20
27.9392
 30
0.000000
  70
    32
  0
VERTEX
  8
3
  5
16AA
 10
27.7651
 20
27.9361
 30
0.000000
  70
    32
  0
VERTEX
  8
3
  5
16AB
 10
27.7705
 20
27.9329
 30
0.000000
  70
    32
  0
VERTEX
  8
3
  5
16AC
 10
27.7759
 20
27.9297
 30
0.000000
  70
    32
  0
VERTEX
  8
3
  5
16AD
 10
27.7814
 20
27.9266
 30
0.000000
  70
    32
  0
VERTEX
  8
3
  5
16AE
 10
27.7868
 20
27.9234
 30
0.000000
  70
    32
  0
VERTEX
  8
3
  5
16AF
 10
27.7922
 20
27.9203
 30
0.000000
  70
    32
  0
VERTEX
  8
3
  5
16B0
 10
27.7977
 20
27.9172
 30
0.000000
  70
    32
  0
VERTEX
  8
3
  5
16B1
 10
27.8031
 20
27.9140
 30
0.000000
  70
    32
  0
VERTEX
  8
3
  5
16B2
 10
27.8086
 20
27.9109
 30
0.000000
  70
    32
  0
VERTEX
  8
3
  5
16B3
 10
27.8140
 20
27.9078
 30
0.000000
  70
    32
  0
VERTEX
  8
3
  5
16B4
 10
27.8195
 20
27.9047
 30
0.000000
  70
    32
  0
VERTEX
  8
3
  5
16B5
 10
27.8249
 20
27.9016
 30
0.000000
  70
    32
  0
VERTEX
  8
3
  5
16B6
 10
27.8304
 20
27.8985
 30
0.000000
  70
    32
  0
VERTEX
  8
3
  5
16B7
 10
27.8359
 20
27.8955
 30
0.000000
  70
    32
  0
VERTEX
  8
3
  5
16B8
 10
27.8413
 20
27.8924
 30
0.000000
  70
    32
  0
VERTEX
  8
3
  5
16B9
 10
27.8468
 20
27.8893
 30
0.000000
  70
    32
  0
VERTEX
  8
3
  5
16BA
 10
27.8522
 20
27.8863
 30
0.000000
  70
    32
  0
VERTEX
  8
3
  5
16BB
 10
27.8577
 20
27.8832
 30
0.000000
  70
    32
  0
VERTEX
  8
3
  5
16BC
 10
27.8632
 20
27.8802
 30
0.000000
  70
    32
  0
VERTEX
  8
3
  5
16BD
 10
27.8687
 20
27.8772
 30
0.000000
  70
    32
  0
VERTEX
  8
3
  5
16BE
 10
27.8742
 20
27.8742
 30
0.000000
  70
    32
  0
SEQEND
  8
3
  5
16BF
  0
POLYLINE
  5
746
  8
3
 10
27.874156218714475
 20
27.874156218714361
 30
0.0
 66
     1
 70
     8
  0
VERTEX
  8
3
  5
16C0
 10
27.8742
 20
27.8742
 30
0.000000
  70
    32
  0
VERTEX
  8
3
  5
16C1
 10
27.8772
 20
27.8687
 30
0.000000
  70
    32
  0
VERTEX
  8
3
  5
16C2
 10
27.8802
 20
27.8632
 30
0.000000
  70
    32
  0
VERTEX
  8
3
  5
16C3
 10
27.8832
 20
27.8577
 30
0.000000
  70
    32
  0
VERTEX
  8
3
  5
16C4
 10
27.8863
 20
27.8522
 30
0.000000
  70
    32
  0
VERTEX
  8
3
  5
16C5
 10
27.8893
 20
27.8468
 30
0.000000
  70
    32
  0
VERTEX
  8
3
  5
16C6
 10
27.8924
 20
27.8413
 30
0.000000
  70
    32
  0
VERTEX
  8
3
  5
16C7
 10
27.8955
 20
27.8359
 30
0.000000
  70
    32
  0
VERTEX
  8
3
  5
16C8
 10
27.8985
 20
27.8304
 30
0.000000
  70
    32
  0
VERTEX
  8
3
  5
16C9
 10
27.9016
 20
27.8249
 30
0.000000
  70
    32
  0
VERTEX
  8
3
  5
16CA
 10
27.9047
 20
27.8195
 30
0.000000
  70
    32
  0
VERTEX
  8
3
  5
16CB
 10
27.9078
 20
27.8140
 30
0.000000
  70
    32
  0
VERTEX
  8
3
  5
16CC
 10
27.9109
 20
27.8086
 30
0.000000
  70
    32
  0
VERTEX
  8
3
  5
16CD
 10
27.9140
 20
27.8031
 30
0.000000
  70
    32
  0
VERTEX
  8
3
  5
16CE
 10
27.9172
 20
27.7977
 30
0.000000
  70
    32
  0
VERTEX
  8
3
  5
16CF
 10
27.9203
 20
27.7922
 30
0.000000
  70
    32
  0
VERTEX
  8
3
  5
16D0
 10
27.9234
 20
27.7868
 30
0.000000
  70
    32
  0
VERTEX
  8
3
  5
16D1
 10
27.9266
 20
27.7814
 30
0.000000
  70
    32
  0
VERTEX
  8
3
  5
16D2
 10
27.9297
 20
27.7759
 30
0.000000
  70
    32
  0
VERTEX
  8
3
  5
16D3
 10
27.9329
 20
27.7705
 30
0.000000
  70
    32
  0
VERTEX
  8
3
  5
16D4
 10
27.9361
 20
27.7651
 30
0.000000
  70
    32
  0
VERTEX
  8
3
  5
16D5
 10
27.9392
 20
27.7597
 30
0.000000
  70
    32
  0
VERTEX
  8
3
  5
16D6
 10
27.9424
 20
27.7542
 30
0.000000
  70
    32
  0
VERTEX
  8
3
  5
16D7
 10
27.9456
 20
27.7488
 30
0.000000
  70
    32
  0
VERTEX
  8
3
  5
16D8
 10
27.9488
 20
27.7434
 30
0.000000
  70
    32
  0
VERTEX
  8
3
  5
16D9
 10
27.9520
 20
27.7380
 30
0.000000
  70
    32
  0
VERTEX
  8
3
  5
16DA
 10
27.9552
 20
27.7326
 30
0.000000
  70
    32
  0
VERTEX
  8
3
  5
16DB
 10
27.9585
 20
27.7272
 30
0.000000
  70
    32
  0
VERTEX
  8
3
  5
16DC
 10
27.9617
 20
27.7218
 30
0.000000
  70
    32
  0
VERTEX
  8
3
  5
16DD
 10
27.9649
 20
27.7164
 30
0.000000
  70
    32
  0
VERTEX
  8
3
  5
16DE
 10
27.9682
 20
27.7110
 30
0.000000
  70
    32
  0
VERTEX
  8
3
  5
16DF
 10
27.9714
 20
27.7056
 30
0.000000
  70
    32
  0
VERTEX
  8
3
  5
16E0
 10
27.9747
 20
27.7002
 30
0.000000
  70
    32
  0
VERTEX
  8
3
  5
16E1
 10
27.9780
 20
27.6948
 30
0.000000
  70
    32
  0
VERTEX
  8
3
  5
16E2
 10
27.9812
 20
27.6895
 30
0.000000
  70
    32
  0
VERTEX
  8
3
  5
16E3
 10
27.9845
 20
27.6841
 30
0.000000
  70
    32
  0
VERTEX
  8
3
  5
16E4
 10
27.9878
 20
27.6787
 30
0.000000
  70
    32
  0
VERTEX
  8
3
  5
16E5
 10
27.9911
 20
27.6733
 30
0.000000
  70
    32
  0
VERTEX
  8
3
  5
16E6
 10
27.9944
 20
27.6680
 30
0.000000
  70
    32
  0
VERTEX
  8
3
  5
16E7
 10
27.9977
 20
27.6626
 30
0.000000
  70
    32
  0
VERTEX
  8
3
  5
16E8
 10
28.0011
 20
27.6572
 30
0.000000
  70
    32
  0
VERTEX
  8
3
  5
16E9
 10
28.0044
 20
27.6519
 30
0.000000
  70
    32
  0
VERTEX
  8
3
  5
16EA
 10
28.0077
 20
27.6465
 30
0.000000
  70
    32
  0
VERTEX
  8
3
  5
16EB
 10
28.0111
 20
27.6412
 30
0.000000
  70
    32
  0
VERTEX
  8
3
  5
16EC
 10
28.0144
 20
27.6358
 30
0.000000
  70
    32
  0
VERTEX
  8
3
  5
16ED
 10
28.0178
 20
27.6305
 30
0.000000
  70
    32
  0
VERTEX
  8
3
  5
16EE
 10
28.0212
 20
27.6251
 30
0.000000
  70
    32
  0
VERTEX
  8
3
  5
16EF
 10
28.0245
 20
27.6198
 30
0.000000
  70
    32
  0
VERTEX
  8
3
  5
16F0
 10
28.0279
 20
27.6144
 30
0.000000
  70
    32
  0
VERTEX
  8
3
  5
16F1
 10
28.0313
 20
27.6091
 30
0.000000
  70
    32
  0
VERTEX
  8
3
  5
16F2
 10
28.0347
 20
27.6038
 30
0.000000
  70
    32
  0
VERTEX
  8
3
  5
16F3
 10
28.0381
 20
27.5984
 30
0.000000
  70
    32
  0
VERTEX
  8
3
  5
16F4
 10
28.0415
 20
27.5931
 30
0.000000
  70
    32
  0
VERTEX
  8
3
  5
16F5
 10
28.0449
 20
27.5878
 30
0.000000
  70
    32
  0
VERTEX
  8
3
  5
16F6
 10
28.0484
 20
27.5825
 30
0.000000
  70
    32
  0
VERTEX
  8
3
  5
16F7
 10
28.0518
 20
27.5772
 30
0.000000
  70
    32
  0
VERTEX
  8
3
  5
16F8
 10
28.0552
 20
27.5718
 30
0.000000
  70
    32
  0
VERTEX
  8
3
  5
16F9
 10
28.0587
 20
27.5665
 30
0.000000
  70
    32
  0
VERTEX
  8
3
  5
16FA
 10
28.0622
 20
27.5612
 30
0.000000
  70
    32
  0
VERTEX
  8
3
  5
16FB
 10
28.0656
 20
27.5559
 30
0.000000
  70
    32
  0
VERTEX
  8
3
  5
16FC
 10
28.0691
 20
27.5506
 30
0.000000
  70
    32
  0
VERTEX
  8
3
  5
16FD
 10
28.0726
 20
27.5453
 30
0.000000
  70
    32
  0
VERTEX
  8
3
  5
16FE
 10
28.0761
 20
27.5400
 30
0.000000
  70
    32
  0
VERTEX
  8
3
  5
16FF
 10
28.0796
 20
27.5347
 30
0.000000
  70
    32
  0
VERTEX
  8
3
  5
1700
 10
28.0831
 20
27.5295
 30
0.000000
  70
    32
  0
VERTEX
  8
3
  5
1701
 10
28.0866
 20
27.5242
 30
0.000000
  70
    32
  0
VERTEX
  8
3
  5
1702
 10
28.0901
 20
27.5189
 30
0.000000
  70
    32
  0
VERTEX
  8
3
  5
1703
 10
28.0936
 20
27.5136
 30
0.000000
  70
    32
  0
VERTEX
  8
3
  5
1704
 10
28.0972
 20
27.5083
 30
0.000000
  70
    32
  0
VERTEX
  8
3
  5
1705
 10
28.1007
 20
27.5031
 30
0.000000
  70
    32
  0
VERTEX
  8
3
  5
1706
 10
28.1042
 20
27.4978
 30
0.000000
  70
    32
  0
VERTEX
  8
3
  5
1707
 10
28.1078
 20
27.4925
 30
0.000000
  70
    32
  0
VERTEX
  8
3
  5
1708
 10
28.1114
 20
27.4873
 30
0.000000
  70
    32
  0
VERTEX
  8
3
  5
1709
 10
28.1149
 20
27.4820
 30
0.000000
  70
    32
  0
VERTEX
  8
3
  5
170A
 10
28.1185
 20
27.4768
 30
0.000000
  70
    32
  0
VERTEX
  8
3
  5
170B
 10
28.1221
 20
27.4715
 30
0.000000
  70
    32
  0
VERTEX
  8
3
  5
170C
 10
28.1257
 20
27.4663
 30
0.000000
  70
    32
  0
VERTEX
  8
3
  5
170D
 10
28.1293
 20
27.4610
 30
0.000000
  70
    32
  0
VERTEX
  8
3
  5
170E
 10
28.1329
 20
27.4558
 30
0.000000
  70
    32
  0
VERTEX
  8
3
  5
170F
 10
28.1365
 20
27.4506
 30
0.000000
  70
    32
  0
VERTEX
  8
3
  5
1710
 10
28.1401
 20
27.4453
 30
0.000000
  70
    32
  0
VERTEX
  8
3
  5
1711
 10
28.1438
 20
27.4401
 30
0.000000
  70
    32
  0
VERTEX
  8
3
  5
1712
 10
28.1474
 20
27.4349
 30
0.000000
  70
    32
  0
VERTEX
  8
3
  5
1713
 10
28.1511
 20
27.4297
 30
0.000000
  70
    32
  0
VERTEX
  8
3
  5
1714
 10
28.1547
 20
27.4244
 30
0.000000
  70
    32
  0
VERTEX
  8
3
  5
1715
 10
28.1584
 20
27.4192
 30
0.000000
  70
    32
  0
VERTEX
  8
3
  5
1716
 10
28.1620
 20
27.4140
 30
0.000000
  70
    32
  0
VERTEX
  8
3
  5
1717
 10
28.1657
 20
27.4088
 30
0.000000
  70
    32
  0
VERTEX
  8
3
  5
1718
 10
28.1694
 20
27.4036
 30
0.000000
  70
    32
  0
VERTEX
  8
3
  5
1719
 10
28.1731
 20
27.3984
 30
0.000000
  70
    32
  0
VERTEX
  8
3
  5
171A
 10
28.1768
 20
27.3932
 30
0.000000
  70
    32
  0
VERTEX
  8
3
  5
171B
 10
28.1805
 20
27.3880
 30
0.000000
  70
    32
  0
VERTEX
  8
3
  5
171C
 10
28.1842
 20
27.3828
 30
0.000000
  70
    32
  0
VERTEX
  8
3
  5
171D
 10
28.1879
 20
27.3776
 30
0.000000
  70
    32
  0
VERTEX
  8
3
  5
171E
 10
28.1916
 20
27.3724
 30
0.000000
  70
    32
  0
VERTEX
  8
3
  5
171F
 10
28.1954
 20
27.3673
 30
0.000000
  70
    32
  0
VERTEX
  8
3
  5
1720
 10
28.1991
 20
27.3621
 30
0.000000
  70
    32
  0
VERTEX
  8
3
  5
1721
 10
28.2029
 20
27.3569
 30
0.000000
  70
    32
  0
VERTEX
  8
3
  5
1722
 10
28.2066
 20
27.3517
 30
0.000000
  70
    32
  0
VERTEX
  8
3
  5
1723
 10
28.2104
 20
27.3466
 30
0.000000
  70
    32
  0
VERTEX
  8
3
  5
1724
 10
28.2142
 20
27.3414
 30
0.000000
  70
    32
  0
VERTEX
  8
3
  5
1725
 10
28.2179
 20
27.3363
 30
0.000000
  70
    32
  0
VERTEX
  8
3
  5
1726
 10
28.2217
 20
27.3311
 30
0.000000
  70
    32
  0
VERTEX
  8
3
  5
1727
 10
28.2255
 20
27.3260
 30
0.000000
  70
    32
  0
VERTEX
  8
3
  5
1728
 10
28.2293
 20
27.3208
 30
0.000000
  70
    32
  0
VERTEX
  8
3
  5
1729
 10
28.2331
 20
27.3157
 30
0.000000
  70
    32
  0
VERTEX
  8
3
  5
172A
 10
28.2369
 20
27.3105
 30
0.000000
  70
    32
  0
VERTEX
  8
3
  5
172B
 10
28.2408
 20
27.3054
 30
0.000000
  70
    32
  0
VERTEX
  8
3
  5
172C
 10
28.2446
 20
27.3002
 30
0.000000
  70
    32
  0
VERTEX
  8
3
  5
172D
 10
28.2484
 20
27.2951
 30
0.000000
  70
    32
  0
VERTEX
  8
3
  5
172E
 10
28.2523
 20
27.2900
 30
0.000000
  70
    32
  0
VERTEX
  8
3
  5
172F
 10
28.2561
 20
27.2849
 30
0.000000
  70
    32
  0
VERTEX
  8
3
  5
1730
 10
28.2600
 20
27.2798
 30
0.000000
  70
    32
  0
VERTEX
  8
3
  5
1731
 10
28.2638
 20
27.2746
 30
0.000000
  70
    32
  0
VERTEX
  8
3
  5
1732
 10
28.2677
 20
27.2695
 30
0.000000
  70
    32
  0
VERTEX
  8
3
  5
1733
 10
28.2716
 20
27.2644
 30
0.000000
  70
    32
  0
VERTEX
  8
3
  5
1734
 10
28.2755
 20
27.2593
 30
0.000000
  70
    32
  0
VERTEX
  8
3
  5
1735
 10
28.2794
 20
27.2542
 30
0.000000
  70
    32
  0
VERTEX
  8
3
  5
1736
 10
28.2833
 20
27.2491
 30
0.000000
  70
    32
  0
VERTEX
  8
3
  5
1737
 10
28.2872
 20
27.2440
 30
0.000000
  70
    32
  0
VERTEX
  8
3
  5
1738
 10
28.2911
 20
27.2389
 30
0.000000
  70
    32
  0
VERTEX
  8
3
  5
1739
 10
28.2950
 20
27.2338
 30
0.000000
  70
    32
  0
VERTEX
  8
3
  5
173A
 10
28.2990
 20
27.2288
 30
0.000000
  70
    32
  0
VERTEX
  8
3
  5
173B
 10
28.3029
 20
27.2237
 30
0.000000
  70
    32
  0
VERTEX
  8
3
  5
173C
 10
28.3068
 20
27.2186
 30
0.000000
  70
    32
  0
VERTEX
  8
3
  5
173D
 10
28.3108
 20
27.2135
 30
0.000000
  70
    32
  0
VERTEX
  8
3
  5
173E
 10
28.3148
 20
27.2085
 30
0.000000
  70
    32
  0
VERTEX
  8
3
  5
173F
 10
28.3187
 20
27.2034
 30
0.000000
  70
    32
  0
VERTEX
  8
3
  5
1740
 10
28.3227
 20
27.1983
 30
0.000000
  70
    32
  0
SEQEND
  8
3
  5
1741
  0
ARC
  5
747
  8
3
 10
28.512810497781139
 20
27.32854493439439
 30
0.0
 40
0.2304211755989903
 50
214.40466385095891
 51
267.38628325545301
  0
ARC
  5
748
  8
3
 10
29.698289580347229
 20
28.345006605539801
 30
0.0
 40
1.6233339809534311
 50
241.76671939624489
 51
277.5157241742657
  0
ARC
  5
749
  8
3
 10
29.999999848373939
 20
26.896724621513918
 30
0.0
 40
0.1842392002205817
 50
240.9786488752251
 51
299.02150037557379
  0
ARC
  5
74A
  8
3
 10
30.266469889881598
 20
28.537798394366721
 30
0.0
 40
1.8108594895338319
 50
264.38792870483178
 51
296.32963073356569
  0
ARC
  5
74B
  8
3
 10
31.49223236897377
 20
27.319486511341239
 30
0.0
 40
0.2211905654078445
 50
271.41577941900368
 51
326.79338687941981
  0
POLYLINE
  5
74C
  8
3
 10
31.677302678038707
 20
27.198349138528094
 30
0.0
 66
     1
 70
     8
  0
VERTEX
  8
3
  5
1742
 10
31.6773
 20
27.1983
 30
0.000000
  70
    32
  0
VERTEX
  8
3
  5
1743
 10
31.6813
 20
27.2034
 30
0.000000
  70
    32
  0
VERTEX
  8
3
  5
1744
 10
31.6852
 20
27.2085
 30
0.000000
  70
    32
  0
VERTEX
  8
3
  5
1745
 10
31.6892
 20
27.2135
 30
0.000000
  70
    32
  0
VERTEX
  8
3
  5
1746
 10
31.6932
 20
27.2186
 30
0.000000
  70
    32
  0
VERTEX
  8
3
  5
1747
 10
31.6971
 20
27.2237
 30
0.000000
  70
    32
  0
VERTEX
  8
3
  5
1748
 10
31.7010
 20
27.2288
 30
0.000000
  70
    32
  0
VERTEX
  8
3
  5
1749
 10
31.7050
 20
27.2338
 30
0.000000
  70
    32
  0
VERTEX
  8
3
  5
174A
 10
31.7089
 20
27.2389
 30
0.000000
  70
    32
  0
VERTEX
  8
3
  5
174B
 10
31.7128
 20
27.2440
 30
0.000000
  70
    32
  0
VERTEX
  8
3
  5
174C
 10
31.7167
 20
27.2491
 30
0.000000
  70
    32
  0
VERTEX
  8
3
  5
174D
 10
31.7206
 20
27.2542
 30
0.000000
  70
    32
  0
VERTEX
  8
3
  5
174E
 10
31.7245
 20
27.2593
 30
0.000000
  70
    32
  0
VERTEX
  8
3
  5
174F
 10
31.7284
 20
27.2644
 30
0.000000
  70
    32
  0
VERTEX
  8
3
  5
1750
 10
31.7323
 20
27.2695
 30
0.000000
  70
    32
  0
VERTEX
  8
3
  5
1751
 10
31.7362
 20
27.2746
 30
0.000000
  70
    32
  0
VERTEX
  8
3
  5
1752
 10
31.7400
 20
27.2798
 30
0.000000
  70
    32
  0
VERTEX
  8
3
  5
1753
 10
31.7439
 20
27.2849
 30
0.000000
  70
    32
  0
VERTEX
  8
3
  5
1754
 10
31.7477
 20
27.2900
 30
0.000000
  70
    32
  0
VERTEX
  8
3
  5
1755
 10
31.7516
 20
27.2951
 30
0.000000
  70
    32
  0
VERTEX
  8
3
  5
1756
 10
31.7554
 20
27.3002
 30
0.000000
  70
    32
  0
VERTEX
  8
3
  5
1757
 10
31.7592
 20
27.3054
 30
0.000000
  70
    32
  0
VERTEX
  8
3
  5
1758
 10
31.7631
 20
27.3105
 30
0.000000
  70
    32
  0
VERTEX
  8
3
  5
1759
 10
31.7669
 20
27.3157
 30
0.000000
  70
    32
  0
VERTEX
  8
3
  5
175A
 10
31.7707
 20
27.3208
 30
0.000000
  70
    32
  0
VERTEX
  8
3
  5
175B
 10
31.7745
 20
27.3260
 30
0.000000
  70
    32
  0
VERTEX
  8
3
  5
175C
 10
31.7783
 20
27.3311
 30
0.000000
  70
    32
  0
VERTEX
  8
3
  5
175D
 10
31.7821
 20
27.3363
 30
0.000000
  70
    32
  0
VERTEX
  8
3
  5
175E
 10
31.7858
 20
27.3414
 30
0.000000
  70
    32
  0
VERTEX
  8
3
  5
175F
 10
31.7896
 20
27.3466
 30
0.000000
  70
    32
  0
VERTEX
  8
3
  5
1760
 10
31.7934
 20
27.3517
 30
0.000000
  70
    32
  0
VERTEX
  8
3
  5
1761
 10
31.7971
 20
27.3569
 30
0.000000
  70
    32
  0
VERTEX
  8
3
  5
1762
 10
31.8009
 20
27.3621
 30
0.000000
  70
    32
  0
VERTEX
  8
3
  5
1763
 10
31.8046
 20
27.3673
 30
0.000000
  70
    32
  0
VERTEX
  8
3
  5
1764
 10
31.8084
 20
27.3724
 30
0.000000
  70
    32
  0
VERTEX
  8
3
  5
1765
 10
31.8121
 20
27.3776
 30
0.000000
  70
    32
  0
VERTEX
  8
3
  5
1766
 10
31.8158
 20
27.3828
 30
0.000000
  70
    32
  0
VERTEX
  8
3
  5
1767
 10
31.8195
 20
27.3880
 30
0.000000
  70
    32
  0
VERTEX
  8
3
  5
1768
 10
31.8232
 20
27.3932
 30
0.000000
  70
    32
  0
VERTEX
  8
3
  5
1769
 10
31.8269
 20
27.3984
 30
0.000000
  70
    32
  0
VERTEX
  8
3
  5
176A
 10
31.8306
 20
27.4036
 30
0.000000
  70
    32
  0
VERTEX
  8
3
  5
176B
 10
31.8343
 20
27.4088
 30
0.000000
  70
    32
  0
VERTEX
  8
3
  5
176C
 10
31.8380
 20
27.4140
 30
0.000000
  70
    32
  0
VERTEX
  8
3
  5
176D
 10
31.8416
 20
27.4192
 30
0.000000
  70
    32
  0
VERTEX
  8
3
  5
176E
 10
31.8453
 20
27.4244
 30
0.000000
  70
    32
  0
VERTEX
  8
3
  5
176F
 10
31.8489
 20
27.4297
 30
0.000000
  70
    32
  0
VERTEX
  8
3
  5
1770
 10
31.8526
 20
27.4349
 30
0.000000
  70
    32
  0
VERTEX
  8
3
  5
1771
 10
31.8562
 20
27.4401
 30
0.000000
  70
    32
  0
VERTEX
  8
3
  5
1772
 10
31.8599
 20
27.4453
 30
0.000000
  70
    32
  0
VERTEX
  8
3
  5
1773
 10
31.8635
 20
27.4506
 30
0.000000
  70
    32
  0
VERTEX
  8
3
  5
1774
 10
31.8671
 20
27.4558
 30
0.000000
  70
    32
  0
VERTEX
  8
3
  5
1775
 10
31.8707
 20
27.4610
 30
0.000000
  70
    32
  0
VERTEX
  8
3
  5
1776
 10
31.8743
 20
27.4663
 30
0.000000
  70
    32
  0
VERTEX
  8
3
  5
1777
 10
31.8779
 20
27.4715
 30
0.000000
  70
    32
  0
VERTEX
  8
3
  5
1778
 10
31.8815
 20
27.4768
 30
0.000000
  70
    32
  0
VERTEX
  8
3
  5
1779
 10
31.8851
 20
27.4820
 30
0.000000
  70
    32
  0
VERTEX
  8
3
  5
177A
 10
31.8886
 20
27.4873
 30
0.000000
  70
    32
  0
VERTEX
  8
3
  5
177B
 10
31.8922
 20
27.4925
 30
0.000000
  70
    32
  0
VERTEX
  8
3
  5
177C
 10
31.8958
 20
27.4978
 30
0.000000
  70
    32
  0
VERTEX
  8
3
  5
177D
 10
31.8993
 20
27.5031
 30
0.000000
  70
    32
  0
VERTEX
  8
3
  5
177E
 10
31.9028
 20
27.5083
 30
0.000000
  70
    32
  0
VERTEX
  8
3
  5
177F
 10
31.9064
 20
27.5136
 30
0.000000
  70
    32
  0
VERTEX
  8
3
  5
1780
 10
31.9099
 20
27.5189
 30
0.000000
  70
    32
  0
VERTEX
  8
3
  5
1781
 10
31.9134
 20
27.5242
 30
0.000000
  70
    32
  0
VERTEX
  8
3
  5
1782
 10
31.9169
 20
27.5295
 30
0.000000
  70
    32
  0
VERTEX
  8
3
  5
1783
 10
31.9204
 20
27.5347
 30
0.000000
  70
    32
  0
VERTEX
  8
3
  5
1784
 10
31.9239
 20
27.5400
 30
0.000000
  70
    32
  0
VERTEX
  8
3
  5
1785
 10
31.9274
 20
27.5453
 30
0.000000
  70
    32
  0
VERTEX
  8
3
  5
1786
 10
31.9309
 20
27.5506
 30
0.000000
  70
    32
  0
VERTEX
  8
3
  5
1787
 10
31.9344
 20
27.5559
 30
0.000000
  70
    32
  0
VERTEX
  8
3
  5
1788
 10
31.9378
 20
27.5612
 30
0.000000
  70
    32
  0
VERTEX
  8
3
  5
1789
 10
31.9413
 20
27.5665
 30
0.000000
  70
    32
  0
VERTEX
  8
3
  5
178A
 10
31.9448
 20
27.5718
 30
0.000000
  70
    32
  0
VERTEX
  8
3
  5
178B
 10
31.9482
 20
27.5772
 30
0.000000
  70
    32
  0
VERTEX
  8
3
  5
178C
 10
31.9516
 20
27.5825
 30
0.000000
  70
    32
  0
VERTEX
  8
3
  5
178D
 10
31.9551
 20
27.5878
 30
0.000000
  70
    32
  0
VERTEX
  8
3
  5
178E
 10
31.9585
 20
27.5931
 30
0.000000
  70
    32
  0
VERTEX
  8
3
  5
178F
 10
31.9619
 20
27.5984
 30
0.000000
  70
    32
  0
VERTEX
  8
3
  5
1790
 10
31.9653
 20
27.6038
 30
0.000000
  70
    32
  0
VERTEX
  8
3
  5
1791
 10
31.9687
 20
27.6091
 30
0.000000
  70
    32
  0
VERTEX
  8
3
  5
1792
 10
31.9721
 20
27.6144
 30
0.000000
  70
    32
  0
VERTEX
  8
3
  5
1793
 10
31.9755
 20
27.6198
 30
0.000000
  70
    32
  0
VERTEX
  8
3
  5
1794
 10
31.9788
 20
27.6251
 30
0.000000
  70
    32
  0
VERTEX
  8
3
  5
1795
 10
31.9822
 20
27.6305
 30
0.000000
  70
    32
  0
VERTEX
  8
3
  5
1796
 10
31.9856
 20
27.6358
 30
0.000000
  70
    32
  0
VERTEX
  8
3
  5
1797
 10
31.9889
 20
27.6412
 30
0.000000
  70
    32
  0
VERTEX
  8
3
  5
1798
 10
31.9923
 20
27.6465
 30
0.000000
  70
    32
  0
VERTEX
  8
3
  5
1799
 10
31.9956
 20
27.6519
 30
0.000000
  70
    32
  0
VERTEX
  8
3
  5
179A
 10
31.9989
 20
27.6572
 30
0.000000
  70
    32
  0
VERTEX
  8
3
  5
179B
 10
32.0023
 20
27.6626
 30
0.000000
  70
    32
  0
VERTEX
  8
3
  5
179C
 10
32.0056
 20
27.6680
 30
0.000000
  70
    32
  0
VERTEX
  8
3
  5
179D
 10
32.0089
 20
27.6733
 30
0.000000
  70
    32
  0
VERTEX
  8
3
  5
179E
 10
32.0122
 20
27.6787
 30
0.000000
  70
    32
  0
VERTEX
  8
3
  5
179F
 10
32.0155
 20
27.6841
 30
0.000000
  70
    32
  0
VERTEX
  8
3
  5
17A0
 10
32.0188
 20
27.6895
 30
0.000000
  70
    32
  0
VERTEX
  8
3
  5
17A1
 10
32.0220
 20
27.6948
 30
0.000000
  70
    32
  0
VERTEX
  8
3
  5
17A2
 10
32.0253
 20
27.7002
 30
0.000000
  70
    32
  0
VERTEX
  8
3
  5
17A3
 10
32.0286
 20
27.7056
 30
0.000000
  70
    32
  0
VERTEX
  8
3
  5
17A4
 10
32.0318
 20
27.7110
 30
0.000000
  70
    32
  0
VERTEX
  8
3
  5
17A5
 10
32.0351
 20
27.7164
 30
0.000000
  70
    32
  0
VERTEX
  8
3
  5
17A6
 10
32.0383
 20
27.7218
 30
0.000000
  70
    32
  0
VERTEX
  8
3
  5
17A7
 10
32.0415
 20
27.7272
 30
0.000000
  70
    32
  0
VERTEX
  8
3
  5
17A8
 10
32.0448
 20
27.7326
 30
0.000000
  70
    32
  0
VERTEX
  8
3
  5
17A9
 10
32.0480
 20
27.7380
 30
0.000000
  70
    32
  0
VERTEX
  8
3
  5
17AA
 10
32.0512
 20
27.7434
 30
0.000000
  70
    32
  0
VERTEX
  8
3
  5
17AB
 10
32.0544
 20
27.7488
 30
0.000000
  70
    32
  0
VERTEX
  8
3
  5
17AC
 10
32.0576
 20
27.7542
 30
0.000000
  70
    32
  0
VERTEX
  8
3
  5
17AD
 10
32.0608
 20
27.7597
 30
0.000000
  70
    32
  0
VERTEX
  8
3
  5
17AE
 10
32.0639
 20
27.7651
 30
0.000000
  70
    32
  0
VERTEX
  8
3
  5
17AF
 10
32.0671
 20
27.7705
 30
0.000000
  70
    32
  0
VERTEX
  8
3
  5
17B0
 10
32.0703
 20
27.7759
 30
0.000000
  70
    32
  0
VERTEX
  8
3
  5
17B1
 10
32.0734
 20
27.7814
 30
0.000000
  70
    32
  0
VERTEX
  8
3
  5
17B2
 10
32.0766
 20
27.7868
 30
0.000000
  70
    32
  0
VERTEX
  8
3
  5
17B3
 10
32.0797
 20
27.7922
 30
0.000000
  70
    32
  0
VERTEX
  8
3
  5
17B4
 10
32.0828
 20
27.7977
 30
0.000000
  70
    32
  0
VERTEX
  8
3
  5
17B5
 10
32.0860
 20
27.8031
 30
0.000000
  70
    32
  0
VERTEX
  8
3
  5
17B6
 10
32.0891
 20
27.8086
 30
0.000000
  70
    32
  0
VERTEX
  8
3
  5
17B7
 10
32.0922
 20
27.8140
 30
0.000000
  70
    32
  0
VERTEX
  8
3
  5
17B8
 10
32.0953
 20
27.8195
 30
0.000000
  70
    32
  0
VERTEX
  8
3
  5
17B9
 10
32.0984
 20
27.8249
 30
0.000000
  70
    32
  0
VERTEX
  8
3
  5
17BA
 10
32.1015
 20
27.8304
 30
0.000000
  70
    32
  0
VERTEX
  8
3
  5
17BB
 10
32.1045
 20
27.8359
 30
0.000000
  70
    32
  0
VERTEX
  8
3
  5
17BC
 10
32.1076
 20
27.8413
 30
0.000000
  70
    32
  0
VERTEX
  8
3
  5
17BD
 10
32.1107
 20
27.8468
 30
0.000000
  70
    32
  0
VERTEX
  8
3
  5
17BE
 10
32.1137
 20
27.8522
 30
0.000000
  70
    32
  0
VERTEX
  8
3
  5
17BF
 10
32.1168
 20
27.8577
 30
0.000000
  70
    32
  0
VERTEX
  8
3
  5
17C0
 10
32.1198
 20
27.8632
 30
0.000000
  70
    32
  0
VERTEX
  8
3
  5
17C1
 10
32.1228
 20
27.8687
 30
0.000000
  70
    32
  0
VERTEX
  8
3
  5
17C2
 10
32.1258
 20
27.8742
 30
0.000000
  70
    32
  0
SEQEND
  8
3
  5
17C3
  0
POLYLINE
  5
74D
  8
3
 10
32.125843781285596
 20
27.874156218714518
 30
0.0
 66
     1
 70
     8
  0
VERTEX
  8
3
  5
17C4
 10
32.1258
 20
27.8742
 30
0.000000
  70
    32
  0
VERTEX
  8
3
  5
17C5
 10
32.1313
 20
27.8772
 30
0.000000
  70
    32
  0
VERTEX
  8
3
  5
17C6
 10
32.1368
 20
27.8802
 30
0.000000
  70
    32
  0
VERTEX
  8
3
  5
17C7
 10
32.1423
 20
27.8832
 30
0.000000
  70
    32
  0
VERTEX
  8
3
  5
17C8
 10
32.1478
 20
27.8863
 30
0.000000
  70
    32
  0
VERTEX
  8
3
  5
17C9
 10
32.1532
 20
27.8893
 30
0.000000
  70
    32
  0
VERTEX
  8
3
  5
17CA
 10
32.1587
 20
27.8924
 30
0.000000
  70
    32
  0
VERTEX
  8
3
  5
17CB
 10
32.1641
 20
27.8955
 30
0.000000
  70
    32
  0
VERTEX
  8
3
  5
17CC
 10
32.1696
 20
27.8985
 30
0.000000
  70
    32
  0
VERTEX
  8
3
  5
17CD
 10
32.1751
 20
27.9016
 30
0.000000
  70
    32
  0
VERTEX
  8
3
  5
17CE
 10
32.1805
 20
27.9047
 30
0.000000
  70
    32
  0
VERTEX
  8
3
  5
17CF
 10
32.1860
 20
27.9078
 30
0.000000
  70
    32
  0
VERTEX
  8
3
  5
17D0
 10
32.1914
 20
27.9109
 30
0.000000
  70
    32
  0
VERTEX
  8
3
  5
17D1
 10
32.1969
 20
27.9140
 30
0.000000
  70
    32
  0
VERTEX
  8
3
  5
17D2
 10
32.2023
 20
27.9172
 30
0.000000
  70
    32
  0
VERTEX
  8
3
  5
17D3
 10
32.2078
 20
27.9203
 30
0.000000
  70
    32
  0
VERTEX
  8
3
  5
17D4
 10
32.2132
 20
27.9234
 30
0.000000
  70
    32
  0
VERTEX
  8
3
  5
17D5
 10
32.2186
 20
27.9266
 30
0.000000
  70
    32
  0
VERTEX
  8
3
  5
17D6
 10
32.2241
 20
27.9297
 30
0.000000
  70
    32
  0
VERTEX
  8
3
  5
17D7
 10
32.2295
 20
27.9329
 30
0.000000
  70
    32
  0
VERTEX
  8
3
  5
17D8
 10
32.2349
 20
27.9361
 30
0.000000
  70
    32
  0
VERTEX
  8
3
  5
17D9
 10
32.2403
 20
27.9392
 30
0.000000
  70
    32
  0
VERTEX
  8
3
  5
17DA
 10
32.2458
 20
27.9424
 30
0.000000
  70
    32
  0
VERTEX
  8
3
  5
17DB
 10
32.2512
 20
27.9456
 30
0.000000
  70
    32
  0
VERTEX
  8
3
  5
17DC
 10
32.2566
 20
27.9488
 30
0.000000
  70
    32
  0
VERTEX
  8
3
  5
17DD
 10
32.2620
 20
27.9520
 30
0.000000
  70
    32
  0
VERTEX
  8
3
  5
17DE
 10
32.2674
 20
27.9552
 30
0.000000
  70
    32
  0
VERTEX
  8
3
  5
17DF
 10
32.2728
 20
27.9585
 30
0.000000
  70
    32
  0
VERTEX
  8
3
  5
17E0
 10
32.2782
 20
27.9617
 30
0.000000
  70
    32
  0
VERTEX
  8
3
  5
17E1
 10
32.2836
 20
27.9649
 30
0.000000
  70
    32
  0
VERTEX
  8
3
  5
17E2
 10
32.2890
 20
27.9682
 30
0.000000
  70
    32
  0
VERTEX
  8
3
  5
17E3
 10
32.2944
 20
27.9714
 30
0.000000
  70
    32
  0
VERTEX
  8
3
  5
17E4
 10
32.2998
 20
27.9747
 30
0.000000
  70
    32
  0
VERTEX
  8
3
  5
17E5
 10
32.3052
 20
27.9780
 30
0.000000
  70
    32
  0
VERTEX
  8
3
  5
17E6
 10
32.3105
 20
27.9812
 30
0.000000
  70
    32
  0
VERTEX
  8
3
  5
17E7
 10
32.3159
 20
27.9845
 30
0.000000
  70
    32
  0
VERTEX
  8
3
  5
17E8
 10
32.3213
 20
27.9878
 30
0.000000
  70
    32
  0
VERTEX
  8
3
  5
17E9
 10
32.3267
 20
27.9911
 30
0.000000
  70
    32
  0
VERTEX
  8
3
  5
17EA
 10
32.3320
 20
27.9944
 30
0.000000
  70
    32
  0
VERTEX
  8
3
  5
17EB
 10
32.3374
 20
27.9977
 30
0.000000
  70
    32
  0
VERTEX
  8
3
  5
17EC
 10
32.3428
 20
28.0011
 30
0.000000
  70
    32
  0
VERTEX
  8
3
  5
17ED
 10
32.3481
 20
28.0044
 30
0.000000
  70
    32
  0
VERTEX
  8
3
  5
17EE
 10
32.3535
 20
28.0077
 30
0.000000
  70
    32
  0
VERTEX
  8
3
  5
17EF
 10
32.3588
 20
28.0111
 30
0.000000
  70
    32
  0
VERTEX
  8
3
  5
17F0
 10
32.3642
 20
28.0144
 30
0.000000
  70
    32
  0
VERTEX
  8
3
  5
17F1
 10
32.3695
 20
28.0178
 30
0.000000
  70
    32
  0
VERTEX
  8
3
  5
17F2
 10
32.3749
 20
28.0212
 30
0.000000
  70
    32
  0
VERTEX
  8
3
  5
17F3
 10
32.3802
 20
28.0245
 30
0.000000
  70
    32
  0
VERTEX
  8
3
  5
17F4
 10
32.3856
 20
28.0279
 30
0.000000
  70
    32
  0
VERTEX
  8
3
  5
17F5
 10
32.3909
 20
28.0313
 30
0.000000
  70
    32
  0
VERTEX
  8
3
  5
17F6
 10
32.3962
 20
28.0347
 30
0.000000
  70
    32
  0
VERTEX
  8
3
  5
17F7
 10
32.4016
 20
28.0381
 30
0.000000
  70
    32
  0
VERTEX
  8
3
  5
17F8
 10
32.4069
 20
28.0415
 30
0.000000
  70
    32
  0
VERTEX
  8
3
  5
17F9
 10
32.4122
 20
28.0449
 30
0.000000
  70
    32
  0
VERTEX
  8
3
  5
17FA
 10
32.4175
 20
28.0484
 30
0.000000
  70
    32
  0
VERTEX
  8
3
  5
17FB
 10
32.4228
 20
28.0518
 30
0.000000
  70
    32
  0
VERTEX
  8
3
  5
17FC
 10
32.4282
 20
28.0552
 30
0.000000
  70
    32
  0
VERTEX
  8
3
  5
17FD
 10
32.4335
 20
28.0587
 30
0.000000
  70
    32
  0
VERTEX
  8
3
  5
17FE
 10
32.4388
 20
28.0622
 30
0.000000
  70
    32
  0
VERTEX
  8
3
  5
17FF
 10
32.4441
 20
28.0656
 30
0.000000
  70
    32
  0
VERTEX
  8
3
  5
1800
 10
32.4494
 20
28.0691
 30
0.000000
  70
    32
  0
VERTEX
  8
3
  5
1801
 10
32.4547
 20
28.0726
 30
0.000000
  70
    32
  0
VERTEX
  8
3
  5
1802
 10
32.4600
 20
28.0761
 30
0.000000
  70
    32
  0
VERTEX
  8
3
  5
1803
 10
32.4653
 20
28.0796
 30
0.000000
  70
    32
  0
VERTEX
  8
3
  5
1804
 10
32.4705
 20
28.0831
 30
0.000000
  70
    32
  0
VERTEX
  8
3
  5
1805
 10
32.4758
 20
28.0866
 30
0.000000
  70
    32
  0
VERTEX
  8
3
  5
1806
 10
32.4811
 20
28.0901
 30
0.000000
  70
    32
  0
VERTEX
  8
3
  5
1807
 10
32.4864
 20
28.0936
 30
0.000000
  70
    32
  0
VERTEX
  8
3
  5
1808
 10
32.4917
 20
28.0972
 30
0.000000
  70
    32
  0
VERTEX
  8
3
  5
1809
 10
32.4969
 20
28.1007
 30
0.000000
  70
    32
  0
VERTEX
  8
3
  5
180A
 10
32.5022
 20
28.1042
 30
0.000000
  70
    32
  0
VERTEX
  8
3
  5
180B
 10
32.5075
 20
28.1078
 30
0.000000
  70
    32
  0
VERTEX
  8
3
  5
180C
 10
32.5127
 20
28.1114
 30
0.000000
  70
    32
  0
VERTEX
  8
3
  5
180D
 10
32.5180
 20
28.1149
 30
0.000000
  70
    32
  0
VERTEX
  8
3
  5
180E
 10
32.5232
 20
28.1185
 30
0.000000
  70
    32
  0
VERTEX
  8
3
  5
180F
 10
32.5285
 20
28.1221
 30
0.000000
  70
    32
  0
VERTEX
  8
3
  5
1810
 10
32.5337
 20
28.1257
 30
0.000000
  70
    32
  0
VERTEX
  8
3
  5
1811
 10
32.5390
 20
28.1293
 30
0.000000
  70
    32
  0
VERTEX
  8
3
  5
1812
 10
32.5442
 20
28.1329
 30
0.000000
  70
    32
  0
VERTEX
  8
3
  5
1813
 10
32.5494
 20
28.1365
 30
0.000000
  70
    32
  0
VERTEX
  8
3
  5
1814
 10
32.5547
 20
28.1401
 30
0.000000
  70
    32
  0
VERTEX
  8
3
  5
1815
 10
32.5599
 20
28.1438
 30
0.000000
  70
    32
  0
VERTEX
  8
3
  5
1816
 10
32.5651
 20
28.1474
 30
0.000000
  70
    32
  0
VERTEX
  8
3
  5
1817
 10
32.5703
 20
28.1511
 30
0.000000
  70
    32
  0
VERTEX
  8
3
  5
1818
 10
32.5756
 20
28.1547
 30
0.000000
  70
    32
  0
VERTEX
  8
3
  5
1819
 10
32.5808
 20
28.1584
 30
0.000000
  70
    32
  0
VERTEX
  8
3
  5
181A
 10
32.5860
 20
28.1620
 30
0.000000
  70
    32
  0
VERTEX
  8
3
  5
181B
 10
32.5912
 20
28.1657
 30
0.000000
  70
    32
  0
VERTEX
  8
3
  5
181C
 10
32.5964
 20
28.1694
 30
0.000000
  70
    32
  0
VERTEX
  8
3
  5
181D
 10
32.6016
 20
28.1731
 30
0.000000
  70
    32
  0
VERTEX
  8
3
  5
181E
 10
32.6068
 20
28.1768
 30
0.000000
  70
    32
  0
VERTEX
  8
3
  5
181F
 10
32.6120
 20
28.1805
 30
0.000000
  70
    32
  0
VERTEX
  8
3
  5
1820
 10
32.6172
 20
28.1842
 30
0.000000
  70
    32
  0
VERTEX
  8
3
  5
1821
 10
32.6224
 20
28.1879
 30
0.000000
  70
    32
  0
VERTEX
  8
3
  5
1822
 10
32.6276
 20
28.1916
 30
0.000000
  70
    32
  0
VERTEX
  8
3
  5
1823
 10
32.6327
 20
28.1954
 30
0.000000
  70
    32
  0
VERTEX
  8
3
  5
1824
 10
32.6379
 20
28.1991
 30
0.000000
  70
    32
  0
VERTEX
  8
3
  5
1825
 10
32.6431
 20
28.2029
 30
0.000000
  70
    32
  0
VERTEX
  8
3
  5
1826
 10
32.6483
 20
28.2066
 30
0.000000
  70
    32
  0
VERTEX
  8
3
  5
1827
 10
32.6534
 20
28.2104
 30
0.000000
  70
    32
  0
VERTEX
  8
3
  5
1828
 10
32.6586
 20
28.2142
 30
0.000000
  70
    32
  0
VERTEX
  8
3
  5
1829
 10
32.6637
 20
28.2179
 30
0.000000
  70
    32
  0
VERTEX
  8
3
  5
182A
 10
32.6689
 20
28.2217
 30
0.000000
  70
    32
  0
VERTEX
  8
3
  5
182B
 10
32.6740
 20
28.2255
 30
0.000000
  70
    32
  0
VERTEX
  8
3
  5
182C
 10
32.6792
 20
28.2293
 30
0.000000
  70
    32
  0
VERTEX
  8
3
  5
182D
 10
32.6843
 20
28.2331
 30
0.000000
  70
    32
  0
VERTEX
  8
3
  5
182E
 10
32.6895
 20
28.2369
 30
0.000000
  70
    32
  0
VERTEX
  8
3
  5
182F
 10
32.6946
 20
28.2408
 30
0.000000
  70
    32
  0
VERTEX
  8
3
  5
1830
 10
32.6998
 20
28.2446
 30
0.000000
  70
    32
  0
VERTEX
  8
3
  5
1831
 10
32.7049
 20
28.2484
 30
0.000000
  70
    32
  0
VERTEX
  8
3
  5
1832
 10
32.7100
 20
28.2523
 30
0.000000
  70
    32
  0
VERTEX
  8
3
  5
1833
 10
32.7151
 20
28.2561
 30
0.000000
  70
    32
  0
VERTEX
  8
3
  5
1834
 10
32.7202
 20
28.2600
 30
0.000000
  70
    32
  0
VERTEX
  8
3
  5
1835
 10
32.7254
 20
28.2638
 30
0.000000
  70
    32
  0
VERTEX
  8
3
  5
1836
 10
32.7305
 20
28.2677
 30
0.000000
  70
    32
  0
VERTEX
  8
3
  5
1837
 10
32.7356
 20
28.2716
 30
0.000000
  70
    32
  0
VERTEX
  8
3
  5
1838
 10
32.7407
 20
28.2755
 30
0.000000
  70
    32
  0
VERTEX
  8
3
  5
1839
 10
32.7458
 20
28.2794
 30
0.000000
  70
    32
  0
VERTEX
  8
3
  5
183A
 10
32.7509
 20
28.2833
 30
0.000000
  70
    32
  0
VERTEX
  8
3
  5
183B
 10
32.7560
 20
28.2872
 30
0.000000
  70
    32
  0
VERTEX
  8
3
  5
183C
 10
32.7611
 20
28.2911
 30
0.000000
  70
    32
  0
VERTEX
  8
3
  5
183D
 10
32.7662
 20
28.2950
 30
0.000000
  70
    32
  0
VERTEX
  8
3
  5
183E
 10
32.7712
 20
28.2990
 30
0.000000
  70
    32
  0
VERTEX
  8
3
  5
183F
 10
32.7763
 20
28.3029
 30
0.000000
  70
    32
  0
VERTEX
  8
3
  5
1840
 10
32.7814
 20
28.3068
 30
0.000000
  70
    32
  0
VERTEX
  8
3
  5
1841
 10
32.7865
 20
28.3108
 30
0.000000
  70
    32
  0
VERTEX
  8
3
  5
1842
 10
32.7915
 20
28.3148
 30
0.000000
  70
    32
  0
VERTEX
  8
3
  5
1843
 10
32.7966
 20
28.3187
 30
0.000000
  70
    32
  0
VERTEX
  8
3
  5
1844
 10
32.8017
 20
28.3227
 30
0.000000
  70
    32
  0
SEQEND
  8
3
  5
1845
  0
ARC
  5
74E
  8
3
 10
32.671455065605599
 20
28.51281049778115
 30
0.0
 40
0.2304211755989903
 50
304.40466385095777
 51
357.38628325545301
  0
ARC
  5
74F
  8
3
 10
31.654993394460199
 20
29.698289580347222
 30
0.0
 40
1.6233339809534459
 50
331.766719396246
 51
7.5157241742648599
  0
ARC
  5
750
  8
3
 10
33.103274395260129
 20
30.000000000000028
 30
0.0
 40
0.1842401335511827
 50
330.97875598133407
 51
29.021244018659441
  0
ARC
  5
751
  8
3
 10
31.462201505056811
 20
30.266469845208611
 30
0.0
 40
1.8108595994902461
 50
354.38792584054249
 51
26.329630588949019
  0
LINE
  5
753
  8
3
 10
28.322697472758591
 20
31.677302527241409
 30
0.0
 11
28.322697356343269
 21
32.80165090225637
 31
0.0
  0
LINE
  5
754
  8
3
 10
28.322697472758591
 20
31.677302527241409
 30
0.0
 11
27.874156106263399
 21
32.125843893736601
 31
0.0
  0
LINE
  5
755
  8
3
 10
28.322697472758591
 20
31.677302527241409
 30
0.0
 11
27.19834909774363
 21
31.677302527241409
 31
0.0
  0
LINE
  5
756
  8
3
 10
31.677302527241409
 20
28.322697472758591
 30
0.0
 11
32.80165090225637
 21
28.322697472758591
 31
0.0
  0
LINE
  5
757
  8
3
 10
31.677302527241409
 20
28.322697472758591
 30
0.0
 11
32.125843893736601
 21
27.874156106263399
 31
0.0
  0
LINE
  5
758
  8
3
 10
31.677302527241409
 20
28.322697472758591
 30
0.0
 11
31.677302643656731
 21
27.19834909774363
 31
0.0
  0
LINE
  5
759
  8
3
 10
31.677302527241409
 20
31.677302527241409
 30
0.0
 11
32.125843893736601
 21
32.125843893736601
 31
0.0
  0
LINE
  5
75A
  8
3
 10
31.677302527241409
 20
31.677302527241409
 30
0.0
 11
31.677302527241409
 21
32.80165090225637
 31
0.0
  0
LINE
  5
75B
  8
3
 10
31.677302527241409
 20
31.677302527241409
 30
0.0
 11
32.80165090225637
 21
31.677302643656731
 31
0.0
  0
LINE
  5
75C
  8
3
 10
28.322697472758591
 20
28.322697472758591
 30
0.0
 11
27.874156106263399
 21
27.874156106263399
 31
0.0
  0
LINE
  5
75D
  8
3
 10
28.322697472758591
 20
28.322697472758591
 30
0.0
 11
28.322697472758591
 21
27.19834909774363
 31
0.0
  0
LINE
  5
75E
  8
3
 10
28.322697472758591
 20
28.322697472758591
 30
0.0
 11
27.19834909774363
 21
28.322697356343269
 31
0.0
  0
POLYLINE
  5
75F
  8
3
 66
     1
 10
0.0
 20
0.0
 30
0.0
 70
   128
  0
VERTEX
  5
F36
  8
3
 10
26.82500003837049
 20
30.0
 30
0.0
  0
VERTEX
  5
F37
  8
3
 10
26.849776478484269
 20
30.024776471036599
 30
0.0
  0
VERTEX
  5
F38
  8
3
 10
26.873600874096152
 20
30.048600795707902
 30
0.0
  0
VERTEX
  5
F39
  8
3
 10
26.89555750228465
 20
30.07055742025841
 30
0.0
  0
VERTEX
  5
F3A
  8
3
 10
26.91480258479714
 20
30.089802560978569
 30
0.0
  0
SEQEND
  5
F3B
  8
3
  0
POLYLINE
  5
760
  8
3
 66
     1
 10
0.0
 20
0.0
 30
0.0
 70
   128
  0
VERTEX
  5
F3C
  8
3
 10
26.82500003837049
 20
30.0
 30
0.0
  0
VERTEX
  5
F3D
  8
3
 10
26.800369350239631
 20
30.024630671759951
 30
0.0
  0
VERTEX
  5
F3E
  8
3
 10
26.77667394280434
 20
30.04832601553062
 30
0.0
  0
VERTEX
  5
F3F
  8
3
 10
26.754813706502318
 20
30.070186222728811
 30
0.0
  0
VERTEX
  5
F40
  8
3
 10
26.73561891540885
 20
30.08938116661739
 30
0.0
  0
SEQEND
  5
F41
  8
3
  0
POLYLINE
  5
761
  8
3
 66
     1
 10
0.0
 20
0.0
 30
0.0
 70
   128
  0
VERTEX
  5
F42
  8
3
 10
33.17499996162951
 20
30.0
 30
0.0
  0
VERTEX
  5
F43
  8
3
 10
33.199630649760358
 20
29.975369328240049
 30
0.0
  0
VERTEX
  5
F44
  8
3
 10
33.223326057195663
 20
29.95167398446938
 30
0.0
  0
VERTEX
  5
F45
  8
3
 10
33.245186293497682
 20
29.929813777271189
 30
0.0
  0
VERTEX
  5
F46
  8
3
 10
33.26438108459115
 20
29.91061883338261
 30
0.0
  0
SEQEND
  5
F47
  8
3
  0
POLYLINE
  5
762
  8
3
 66
     1
 10
0.0
 20
0.0
 30
0.0
 70
   128
  0
VERTEX
  5
F48
  8
3
 10
33.17499996162951
 20
30.0
 30
0.0
  0
VERTEX
  5
F49
  8
3
 10
33.150223521515727
 20
29.975223528963401
 30
0.0
  0
VERTEX
  5
F4A
  8
3
 10
33.126399125903838
 20
29.951399204292098
 30
0.0
  0
VERTEX
  5
F4B
  8
3
 10
33.104442497715347
 20
29.92944257974159
 30
0.0
  0
VERTEX
  5
F4C
  8
3
 10
33.085197415202863
 20
29.910197439021431
 30
0.0
  0
SEQEND
  5
F4D
  8
3
  0
POLYLINE
  5
763
  8
3
 66
     1
 10
0.0
 20
0.0
 30
0.0
 70
   128
  0
VERTEX
  5
F4E
  8
3
 10
30.0
 20
26.82500003837049
 30
0.0
  0
VERTEX
  5
F4F
  8
3
 10
29.975223528963401
 20
26.849776478484269
 30
0.0
  0
VERTEX
  5
F50
  8
3
 10
29.951399204292098
 20
26.873600874096152
 30
0.0
  0
VERTEX
  5
F51
  8
3
 10
29.92944257974159
 20
26.89555750228465
 30
0.0
  0
VERTEX
  5
F52
  8
3
 10
29.910197439021431
 20
26.91480258479714
 30
0.0
  0
SEQEND
  5
F53
  8
3
  0
POLYLINE
  5
764
  8
3
 66
     1
 10
0.0
 20
0.0
 30
0.0
 70
   128
  0
VERTEX
  5
F54
  8
3
 10
30.0
 20
26.82500003837049
 30
0.0
  0
VERTEX
  5
F55
  8
3
 10
29.975369328240049
 20
26.800369350239631
 30
0.0
  0
VERTEX
  5
F56
  8
3
 10
29.95167398446938
 20
26.77667394280434
 30
0.0
  0
VERTEX
  5
F57
  8
3
 10
29.929813777271189
 20
26.754813706502318
 30
0.0
  0
VERTEX
  5
F58
  8
3
 10
29.91061883338261
 20
26.73561891540885
 30
0.0
  0
SEQEND
  5
F59
  8
3
  0
POLYLINE
  5
765
  8
3
 66
     1
 10
0.0
 20
0.0
 30
0.0
 70
   128
  0
VERTEX
  5
F5A
  8
3
 10
30.0
 20
33.17499996162951
 30
0.0
  0
VERTEX
  5
F5B
  8
3
 10
30.024630671759951
 20
33.199630649760358
 30
0.0
  0
VERTEX
  5
F5C
  8
3
 10
30.04832601553062
 20
33.223326057195663
 30
0.0
  0
VERTEX
  5
F5D
  8
3
 10
30.070186222728811
 20
33.245186293497682
 30
0.0
  0
VERTEX
  5
F5E
  8
3
 10
30.08938116661739
 20
33.26438108459115
 30
0.0
  0
SEQEND
  5
F5F
  8
3
  0
POLYLINE
  5
766
  8
3
 66
     1
 10
0.0
 20
0.0
 30
0.0
 70
   128
  0
VERTEX
  5
F60
  8
3
 10
30.0
 20
33.17499996162951
 30
0.0
  0
VERTEX
  5
F61
  8
3
 10
30.024776471036599
 20
33.150223521515727
 30
0.0
  0
VERTEX
  5
F62
  8
3
 10
30.048600795707902
 20
33.126399125903838
 30
0.0
  0
VERTEX
  5
F63
  8
3
 10
30.07055742025841
 20
33.104442497715347
 30
0.0
  0
VERTEX
  5
F64
  8
3
 10
30.089802560978569
 20
33.085197415202863
 30
0.0
  0
SEQEND
  5
F65
  8
3
  0
POLYLINE
  5
767
  8
3
 66
     1
 10
0.0
 20
0.0
 30
0.0
 70
   128
  0
VERTEX
  5
F66
  8
3
 10
33.26438108459115
 20
30.089381181169301
 30
0.0
  0
VERTEX
  5
F67
  8
3
 10
33.245186293497682
 20
30.070186230004762
 30
0.0
  0
VERTEX
  5
F68
  8
3
 10
33.223326057195663
 20
30.048326022806581
 30
0.0
  0
VERTEX
  5
F69
  8
3
 10
33.199630649760358
 20
30.02463067539793
 30
0.0
  0
VERTEX
  5
F6A
  8
3
 10
33.17499996162951
 20
30.0
 30
0.0
  0
SEQEND
  5
F6B
  8
3
  0
POLYLINE
  5
768
  8
3
 66
     1
 10
0.0
 20
0.0
 30
0.0
 70
   128
  0
VERTEX
  5
F6C
  8
3
 10
33.17499996162951
 20
30.0
 30
0.0
  0
VERTEX
  5
F6D
  8
3
 10
33.150223521515727
 20
30.024776471036599
 30
0.0
  0
VERTEX
  5
F6E
  8
3
 10
33.126399125903838
 20
30.048600795707902
 30
0.0
  0
VERTEX
  5
F6F
  8
3
 10
33.104442497715347
 20
30.07055742025841
 30
0.0
  0
VERTEX
  5
F70
  8
3
 10
33.085197415202863
 20
30.089802560978569
 30
0.0
  0
SEQEND
  5
F71
  8
3
  0
POLYLINE
  5
769
  8
3
 66
     1
 10
0.0
 20
0.0
 30
0.0
 70
   128
  0
VERTEX
  5
F72
  8
3
 10
30.089802560978569
 20
26.91480258479714
 30
0.0
  0
VERTEX
  5
F73
  8
3
 10
30.07055742025841
 20
26.89555750228465
 30
0.0
  0
VERTEX
  5
F74
  8
3
 10
30.048600795707902
 20
26.873600874096152
 30
0.0
  0
VERTEX
  5
F75
  8
3
 10
30.024776471036599
 20
26.849776478484269
 30
0.0
  0
VERTEX
  5
F76
  8
3
 10
30.0
 20
26.82500003837049
 30
0.0
  0
SEQEND
  5
F77
  8
3
  0
POLYLINE
  5
76A
  8
3
 66
     1
 10
0.0
 20
0.0
 30
0.0
 70
   128
  0
VERTEX
  5
F78
  8
3
 10
30.0
 20
26.82500003837049
 30
0.0
  0
VERTEX
  5
F79
  8
3
 10
30.024630691768831
 20
26.800369350239631
 30
0.0
  0
VERTEX
  5
F7A
  8
3
 10
30.048326051910411
 20
26.77667394280434
 30
0.0
  0
VERTEX
  5
F7B
  8
3
 10
30.070186273660511
 20
26.754813706502318
 30
0.0
  0
VERTEX
  5
F7C
  8
3
 10
30.089381224825051
 20
26.73561868257821
 30
0.0
  0
SEQEND
  5
F7D
  8
3
  0
POLYLINE
  5
76B
  8
3
 66
     1
 10
0.0
 20
0.0
 30
0.0
 70
   128
  0
VERTEX
  5
F7E
  8
3
 10
26.91480258479714
 20
29.910197439021431
 30
0.0
  0
VERTEX
  5
F7F
  8
3
 10
26.89555750228465
 20
29.92944257974159
 30
0.0
  0
VERTEX
  5
F80
  8
3
 10
26.873600874096152
 20
29.951399204292098
 30
0.0
  0
VERTEX
  5
F81
  8
3
 10
26.849776478484269
 20
29.975223528963401
 30
0.0
  0
VERTEX
  5
F82
  8
3
 10
26.82500003837049
 20
30.0
 30
0.0
  0
SEQEND
  5
F83
  8
3
  0
POLYLINE
  5
76C
  8
3
 66
     1
 10
0.0
 20
0.0
 30
0.0
 70
   128
  0
VERTEX
  5
F84
  8
3
 10
26.82500003837049
 20
30.0
 30
0.0
  0
VERTEX
  5
F85
  8
3
 10
26.800369350239631
 20
29.975369308231159
 30
0.0
  0
VERTEX
  5
F86
  8
3
 10
26.77667394280434
 20
29.951673948089589
 30
0.0
  0
VERTEX
  5
F87
  8
3
 10
26.754813706502318
 20
29.929813726339489
 30
0.0
  0
VERTEX
  5
F88
  8
3
 10
26.73561868257821
 20
29.910618775174949
 30
0.0
  0
SEQEND
  5
F89
  8
3
  0
POLYLINE
  5
76D
  8
3
 66
     1
 10
0.0
 20
0.0
 30
0.0
 70
   128
  0
VERTEX
  5
F8A
  8
3
 10
30.0
 20
33.17499996162951
 30
0.0
  0
VERTEX
  5
F8B
  8
3
 10
29.975369308231159
 20
33.199630649760358
 30
0.0
  0
VERTEX
  5
F8C
  8
3
 10
29.951673948089589
 20
33.223326057195663
 30
0.0
  0
VERTEX
  5
F8D
  8
3
 10
29.929813726339489
 20
33.245186293497682
 30
0.0
  0
VERTEX
  5
F8E
  8
3
 10
29.910618775174949
 20
33.264381317421787
 30
0.0
  0
SEQEND
  5
F8F
  8
3
  0
POLYLINE
  5
76E
  8
3
 66
     1
 10
0.0
 20
0.0
 30
0.0
 70
   128
  0
VERTEX
  5
F90
  8
3
 10
29.910197439021431
 20
33.085197415202863
 30
0.0
  0
VERTEX
  5
F91
  8
3
 10
29.92944257974159
 20
33.104442497715347
 30
0.0
  0
VERTEX
  5
F92
  8
3
 10
29.951399204292098
 20
33.126399125903838
 30
0.0
  0
VERTEX
  5
F93
  8
3
 10
29.975223528963401
 20
33.150223521515727
 30
0.0
  0
VERTEX
  5
F94
  8
3
 10
30.0
 20
33.17499996162951
 30
0.0
  0
SEQEND
  5
F95
  8
3
  0
LINE
  5
76F
  8
3
 10
28.412500019185241
 20
31.587499980814751
 30
0.0
 11
28.322697472758591
 21
31.677302527241409
 31
0.0
  0
POLYLINE
  5
770
  8
3
 66
     1
 10
0.0
 20
0.0
 30
0.0
 70
   128
  0
VERTEX
  5
F96
  8
3
 10
28.322697472758591
 20
31.497697434388101
 30
0.0
  0
VERTEX
  5
F97
  8
3
 10
28.341942555271089
 20
31.516942633315921
 30
0.0
  0
VERTEX
  5
F98
  8
3
 10
28.36389918345958
 20
31.538899261504412
 30
0.0
  0
VERTEX
  5
F99
  8
3
 10
28.387723579071459
 20
31.562723540700969
 30
0.0
  0
VERTEX
  5
F9A
  8
3
 10
28.412500019185241
 20
31.587499980814751
 30
0.0
  0
SEQEND
  5
F9B
  8
3
  0
POLYLINE
  5
771
  8
3
 66
     1
 10
0.0
 20
0.0
 30
0.0
 70
   128
  0
VERTEX
  5
F9C
  8
3
 10
31.677302527241409
 20
28.502302565611899
 30
0.0
  0
VERTEX
  5
F9D
  8
3
 10
31.658057444728911
 20
28.483057366684079
 30
0.0
  0
VERTEX
  5
F9E
  8
3
 10
31.63610081654042
 20
28.461100738495588
 30
0.0
  0
VERTEX
  5
F9F
  8
3
 10
31.612276420928541
 20
28.437276459299031
 30
0.0
  0
VERTEX
  5
FA0
  8
3
 10
31.587499980814751
 20
28.412500019185241
 30
0.0
  0
SEQEND
  5
FA1
  8
3
  0
LINE
  5
772
  8
3
 10
31.587499980814751
 20
28.412500019185241
 30
0.0
 11
31.677302527241409
 21
28.322697472758591
 31
0.0
  0
POLYLINE
  5
773
  8
3
 66
     1
 10
0.0
 20
0.0
 30
0.0
 70
   128
  0
VERTEX
  5
FA2
  8
3
 10
28.502302565611899
 20
28.322697472758591
 30
0.0
  0
VERTEX
  5
FA3
  8
3
 10
28.483057366684079
 20
28.341942555271089
 30
0.0
  0
VERTEX
  5
FA4
  8
3
 10
28.461100738495588
 20
28.36389918345958
 30
0.0
  0
VERTEX
  5
FA5
  8
3
 10
28.437276459299031
 20
28.387723579071459
 30
0.0
  0
VERTEX
  5
FA6
  8
3
 10
28.412500019185241
 20
28.412500019185241
 30
0.0
  0
SEQEND
  5
FA7
  8
3
  0
LINE
  5
774
  8
3
 10
28.412500019185241
 20
28.412500019185241
 30
0.0
 11
28.322697472758591
 21
28.322697472758591
 31
0.0
  0
LINE
  5
775
  8
3
 10
31.587499980814751
 20
31.587499980814751
 30
0.0
 11
31.677302527241409
 21
31.677302527241409
 31
0.0
  0
POLYLINE
  5
776
  8
3
 66
     1
 10
0.0
 20
0.0
 30
0.0
 70
   128
  0
VERTEX
  5
FA8
  8
3
 10
31.497697434388101
 20
31.677302527241409
 30
0.0
  0
VERTEX
  5
FA9
  8
3
 10
31.516942633315921
 20
31.658057444728911
 30
0.0
  0
VERTEX
  5
FAA
  8
3
 10
31.538899261504412
 20
31.63610081654042
 30
0.0
  0
VERTEX
  5
FAB
  8
3
 10
31.562723540700969
 20
31.612276420928541
 30
0.0
  0
VERTEX
  5
FAC
  8
3
 10
31.587499980814751
 20
31.587499980814751
 30
0.0
  0
SEQEND
  5
FAD
  8
3
  0
POLYLINE
  5
777
  8
3
 66
     1
 10
0.0
 20
0.0
 30
0.0
 70
   128
  0
VERTEX
  5
FAE
  8
3
 10
31.587499980814751
 20
31.587499980814751
 30
0.0
  0
VERTEX
  5
FAF
  8
3
 10
31.612276420928541
 20
31.562723540700969
 30
0.0
  0
VERTEX
  5
FB0
  8
3
 10
31.63610081654042
 20
31.538899261504412
 30
0.0
  0
VERTEX
  5
FB1
  8
3
 10
31.658057444728911
 20
31.516942633315921
 30
0.0
  0
VERTEX
  5
FB2
  8
3
 10
31.677302527241409
 20
31.497697434388101
 30
0.0
  0
SEQEND
  5
FB3
  8
3
  0
POLYLINE
  5
778
  8
3
 66
     1
 10
0.0
 20
0.0
 30
0.0
 70
   128
  0
VERTEX
  5
FB4
  8
3
 10
31.587499980814751
 20
28.412500019185241
 30
0.0
  0
VERTEX
  5
FB5
  8
3
 10
31.562723540700969
 20
28.387723579071459
 30
0.0
  0
VERTEX
  5
FB6
  8
3
 10
31.538899261504412
 20
28.36389918345958
 30
0.0
  0
VERTEX
  5
FB7
  8
3
 10
31.516942633315921
 20
28.341942555271089
 30
0.0
  0
VERTEX
  5
FB8
  8
3
 10
31.497697434388101
 20
28.322697472758591
 30
0.0
  0
SEQEND
  5
FB9
  8
3
  0
POLYLINE
  5
779
  8
3
 66
     1
 10
0.0
 20
0.0
 30
0.0
 70
   128
  0
VERTEX
  5
FBA
  8
3
 10
28.412500019185241
 20
28.412500019185241
 30
0.0
  0
VERTEX
  5
FBB
  8
3
 10
28.387723579071459
 20
28.437276459299031
 30
0.0
  0
VERTEX
  5
FBC
  8
3
 10
28.36389918345958
 20
28.461100738495588
 30
0.0
  0
VERTEX
  5
FBD
  8
3
 10
28.341942555271089
 20
28.483057366684079
 30
0.0
  0
VERTEX
  5
FBE
  8
3
 10
28.322697472758591
 20
28.502302565611899
 30
0.0
  0
SEQEND
  5
FBF
  8
3
  0
POLYLINE
  5
77A
  8
3
 66
     1
 10
0.0
 20
0.0
 30
0.0
 70
   128
  0
VERTEX
  5
FC0
  8
3
 10
28.412500019185241
 20
31.587499980814751
 30
0.0
  0
VERTEX
  5
FC1
  8
3
 10
28.437276459299031
 20
31.612276420928541
 30
0.0
  0
VERTEX
  5
FC2
  8
3
 10
28.461100738495588
 20
31.63610081654042
 30
0.0
  0
VERTEX
  5
FC3
  8
3
 10
28.483057366684079
 20
31.658057444728911
 30
0.0
  0
VERTEX
  5
FC4
  8
3
 10
28.502302565611899
 20
31.677302527241409
 30
0.0
  0
SEQEND
  5
FC5
  8
3
  0
POLYLINE
  5
77B
  8
3
 66
     1
 10
0.0
 20
0.0
 30
0.0
 70
   128
  0
VERTEX
  5
FC6
  8
3
 10
31.677302527241409
 20
29.910197439021431
 30
0.0
  0
VERTEX
  5
FC7
  8
3
 10
31.658057444728911
 20
29.92944257974159
 30
0.0
  0
VERTEX
  5
FC8
  8
3
 10
31.63610081654042
 20
29.951399204292098
 30
0.0
  0
VERTEX
  5
FC9
  8
3
 10
31.612276420928541
 20
29.975223528963401
 30
0.0
  0
VERTEX
  5
FCA
  8
3
 10
31.587499980814751
 20
30.0
 30
0.0
  0
SEQEND
  5
FCB
  8
3
  0
POLYLINE
  5
77C
  8
3
 66
     1
 10
0.0
 20
0.0
 30
0.0
 70
   128
  0
VERTEX
  5
FCC
  8
3
 10
31.677302527241409
 20
30.089802560978569
 30
0.0
  0
VERTEX
  5
FCD
  8
3
 10
31.658057444728911
 20
30.07055742025841
 30
0.0
  0
VERTEX
  5
FCE
  8
3
 10
31.63610081654042
 20
30.048600795707902
 30
0.0
  0
VERTEX
  5
FCF
  8
3
 10
31.612276420928541
 20
30.024776471036599
 30
0.0
  0
VERTEX
  5
FD0
  8
3
 10
31.587499980814751
 20
30.0
 30
0.0
  0
SEQEND
  5
FD1
  8
3
  0
POLYLINE
  5
77D
  8
3
 66
     1
 10
0.0
 20
0.0
 30
0.0
 70
   128
  0
VERTEX
  5
FD2
  8
3
 10
31.497697434388101
 20
30.089802560978569
 30
0.0
  0
VERTEX
  5
FD3
  8
3
 10
31.516942633315921
 20
30.07055742025841
 30
0.0
  0
VERTEX
  5
FD4
  8
3
 10
31.538899261504412
 20
30.048600795707902
 30
0.0
  0
VERTEX
  5
FD5
  8
3
 10
31.562723540700969
 20
30.024776471036599
 30
0.0
  0
VERTEX
  5
FD6
  8
3
 10
31.587499980814751
 20
30.0
 30
0.0
  0
SEQEND
  5
FD7
  8
3
  0
LINE
  5
77E
  8
3
 10
31.497697434388101
 20
31.497697434388101
 30
0.0
 11
31.587499980814751
 21
31.587499980814751
 31
0.0
  0
POLYLINE
  5
77F
  8
3
 66
     1
 10
0.0
 20
0.0
 30
0.0
 70
   128
  0
VERTEX
  5
FD8
  8
3
 10
30.0
 20
31.587499980814751
 30
0.0
  0
VERTEX
  5
FD9
  8
3
 10
30.024776471036599
 20
31.612276420928541
 30
0.0
  0
VERTEX
  5
FDA
  8
3
 10
30.048600795707902
 20
31.63610081654042
 30
0.0
  0
VERTEX
  5
FDB
  8
3
 10
30.07055742025841
 20
31.658057444728911
 30
0.0
  0
VERTEX
  5
FDC
  8
3
 10
30.089802560978569
 20
31.677302527241409
 30
0.0
  0
SEQEND
  5
FDD
  8
3
  0
POLYLINE
  5
780
  8
3
 66
     1
 10
0.0
 20
0.0
 30
0.0
 70
   128
  0
VERTEX
  5
FDE
  8
3
 10
30.0
 20
31.587499980814751
 30
0.0
  0
VERTEX
  5
FDF
  8
3
 10
29.975223528963401
 20
31.612276420928541
 30
0.0
  0
VERTEX
  5
FE0
  8
3
 10
29.951399204292098
 20
31.63610081654042
 30
0.0
  0
VERTEX
  5
FE1
  8
3
 10
29.92944257974159
 20
31.658057444728911
 30
0.0
  0
VERTEX
  5
FE2
  8
3
 10
29.910197439021431
 20
31.677302527241409
 30
0.0
  0
SEQEND
  5
FE3
  8
3
  0
POLYLINE
  5
781
  8
3
 66
     1
 10
0.0
 20
0.0
 30
0.0
 70
   128
  0
VERTEX
  5
FE4
  8
3
 10
31.587499980814751
 20
30.0
 30
0.0
  0
VERTEX
  5
FE5
  8
3
 10
31.562723540700969
 20
29.975223528963401
 30
0.0
  0
VERTEX
  5
FE6
  8
3
 10
31.538899261504412
 20
29.951399204292098
 30
0.0
  0
VERTEX
  5
FE7
  8
3
 10
31.516942633315921
 20
29.92944257974159
 30
0.0
  0
VERTEX
  5
FE8
  8
3
 10
31.497697434388101
 20
29.910197439021431
 30
0.0
  0
SEQEND
  5
FE9
  8
3
  0
LINE
  5
782
  8
3
 10
30.0
 20
30.0
 30
0.0
 11
30.089802560978569
 21
29.910197439021431
 31
0.0
  0
LINE
  5
783
  8
3
 10
30.0
 20
30.0
 30
0.0
 11
30.089802560978569
 21
30.089802560978569
 31
0.0
  0
POLYLINE
  5
784
  8
3
 66
     1
 10
0.0
 20
0.0
 30
0.0
 70
   128
  0
VERTEX
  5
FEA
  8
3
 10
30.0
 20
31.587499980814751
 30
0.0
  0
VERTEX
  5
FEB
  8
3
 10
30.024776471036599
 20
31.562723540700969
 30
0.0
  0
VERTEX
  5
FEC
  8
3
 10
30.048600795707902
 20
31.538899261504412
 30
0.0
  0
VERTEX
  5
FED
  8
3
 10
30.07055742025841
 20
31.516942633315921
 30
0.0
  0
VERTEX
  5
FEE
  8
3
 10
30.089802560978569
 20
31.497697434388101
 30
0.0
  0
SEQEND
  5
FEF
  8
3
  0
POLYLINE
  5
785
  8
3
 66
     1
 10
0.0
 20
0.0
 30
0.0
 70
   128
  0
VERTEX
  5
FF0
  8
3
 10
30.089802560978569
 20
28.502302565611899
 30
0.0
  0
VERTEX
  5
FF1
  8
3
 10
30.07055742025841
 20
28.483057366684079
 30
0.0
  0
VERTEX
  5
FF2
  8
3
 10
30.048600795707902
 20
28.461100738495588
 30
0.0
  0
VERTEX
  5
FF3
  8
3
 10
30.024776471036599
 20
28.437276459299031
 30
0.0
  0
VERTEX
  5
FF4
  8
3
 10
30.0
 20
28.412500019185241
 30
0.0
  0
SEQEND
  5
FF5
  8
3
  0
LINE
  5
786
  8
3
 10
31.497697434388101
 20
28.502302565611899
 30
0.0
 11
31.587499980814751
 21
28.412500019185241
 31
0.0
  0
POLYLINE
  5
787
  8
3
 66
     1
 10
0.0
 20
0.0
 30
0.0
 70
   128
  0
VERTEX
  5
FF6
  8
3
 10
30.0
 20
28.412500019185241
 30
0.0
  0
VERTEX
  5
FF7
  8
3
 10
30.024776471036599
 20
28.387723579071459
 30
0.0
  0
VERTEX
  5
FF8
  8
3
 10
30.048600795707902
 20
28.36389918345958
 30
0.0
  0
VERTEX
  5
FF9
  8
3
 10
30.07055742025841
 20
28.341942555271089
 30
0.0
  0
VERTEX
  5
FFA
  8
3
 10
30.089802560978569
 20
28.322697472758591
 30
0.0
  0
SEQEND
  5
FFB
  8
3
  0
LINE
  5
788
  8
3
 10
30.0
 20
30.0
 30
0.0
 11
29.910197439021431
 21
30.089802560978569
 31
0.0
  0
POLYLINE
  5
789
  8
3
 66
     1
 10
0.0
 20
0.0
 30
0.0
 70
   128
  0
VERTEX
  5
FFC
  8
3
 10
29.910197439021431
 20
31.497697434388101
 30
0.0
  0
VERTEX
  5
FFD
  8
3
 10
29.92944257974159
 20
31.516942633315921
 30
0.0
  0
VERTEX
  5
FFE
  8
3
 10
29.951399204292098
 20
31.538899261504412
 30
0.0
  0
VERTEX
  5
FFF
  8
3
 10
29.975223528963401
 20
31.562723540700969
 30
0.0
  0
VERTEX
  5
1000
  8
3
 10
30.0
 20
31.587499980814751
 30
0.0
  0
SEQEND
  5
1001
  8
3
  0
LINE
  5
78A
  8
3
 10
28.502302565611899
 20
31.497697434388101
 30
0.0
 11
28.412500019185241
 21
31.587499980814751
 31
0.0
  0
POLYLINE
  5
78B
  8
3
 66
     1
 10
0.0
 20
0.0
 30
0.0
 70
   128
  0
VERTEX
  5
1002
  8
3
 10
28.412500019185241
 20
30.0
 30
0.0
  0
VERTEX
  5
1003
  8
3
 10
28.437276459299031
 20
30.024776471036599
 30
0.0
  0
VERTEX
  5
1004
  8
3
 10
28.461100738495588
 20
30.048600795707902
 30
0.0
  0
VERTEX
  5
1005
  8
3
 10
28.483057366684079
 20
30.07055742025841
 30
0.0
  0
VERTEX
  5
1006
  8
3
 10
28.502302565611899
 20
30.089802560978569
 30
0.0
  0
SEQEND
  5
1007
  8
3
  0
POLYLINE
  5
78C
  8
3
 66
     1
 10
0.0
 20
0.0
 30
0.0
 70
   128
  0
VERTEX
  5
1008
  8
3
 10
28.412500019185241
 20
30.0
 30
0.0
  0
VERTEX
  5
1009
  8
3
 10
28.387723579071459
 20
30.024776471036599
 30
0.0
  0
VERTEX
  5
100A
  8
3
 10
28.36389918345958
 20
30.048600795707902
 30
0.0
  0
VERTEX
  5
100B
  8
3
 10
28.341942555271089
 20
30.07055742025841
 30
0.0
  0
VERTEX
  5
100C
  8
3
 10
28.322697472758591
 20
30.089802560978569
 30
0.0
  0
SEQEND
  5
100D
  8
3
  0
POLYLINE
  5
78D
  8
3
 66
     1
 10
0.0
 20
0.0
 30
0.0
 70
   128
  0
VERTEX
  5
100E
  8
3
 10
30.0
 20
28.412500019185241
 30
0.0
  0
VERTEX
  5
100F
  8
3
 10
29.975223528963401
 20
28.437276459299031
 30
0.0
  0
VERTEX
  5
1010
  8
3
 10
29.951399204292098
 20
28.461100738495588
 30
0.0
  0
VERTEX
  5
1011
  8
3
 10
29.92944257974159
 20
28.483057366684079
 30
0.0
  0
VERTEX
  5
1012
  8
3
 10
29.910197439021431
 20
28.502302565611899
 30
0.0
  0
SEQEND
  5
1013
  8
3
  0
LINE
  5
78E
  8
3
 10
30.0
 20
30.0
 30
0.0
 11
29.910197439021431
 21
29.910197439021431
 31
0.0
  0
POLYLINE
  5
78F
  8
3
 66
     1
 10
0.0
 20
0.0
 30
0.0
 70
   128
  0
VERTEX
  5
1014
  8
3
 10
30.0
 20
28.412500019185241
 30
0.0
  0
VERTEX
  5
1015
  8
3
 10
29.975223528963401
 20
28.387723579071459
 30
0.0
  0
VERTEX
  5
1016
  8
3
 10
29.951399204292098
 20
28.36389918345958
 30
0.0
  0
VERTEX
  5
1017
  8
3
 10
29.92944257974159
 20
28.341942555271089
 30
0.0
  0
VERTEX
  5
1018
  8
3
 10
29.910197439021431
 20
28.322697472758591
 30
0.0
  0
SEQEND
  5
1019
  8
3
  0
POLYLINE
  5
790
  8
3
 66
     1
 10
0.0
 20
0.0
 30
0.0
 70
   128
  0
VERTEX
  5
101A
  8
3
 10
28.502302565611899
 20
29.910197439021431
 30
0.0
  0
VERTEX
  5
101B
  8
3
 10
28.483057366684079
 20
29.92944257974159
 30
0.0
  0
VERTEX
  5
101C
  8
3
 10
28.461100738495588
 20
29.951399204292098
 30
0.0
  0
VERTEX
  5
101D
  8
3
 10
28.437276459299031
 20
29.975223528963401
 30
0.0
  0
VERTEX
  5
101E
  8
3
 10
28.412500019185241
 20
30.0
 30
0.0
  0
SEQEND
  5
101F
  8
3
  0
LINE
  5
791
  8
3
 10
28.502302565611899
 20
28.502302565611899
 30
0.0
 11
28.412500019185241
 21
28.412500019185241
 31
0.0
  0
POLYLINE
  5
792
  8
3
 66
     1
 10
0.0
 20
0.0
 30
0.0
 70
   128
  0
VERTEX
  5
1020
  8
3
 10
28.412500019185241
 20
30.0
 30
0.0
  0
VERTEX
  5
1021
  8
3
 10
28.387723579071459
 20
29.975223528963401
 30
0.0
  0
VERTEX
  5
1022
  8
3
 10
28.36389918345958
 20
29.951399204292098
 30
0.0
  0
VERTEX
  5
1023
  8
3
 10
28.341942555271089
 20
29.92944257974159
 30
0.0
  0
VERTEX
  5
1024
  8
3
 10
28.322697472758591
 20
29.910197439021431
 30
0.0
  0
SEQEND
  5
1025
  8
3
  0
LINE
  5
81C
  8
1
 10
136.50000037252909
 20
30.000000000000028
 30
0.0
 11
123.5000003725289
 21
30.000000000000028
 31
0.0
  0
LINE
  5
822
  8
0
 10
104.40000037252899
 20
34.000000000000057
 30
0.0
 11
56.320800045505131
 21
34.000000000000028
 31
0.0
  0
LINE
  5
823
  8
0
 10
104.40000037252899
 20
26.00000000000006
 30
0.0
 11
56.320800045505251
 21
26.0
 31
0.0
  0
LINE
  5
824
  8
3
 10
104.79057782963569
 20
26.676499999999919
 30
0.0
 11
55.695510281739907
 21
26.676499999999919
 31
0.0
  0
LINE
  5
825
  8
3
 10
104.79057782963559
 20
33.323500000000188
 30
0.0
 11
55.695510281739942
 21
33.323500000000188
 31
0.0
  0
LINE
  5
826
  8
0
 10
104.40000037252899
 20
34.000000000000057
 30
0.0
 11
104.40000037252899
 21
26.00000000000006
 31
0.0
  0
LINE
  5
827
  8
0
 10
105.000000372529
 20
32.960769515458651
 30
0.0
 11
105.000000372529
 21
27.039230484541349
 31
0.0
  0
LINE
  5
82A
  8
0
 10
105.000000372529
 20
27.039230484541349
 30
0.0
 11
104.40000037252899
 21
26.0
 31
0.0
  0
LINE
  5
82B
  8
0
 10
105.000000372529
 20
32.960769515458651
 30
0.0
 11
104.40000037252889
 21
34.0
 31
0.0
  0
LINE
  5
832
  8
2
 10
105.000000372529
 20
29.13397400000003
 30
0.0
 11
101.000000372529
 21
29.13397400000003
 31
0.0
  0
LINE
  5
833
  8
2
 10
105.000000372529
 20
28.267949000000019
 30
0.0
 11
101.000000372529
 21
28.267949000000019
 31
0.0
  0
LINE
  5
834
  8
2
 10
101.000000372529
 20
31.732051000000041
 30
0.0
 11
101.000000372529
 21
28.267949000000019
 31
0.0
  0
LINE
  5
835
  8
2
 10
101.000000372529
 20
28.267949000000019
 30
0.0
 11
100.000000372529
 21
30.000000000000028
 31
0.0
  0
LINE
  5
836
  8
2
 10
105.000000372529
 20
31.732051000000041
 30
0.0
 11
101.000000372529
 21
31.732051000000041
 31
0.0
  0
LINE
  5
837
  8
2
 10
105.000000372529
 20
30.866025000000011
 30
0.0
 11
101.000000372529
 21
30.866025000000011
 31
0.0
  0
LINE
  5
838
  8
2
 10
101.000000372529
 20
31.732051000000041
 30
0.0
 11
100.000000372529
 21
30.000000000000028
 31
0.0
  0
LINE
  5
83F
  8
1
 10
130.000000372529
 20
36.500000000000092
 30
0.0
 11
130.000000372529
 21
23.499999999999972
 31
0.0
  0
CIRCLE
  5
840
  8
3
 10
130.000000372529
 20
30.000000000000028
 30
0.0
 40
3.3235000000001942
  0
CIRCLE
  5
841
  8
0
 10
130.000000372529
 20
30.000000000000028
 30
0.0
 40
4.000000000000056
  0
LINE
  5
848
  8
0
 10
130.000000372529
 20
31.732051000000041
 30
0.0
 11
131.500000372529
 21
30.866025000000011
 31
0.0
  0
LINE
  5
849
  8
0
 10
128.500000372529
 20
30.866025000000011
 30
0.0
 11
130.000000372529
 21
31.732051000000041
 31
0.0
  0
LINE
  5
84A
  8
0
 10
128.500000372529
 20
29.13397400000003
 30
0.0
 11
128.500000372529
 21
30.866025000000011
 31
0.0
  0
LINE
  5
84B
  8
0
 10
130.000000372529
 20
28.267949000000019
 30
0.0
 11
128.500000372529
 21
29.13397400000003
 31
0.0
  0
LINE
  5
84C
  8
0
 10
131.500000372529
 20
29.13397400000003
 30
0.0
 11
130.000000372529
 21
28.267949000000019
 31
0.0
  0
LINE
  5
84D
  8
0
 10
131.500000372529
 20
30.866025000000011
 30
0.0
 11
131.500000372529
 21
29.13397400000003
 31
0.0
  0
LINE
  5
85B
  8
1
 10
107.500000372529
 20
30.0
 30
0.0
 11
52.5
 21
30.0
 31
0.0
  0
LINE
  5
85C
  8
1
 10
36.500000000000057
 20
30.0
 30
0.0
 11
23.49999999999994
 21
30.0
 31
0.0
  0
LINE
  5
85D
  8
1
 10
30.0
 20
36.500000000000057
 30
0.0
 11
30.0
 21
23.49999999999994
 31
0.0
  0
CIRCLE
  5
85E
  8
3
 10
30.0
 20
30.0
 30
0.0
 40
3.3235000000001942
  0
CIRCLE
  5
85F
  8
0
 10
30.0
 20
30.0
 30
0.0
 40
4.000000000000056
  0
ENDSEC
  0
EOF
