  0
SECTION
  2
HEADER
  9
$ACADVER
  1
AC1009
  9
$INSBASE
 10
0.0
 20
0.0
 30
0.0
  9
$EXTMIN
 10
0.0
 20
-1.4802182810368341
 30
0.0
  9
$EXTMAX
 10
139.8867077998751
 20
115.2506847872673
 30
0.0
  9
$LIMMIN
 10
0.0
 20
0.0
  9
$LIMMAX
 10
187.5
 20
135.0
  9
$ORTHOMODE
 70
     1
  9
$REGENMODE
 70
     1
  9
$FILLMODE
 70
     1
  9
$QTEXTMODE
 70
     0
  9
$MIRRTEXT
 70
     0
  9
$DRAGMODE
 70
     2
  9
$LTSCALE
 40
5.0
  9
$OSMODE
 70
    55
  9
$ATTMODE
 70
     1
  9
$TEXTSIZE
 40
1.6000000000000001
  9
$TRACEWID
 40
0.05
  9
$TEXTSTYLE
  7
STANDARD
  9
$CLAYER
  8
0
  9
$CELTYPE
  6
BYLAYER
  9
$CECOLOR
 62
   256
  9
$DIMSCALE
 40
0.5
  9
$DIMASZ
 40
3.0
  9
$DIMEXO
 40
2.0
  9
$DIMDLI
 40
10.0
  9
$DIMRND
 40
0.0
  9
$DIMDLE
 40
0.0
  9
$DIMEXE
 40
2.0
  9
$DIMTP
 40
0.0
  9
$DIMTM
 40
0.0
  9
$DIMTXT
 40
3.0
  9
$DIMCEN
 40
0.09
  9
$DIMTSZ
 40
0.0
  9
$DIMTOL
 70
     0
  9
$DIMLIM
 70
     0
  9
$DIMTIH
 70
     0
  9
$DIMTOH
 70
     0
  9
$DIMSE1
 70
     0
  9
$DIMSE2
 70
     0
  9
$DIMTAD
 70
     1
  9
$DIMZIN
 70
     0
  9
$DIMBLK
  1

  9
$DIMASO
 70
     0
  9
$DIMSHO
 70
     0
  9
$DIMPOST
  1

  9
$DIMAPOST
  1

  9
$DIMALT
 70
     0
  9
$DIMALTD
 70
     2
  9
$DIMALTF
 40
25.399999999999999
  9
$DIMLFAC
 40
1.0
  9
$DIMTOFL
 70
     1
  9
$DIMTVP
 40
1.6000000000000001
  9
$DIMTIX
 70
     1
  9
$DIMSOXD
 70
     0
  9
$DIMSAH
 70
     0
  9
$DIMBLK1
  1

  9
$DIMBLK2
  1

  9
$DIMSTYLE
  2
STANDARD
  9
$DIMCLRD
 70
     0
  9
$DIMCLRE
 70
     0
  9
$DIMCLRT
 70
     0
  9
$DIMTFAC
 40
1.0
  9
$DIMGAP
 40
0.09
  9
$LUNITS
 70
     2
  9
$LUPREC
 70
     4
  9
$SKETCHINC
 40
0.1
  9
$FILLETRAD
 40
0.0
  9
$AUNITS
 70
     0
  9
$AUPREC
 70
     0
  9
$MENU
  1
E:\r13\win\SUPPORT\ACAD
  9
$ELEVATION
 40
0.0
  9
$PELEVATION
 40
0.0
  9
$THICKNESS
 40
0.0
  9
$LIMCHECK
 70
     0
  9
$BLIPMODE
 70
     0
  9
$CHAMFERA
 40
0.0
  9
$CHAMFERB
 40
0.0
  9
$SKPOLY
 70
     0
  9
$TDCREATE
 40
2449840.594479166
  9
$TDUPDATE
 40
2456598.6921549542
  9
$TDINDWG
 40
0.0079052778
  9
$TDUSRTIMER
 40
0.0079052778
  9
$USRTIMER
 70
     1
  9
$ANGBASE
 50
0.0
  9
$ANGDIR
 70
     0
  9
$PDMODE
 70
     0
  9
$PDSIZE
 40
0.0
  9
$PLINEWID
 40
0.0
  9
$COORDS
 70
     1
  9
$SPLFRAME
 70
     0
  9
$SPLINETYPE
 70
     6
  9
$SPLINESEGS
 70
     8
  9
$ATTDIA
 70
     0
  9
$ATTREQ
 70
     1
  9
$HANDLING
 70
     1
  9
$HANDSEED
  5
395
  9
$SURFTAB1
 70
     6
  9
$SURFTAB2
 70
     6
  9
$SURFTYPE
 70
     6
  9
$SURFU
 70
     6
  9
$SURFV
 70
     6
  9
$UCSNAME
  2

  9
$UCSORG
 10
0.0
 20
0.0
 30
0.0
  9
$UCSXDIR
 10
1.0
 20
0.0
 30
0.0
  9
$UCSYDIR
 10
0.0
 20
1.0
 30
0.0
  9
$PUCSNAME
  2

  9
$PUCSORG
 10
0.0
 20
0.0
 30
0.0
  9
$PUCSXDIR
 10
1.0
 20
0.0
 30
0.0
  9
$PUCSYDIR
 10
0.0
 20
1.0
 30
0.0
  9
$USERI1
 70
     0
  9
$USERI2
 70
     1
  9
$USERI3
 70
     1
  9
$USERI4
 70
     0
  9
$USERI5
 70
     0
  9
$USERR1
 40
0.0
  9
$USERR2
 40
0.0
  9
$USERR3
 40
0.0
  9
$USERR4
 40
0.0
  9
$USERR5
 40
0.0
  9
$WORLDVIEW
 70
     1
  9
$SHADEDGE
 70
     3
  9
$SHADEDIF
 70
    70
  9
$TILEMODE
 70
     1
  9
$MAXACTVP
 70
    16
  9
$PLIMCHECK
 70
     0
  9
$PEXTMIN
 10
1.0000000000000000E+020
 20
1.0000000000000000E+020
 30
1.0000000000000000E+020
  9
$PEXTMAX
 10
-1.0000000000000000E+020
 20
-1.0000000000000000E+020
 30
-1.0000000000000000E+020
  9
$PLIMMIN
 10
0.0
 20
0.0
  9
$PLIMMAX
 10
12.0
 20
9.0
  9
$UNITMODE
 70
     0
  9
$VISRETAIN
 70
     0
  9
$PLINEGEN
 70
     0
  9
$PSLTSCALE
 70
     0
  0
ENDSEC
  0
SECTION
  2
TABLES
  0
TABLE
  2
VPORT
 70
     1
  0
VPORT
  2
*ACTIVE
 70
     0
 10
0.0
 20
0.0
 11
1.0
 21
1.0
 12
93.74713919532617
 22
87.458386271734256
 13
0.0
 23
0.0
 14
5.0
 24
5.0
 15
5.0
 25
5.0
 16
0.0
 26
0.0
 36
1.0
 17
0.0
 27
0.0
 37
0.0
 40
179.46013949787169
 41
1.7807262569832401
 42
50.0
 43
0.0
 44
0.0
 50
0.0
 51
0.0
 71
     0
 72
   100
 73
     1
 74
     0
 75
     0
 76
     0
 77
     0
 78
     0
  0
ENDTAB
  0
TABLE
  2
LTYPE
 70
     4
  0
LTYPE
  2
CONTINUOUS
 70
     0
  3
Solid Line
 72
    65
 73
     0
 40
0.0
  0
LTYPE
  2
CENTER
 70
     0
  3
____ _ ____ _ ____ _ ____ _ ____ _ ____ _ ____
 72
    65
 73
     4
 40
2.0
 49
1.25
 49
-0.25
 49
0.25
 49
-0.25
  0
LTYPE
  2
HIDDEN
 70
     0
  3
_ _ _ _ _ _ _ _ _ _ _ _ _ _ _ _ _ _ _ _ _ _ _
 72
    65
 73
     2
 40
0.375
 49
0.25
 49
-0.125
  0
LTYPE
  2
PHANTOM2
 70
     0
  3
___ _ _ ___ _ _ ___ _ _ ___ _ _
 72
    65
 73
     6
 40
1.25
 49
0.625
 49
-0.125
 49
0.125
 49
-0.125
 49
0.125
 49
-0.125
  0
ENDTAB
  0
TABLE
  2
LAYER
 70
     4
  0
LAYER
  2
0
 70
     0
 62
     7
  6
CONTINUOUS
  0
LAYER
  2
1
 70
     0
 62
     1
  6
CENTER
  0
LAYER
  2
2
 70
     0
 62
     2
  6
HIDDEN
  0
LAYER
  2
3
 70
     0
 62
     3
  6
CONTINUOUS
  0
ENDTAB
  0
TABLE
  2
STYLE
 70
     2
  0
STYLE
  2
STANDARD
 70
     0
 40
0.0
 41
1.0
 50
0.0
 71
     0
 42
1.6000000000000001
  3
TXT
  4
BIGFONT
  0
STYLE
  2
STANDARD1
 70
     0
 40
0.0
 41
1.0
 50
0.0
 71
     0
 42
3.0
  3
txt
  4

  0
ENDTAB
  0
TABLE
  2
VIEW
 70
     1
  0
VIEW
  2
ALL
 70
     0
 40
135.0
 10
110.49579799999999
 20
67.5
 41
0.0
 11
0.0
 21
0.0
 31
1.0
 12
0.0
 22
0.0
 32
0.0
 42
0.0
 43
0.0
 44
0.0
 50
0.0
 71
     0
  0
ENDTAB
  0
TABLE
  2
UCS
 70
     0
  0
ENDTAB
  0
TABLE
  2
APPID
 70
     3
  0
APPID
  2
ACAD
 70
     0
  0
APPID
  2
ACAD_MLEADERVER
 70
     0
  0
APPID
  2
ACAD_NAV_VCDISPLAY
 70
     0
  0
ENDTAB
  0
TABLE
  2
DIMSTYLE
 70
     1
  0
DIMSTYLE
  2
STANDARD
 70
     0
  3

  4

  5

  6

  7

 40
1.0
 41
0.18
 42
0.0625
 43
0.38
 44
0.18
 45
0.0
 46
0.0
 47
0.0
 48
0.0
140
0.18
141
0.09
142
0.0
143
25.399999999999999
144
1.0
145
0.0
146
1.0
147
0.09
 71
     0
 72
     0
 73
     1
 74
     1
 75
     0
 76
     0
 77
     0
 78
     0
170
     0
171
     2
172
     0
173
     0
174
     0
175
     0
176
     0
177
     0
178
     0
  0
ENDTAB
  0
ENDSEC
  0
SECTION
  2
BLOCKS
  0
BLOCK
  8
0
  2
$MODEL_SPACE
 70
     0
 10
0.0
 20
0.0
 30
0.0
  3
$MODEL_SPACE
  1

  0
ENDBLK
  5
247
  8
0
  0
BLOCK
 67
     1
  8
0
  2
$PAPER_SPACE
 70
     0
 10
0.0
 20
0.0
 30
0.0
  3
$PAPER_SPACE
  1

  0
ENDBLK
  5
245
 67
     1
  8
0
  0
BLOCK
  8
0
  2
STDGX5
 70
     0
 10
0.0
 20
0.0
 30
0.0
  3
STDGX5
  1

  0
ENDBLK
  5
41
  8
0
  0
ENDSEC
  0
SECTION
  2
ENTITIES
  0
INSERT
  5
D1
  8
0
  2
STDGX5
 10
0.0
 20
0.0
 30
0.0
  0
LINE
  5
D3
  8
0
 10
137.38670779987521
 20
82.393877339078017
 30
0.0
 11
137.38670779987521
 21
67.993877339078026
 31
0.0
  0
LINE
  5
D5
  8
0
 10
126.5307077998752
 20
83.193877339078014
 30
0.0
 11
136.5867077998752
 21
83.193877339078014
 31
0.0
  0
LINE
  5
D6
  8
0
 10
137.38670779987521
 20
82.393877339078017
 30
0.0
 11
136.5867077998752
 21
83.193877339078014
 31
0.0
  0
LINE
  5
D7
  8
0
 10
125.3867077998751
 20
78.24187733907803
 30
0.0
 11
126.9107077998752
 21
76.717877339078029
 31
0.0
  0
LINE
  5
D8
  8
0
 10
126.9107077998752
 20
79.765877339078031
 30
0.0
 11
125.3867077998751
 21
78.24187733907803
 31
0.0
  0
LINE
  5
D9
  8
0
 10
125.3867077998751
 20
81.289877339078046
 30
0.0
 11
126.9107077998752
 21
79.765877339078031
 31
0.0
  0
LINE
  5
DA
  8
0
 10
125.3867077998751
 20
72.145877339078027
 30
0.0
 11
126.9107077998752
 21
73.669877339078013
 31
0.0
  0
LINE
  5
DB
  8
0
 10
126.9107077998752
 20
73.669877339078013
 30
0.0
 11
125.3867077998751
 21
75.193877339078028
 31
0.0
  0
LINE
  5
DC
  8
0
 10
125.3867077998751
 20
75.193877339078028
 30
0.0
 11
126.9107077998752
 21
76.717877339078029
 31
0.0
  0
LINE
  5
DD
  8
0
 10
126.5307077998752
 20
67.193877339078028
 30
0.0
 11
136.5867077998752
 21
67.193877339078028
 31
0.0
  0
LINE
  5
DE
  8
0
 10
137.38670779987521
 20
67.993877339078026
 30
0.0
 11
136.5867077998752
 21
67.193877339078028
 31
0.0
  0
LINE
  5
DF
  8
0
 10
136.5867077998752
 20
83.193877339078014
 30
0.0
 11
136.5867077998752
 21
67.193877339078028
 31
0.0
  0
LINE
  5
E4
  8
0
 10
126.5307077998752
 20
83.193877339078014
 30
0.0
 11
126.9107077998752
 21
82.813877339078033
 31
0.0
  0
LINE
  5
E5
  8
0
 10
126.9107077998752
 20
82.813877339078033
 30
0.0
 11
125.3867077998751
 21
81.289877339078046
 31
0.0
  0
LINE
  5
E6
  8
0
 10
126.9107077998752
 20
67.573877339078024
 30
0.0
 11
125.3867077998751
 21
69.097877339078025
 31
0.0
  0
LINE
  5
E7
  8
0
 10
126.5307077998752
 20
67.193877339078028
 30
0.0
 11
126.9107077998752
 21
67.573877339078024
 31
0.0
  0
LINE
  5
E8
  8
0
 10
125.3867077998751
 20
69.097877339078025
 30
0.0
 11
126.9107077998752
 21
70.621877339078026
 31
0.0
  0
LINE
  5
E9
  8
0
 10
126.9107077998752
 20
70.621877339078026
 30
0.0
 11
125.3867077998751
 21
72.145877339078027
 31
0.0
  0
LINE
  5
EA
  8
1
 10
122.8867077998752
 20
75.193877339078028
 30
0.0
 11
139.8867077998751
 21
75.193877339078028
 31
0.0
  0
LINE
  5
FE
  8
3
 10
96.448316563479537
 20
71.287142775598497
 30
0.0
 11
99.513280999999992
 21
68.222178339078027
 31
0.0
  0
LINE
  5
FF
  8
3
 10
91.891281849931048
 20
73.669877339078013
 30
0.0
 11
87.736083999999977
 21
73.669877339078013
 31
0.0
  0
LINE
  5
100
  8
3
 10
94.730847436520463
 20
71.287142775598497
 30
0.0
 11
91.665882999999994
 21
68.222178339078027
 31
0.0
  0
LINE
  5
101
  8
3
 10
97.113581999999994
 20
71.495577189009083
 30
0.0
 11
97.113581999999994
 21
67.340379339078027
 31
0.0
  0
LINE
  5
102
  8
3
 10
99.496316563479525
 20
74.335142775598499
 30
0.0
 11
102.56128099999999
 21
71.270178339078029
 31
0.0
  0
LINE
  5
103
  8
3
 10
92.761154875253794
 20
72.365450214331844
 30
0.0
 11
89.932727999999983
 21
69.537023339078019
 31
0.0
  0
LINE
  5
104
  8
3
 10
98.418009124746163
 20
72.365450214331844
 30
0.0
 11
101.246436
 21
69.537023339078019
 31
0.0
  0
LINE
  5
105
  8
3
 10
94.065582000000006
 20
71.495577189009083
 30
0.0
 11
94.065581999999992
 21
67.340379339078027
 31
0.0
  0
LINE
  5
106
  8
3
 10
91.891281849931048
 20
76.717877339078015
 30
0.0
 11
87.736083999999977
 21
76.717877339078029
 31
0.0
  0
LINE
  5
107
  8
3
 10
91.682847436520461
 20
74.335142775598499
 30
0.0
 11
88.617882999999978
 21
71.270178339078029
 31
0.0
  0
LINE
  5
108
  8
3
 10
93.153272999999984
 20
67.573877339078024
 30
0.0
 11
98.025890999999973
 21
67.573877339078024
 31
0.0
  0
LINE
  5
109
  8
3
 10
103.209582
 20
72.757568339078034
 30
0.0
 11
103.209582
 21
77.630186339078023
 31
0.0
  0
LINE
  5
10A
  8
3
 10
103.403051
 20
76.911346339078023
 30
0.0
 11
93.872112999999999
 21
67.380408339078031
 31
0.0
  0
LINE
  5
10B
  8
3
 10
103.49276999999999
 20
73.953065339078023
 30
0.0
 11
96.830393999999998
 21
67.290689339078028
 31
0.0
  0
LINE
  5
10C
  8
3
 10
101.246436
 20
80.850731339078024
 30
0.0
 11
98.418009124746163
 21
78.022304463824213
 31
0.0
  0
LINE
  5
10D
  8
3
 10
97.307050999999987
 20
83.007346339078026
 30
0.0
 11
87.776112999999995
 21
73.476408339078034
 31
0.0
  0
LINE
  5
110
  8
3
 10
102.154399
 20
70.621877339078026
 30
0.0
 11
89.024764999999974
 21
70.621877339078026
 31
0.0
  0
LINE
  5
111
  8
3
 10
94.348769999999973
 20
67.290689339078028
 30
0.0
 11
87.686393999999993
 21
73.953065339078023
 31
0.0
  0
LINE
  5
112
  8
3
 10
87.969581999999974
 20
72.757568339078034
 30
0.0
 11
87.969581999999974
 21
77.630186339078023
 31
0.0
  0
LINE
  5
113
  8
3
 10
93.153272999999984
 20
82.813877339078033
 30
0.0
 11
98.025890999999973
 21
82.813877339078033
 31
0.0
  0
LINE
  5
114
  8
3
 10
100.161582
 20
81.758694339078033
 30
0.0
 11
100.161582
 21
68.629060339078023
 31
0.0
  0
LINE
  5
115
  8
3
 10
96.830393999999998
 20
83.097065339078029
 30
0.0
 11
103.49276999999999
 21
76.434689339078034
 31
0.0
  0
CIRCLE
  5
117
  8
0
 10
95.589581999999993
 20
75.193877339078028
 30
0.0
 40
8.0
  0
LINE
  5
118
  8
3
 10
99.513280999999992
 20
82.165576339078015
 30
0.0
 11
96.448316563479537
 21
79.10061190255756
 31
0.0
  0
LINE
  5
119
  8
3
 10
103.44307999999999
 20
76.717877339078029
 30
0.0
 11
99.287882150068938
 21
76.717877339078015
 31
0.0
  0
LINE
  5
11A
  8
3
 10
94.065581999999992
 20
83.047375339078016
 30
0.0
 11
94.065582000000006
 21
78.892177489146988
 31
0.0
  0
LINE
  5
11B
  8
3
 10
87.776112999999995
 20
76.911346339078023
 30
0.0
 11
97.307050999999987
 21
67.380408339078031
 31
0.0
  0
LINE
  5
11C
  8
3
 10
88.617882999999978
 20
79.117576339078028
 30
0.0
 11
91.682847436520461
 21
76.052611902557558
 31
0.0
  0
LINE
  5
11D
  8
3
 10
89.932727999999983
 20
80.850731339078024
 30
0.0
 11
92.761154875253794
 21
78.022304463824213
 31
0.0
  0
LINE
  5
11E
  8
3
 10
91.665882999999994
 20
82.165576339078015
 30
0.0
 11
94.730847436520463
 21
79.10061190255756
 31
0.0
  0
LINE
  5
11F
  8
3
 10
93.872112999999999
 20
83.007346339078026
 30
0.0
 11
103.403051
 21
73.476408339078034
 31
0.0
  0
LINE
  5
120
  8
3
 10
102.56128099999999
 20
79.117576339078028
 30
0.0
 11
99.496316563479525
 21
76.052611902557558
 31
0.0
  0
LINE
  5
121
  8
3
 10
94.348769999999973
 20
83.097065339078029
 30
0.0
 11
87.686393999999993
 21
76.434689339078034
 31
0.0
  0
LINE
  5
122
  8
3
 10
97.113581999999994
 20
83.047375339078016
 30
0.0
 11
97.113581999999994
 21
78.892177489146974
 31
0.0
  0
LINE
  5
123
  8
3
 10
91.01758199999999
 20
81.758694339078033
 30
0.0
 11
91.01758199999999
 21
68.629060339078023
 31
0.0
  0
LINE
  5
124
  8
3
 10
103.44307999999999
 20
73.669877339078013
 30
0.0
 11
99.287882150068938
 21
73.669877339078013
 31
0.0
  0
LINE
  5
125
  8
3
 10
102.154399
 20
79.765877339078031
 30
0.0
 11
89.024764999999974
 21
79.765877339078031
 31
0.0
  0
LINE
  5
126
  8
1
 10
95.589581999999993
 20
85.693877339078014
 30
0.0
 11
95.589581999999993
 21
64.693877339078028
 31
0.0
  0
LINE
  5
127
  8
1
 10
85.089581999999993
 20
75.193877339078028
 30
0.0
 11
106.08958199999999
 21
75.193877339078028
 31
0.0
  0
CIRCLE
  5
128
  8
0
 10
95.589581999999993
 20
75.193877339078028
 30
0.0
 40
4.0
  0
CIRCLE
  5
129
  8
0
 10
95.589581999999993
 20
75.193877339078028
 30
0.0
 40
2.25
  0
LINE
  5
12A
  8
2
 10
126.33870779987519
 20
79.193877339078028
 30
0.0
 11
130.88670779987521
 21
79.193877339078028
 31
0.0
  0
LINE
  5
12B
  8
2
 10
126.33870779987519
 20
71.193877339078043
 30
0.0
 11
130.88670779987521
 21
71.193877339078043
 31
0.0
  0
LINE
  5
12C
  8
2
 10
130.88670779987521
 20
77.443877339078028
 30
0.0
 11
137.38670779987521
 21
77.443877339078028
 31
0.0
  0
LINE
  5
12D
  8
2
 10
130.88670779987521
 20
72.943877339078028
 30
0.0
 11
137.38670779987521
 21
72.943877339078028
 31
0.0
  0
LINE
  5
12E
  8
2
 10
130.88670779987521
 20
79.193877339078028
 30
0.0
 11
130.88670779987521
 21
71.193877339078057
 31
0.0
  0
LINE
  5
12F
  8
0
 10
102.789582
 20
112.7506847872673
 30
0.0
 11
103.58958199999999
 21
111.95068478726731
 31
0.0
  0
LINE
  5
130
  8
0
 10
103.58958199999999
 20
101.89468478726729
 30
0.0
 11
103.209582
 21
102.2746847872673
 31
0.0
  0
LINE
  5
131
  8
0
 10
87.589581999999993
 20
111.95068478726731
 30
0.0
 11
103.58958199999999
 21
111.95068478726731
 31
0.0
  0
LINE
  5
132
  8
0
 10
103.58958199999999
 20
101.89468478726729
 30
0.0
 11
103.58958199999999
 21
111.95068478726731
 31
0.0
  0
LINE
  5
133
  8
1
 10
95.589581999999993
 20
98.250684787267346
 30
0.0
 11
95.589581999999993
 21
115.2506847872673
 31
0.0
  0
LINE
  5
134
  8
2
 10
91.589581999999979
 20
106.2506847872673
 30
0.0
 11
99.589581999999965
 21
106.2506847872673
 31
0.0
  0
LINE
  5
135
  8
0
 10
92.541581999999991
 20
100.7506847872673
 30
0.0
 11
94.065581999999992
 21
102.2746847872673
 31
0.0
  0
LINE
  5
136
  8
0
 10
88.389581999999976
 20
112.7506847872673
 30
0.0
 11
102.789582
 21
112.7506847872673
 31
0.0
  0
LINE
  5
137
  8
2
 10
99.589581999999993
 20
101.7026847872673
 30
0.0
 11
99.589581999999993
 21
106.2506847872673
 31
0.0
  0
LINE
  5
138
  8
0
 10
98.637581999999995
 20
100.7506847872673
 30
0.0
 11
97.113581999999994
 21
102.2746847872673
 31
0.0
  0
LINE
  5
139
  8
0
 10
101.685582
 20
100.7506847872673
 30
0.0
 11
100.161582
 21
102.2746847872673
 31
0.0
  0
LINE
  5
13A
  8
0
 10
103.209582
 20
102.2746847872673
 30
0.0
 11
101.685582
 21
100.7506847872673
 31
0.0
  0
LINE
  5
13B
  8
0
 10
100.161582
 20
102.2746847872673
 30
0.0
 11
98.637581999999995
 21
100.7506847872673
 31
0.0
  0
LINE
  5
13C
  8
0
 10
97.113581999999994
 20
102.2746847872673
 30
0.0
 11
95.589581999999993
 21
100.7506847872673
 31
0.0
  0
LINE
  5
13D
  8
0
 10
95.589581999999993
 20
100.7506847872673
 30
0.0
 11
94.065581999999992
 21
102.2746847872673
 31
0.0
  0
LINE
  5
13E
  8
2
 10
97.839581999999993
 20
106.2506847872673
 30
0.0
 11
97.839581999999993
 21
112.7506847872673
 31
0.0
  0
LINE
  5
13F
  8
2
 10
93.339581999999993
 20
106.2506847872673
 30
0.0
 11
93.339581999999993
 21
112.7506847872673
 31
0.0
  0
LINE
  5
140
  8
2
 10
91.589581999999979
 20
101.7026847872673
 30
0.0
 11
91.589581999999979
 21
106.2506847872673
 31
0.0
  0
LINE
  5
141
  8
0
 10
87.589581999999993
 20
101.89468478726729
 30
0.0
 11
87.589581999999993
 21
111.95068478726731
 31
0.0
  0
LINE
  5
142
  8
0
 10
89.493581999999975
 20
100.7506847872673
 30
0.0
 11
91.01758199999999
 21
102.2746847872673
 31
0.0
  0
LINE
  5
143
  8
0
 10
91.01758199999999
 20
102.2746847872673
 30
0.0
 11
92.541581999999991
 21
100.7506847872673
 31
0.0
  0
LINE
  5
144
  8
0
 10
87.969581999999974
 20
102.2746847872673
 30
0.0
 11
89.493581999999975
 21
100.7506847872673
 31
0.0
  0
LINE
  5
145
  8
0
 10
87.589581999999993
 20
101.89468478726729
 30
0.0
 11
87.969581999999974
 21
102.2746847872673
 31
0.0
  0
LINE
  5
146
  8
0
 10
88.389581999999976
 20
112.7506847872673
 30
0.0
 11
87.589581999999993
 21
111.95068478726731
 31
0.0
  0
LINE
  5
17D
  8
0
 10
53.792456200124803
 20
67.993877339078026
 30
0.0
 11
54.592456200124808
 21
67.193877339078028
 31
0.0
  0
LINE
  5
17E
  8
0
 10
54.592456200124808
 20
83.193877339078014
 30
0.0
 11
54.592456200124808
 21
67.193877339078028
 31
0.0
  0
LINE
  5
17F
  8
0
 10
64.648456200124784
 20
67.193877339078028
 30
0.0
 11
64.268456200124803
 21
67.573877339078024
 31
0.0
  0
LINE
  5
180
  8
0
 10
64.648456200124784
 20
67.193877339078028
 30
0.0
 11
54.592456200124808
 21
67.193877339078028
 31
0.0
  0
LINE
  5
181
  8
1
 10
68.292456200124803
 20
75.193877339078028
 30
0.0
 11
51.292456200124803
 21
75.193877339078028
 31
0.0
  0
LINE
  5
182
  8
0
 10
53.792456200124803
 20
82.393877339078017
 30
0.0
 11
53.792456200124803
 21
67.993877339078026
 31
0.0
  0
LINE
  5
183
  8
2
 10
60.292456200124803
 20
79.193877339078028
 30
0.0
 11
60.292456200124803
 21
71.193877339078057
 31
0.0
  0
LINE
  5
184
  8
0
 10
65.792456200124803
 20
78.24187733907803
 30
0.0
 11
64.268456200124803
 21
76.717877339078029
 31
0.0
  0
LINE
  5
185
  8
2
 10
64.840456200124791
 20
71.193877339078043
 30
0.0
 11
60.292456200124803
 21
71.193877339078043
 31
0.0
  0
LINE
  5
186
  8
0
 10
65.792456200124803
 20
72.145877339078027
 30
0.0
 11
64.268456200124803
 21
73.669877339078013
 31
0.0
  0
LINE
  5
187
  8
0
 10
64.268456200124803
 20
70.621877339078026
 30
0.0
 11
65.792456200124803
 21
72.145877339078027
 31
0.0
  0
LINE
  5
188
  8
0
 10
65.792456200124803
 20
69.097877339078025
 30
0.0
 11
64.268456200124803
 21
70.621877339078026
 31
0.0
  0
LINE
  5
189
  8
0
 10
64.268456200124803
 20
67.573877339078024
 30
0.0
 11
65.792456200124803
 21
69.097877339078025
 31
0.0
  0
LINE
  5
18A
  8
0
 10
65.792456200124803
 20
75.193877339078028
 30
0.0
 11
64.268456200124803
 21
76.717877339078029
 31
0.0
  0
LINE
  5
18B
  8
0
 10
64.268456200124803
 20
73.669877339078013
 30
0.0
 11
65.792456200124803
 21
75.193877339078028
 31
0.0
  0
LINE
  5
18C
  8
2
 10
60.292456200124803
 20
77.443877339078028
 30
0.0
 11
53.792456200124803
 21
77.443877339078028
 31
0.0
  0
LINE
  5
18D
  8
2
 10
60.292456200124803
 20
72.943877339078028
 30
0.0
 11
53.792456200124803
 21
72.943877339078028
 31
0.0
  0
LINE
  5
18E
  8
0
 10
64.648456200124784
 20
83.193877339078014
 30
0.0
 11
54.592456200124808
 21
83.193877339078014
 31
0.0
  0
LINE
  5
18F
  8
2
 10
64.840456200124805
 20
79.193877339078028
 30
0.0
 11
60.292456200124803
 21
79.193877339078028
 31
0.0
  0
LINE
  5
190
  8
0
 10
64.268456200124803
 20
82.813877339078033
 30
0.0
 11
65.792456200124803
 21
81.289877339078046
 31
0.0
  0
LINE
  5
191
  8
0
 10
64.648456200124784
 20
83.193877339078014
 30
0.0
 11
64.268456200124803
 21
82.813877339078033
 31
0.0
  0
LINE
  5
192
  8
0
 10
65.792456200124803
 20
81.289877339078046
 30
0.0
 11
64.268456200124803
 21
79.765877339078031
 31
0.0
  0
LINE
  5
193
  8
0
 10
64.268456200124803
 20
79.765877339078031
 30
0.0
 11
65.792456200124803
 21
78.24187733907803
 31
0.0
  0
LINE
  5
194
  8
0
 10
53.792456200124803
 20
82.393877339078017
 30
0.0
 11
54.592456200124808
 21
83.193877339078014
 31
0.0
  0
LINE
  5
195
  8
0
 10
87.589581999999993
 20
38.437069890888722
 30
0.0
 11
103.58958199999999
 21
38.437069890888722
 31
0.0
  0
LINE
  5
196
  8
0
 10
88.389581999999976
 20
37.637069890888711
 30
0.0
 11
102.789582
 21
37.637069890888711
 31
0.0
  0
LINE
  5
197
  8
0
 10
92.541581999999991
 20
49.637069890888711
 30
0.0
 11
94.065581999999992
 21
48.11306989088871
 31
0.0
  0
LINE
  5
198
  8
2
 10
91.589581999999979
 20
44.137069890888711
 30
0.0
 11
99.589581999999965
 21
44.137069890888711
 31
0.0
  0
LINE
  5
199
  8
2
 10
93.339581999999993
 20
44.137069890888711
 30
0.0
 11
93.339581999999993
 21
37.637069890888711
 31
0.0
  0
LINE
  5
19A
  8
0
 10
87.589581999999993
 20
48.493069890888698
 30
0.0
 11
87.589581999999993
 21
38.437069890888722
 31
0.0
  0
LINE
  5
19B
  8
2
 10
91.589581999999979
 20
48.685069890888713
 30
0.0
 11
91.589581999999979
 21
44.137069890888711
 31
0.0
  0
LINE
  5
19C
  8
0
 10
89.493581999999975
 20
49.637069890888711
 30
0.0
 11
91.01758199999999
 21
48.11306989088871
 31
0.0
  0
LINE
  5
19D
  8
0
 10
87.969581999999974
 20
48.11306989088871
 30
0.0
 11
89.493581999999975
 21
49.637069890888711
 31
0.0
  0
LINE
  5
19E
  8
0
 10
87.589581999999993
 20
48.493069890888698
 30
0.0
 11
87.969581999999974
 21
48.11306989088871
 31
0.0
  0
LINE
  5
19F
  8
0
 10
91.01758199999999
 20
48.11306989088871
 30
0.0
 11
92.541581999999991
 21
49.637069890888711
 31
0.0
  0
LINE
  5
1A0
  8
0
 10
88.389581999999976
 20
37.637069890888711
 30
0.0
 11
87.589581999999993
 21
38.437069890888722
 31
0.0
  0
LINE
  5
1A1
  8
0
 10
103.58958199999999
 20
48.493069890888698
 30
0.0
 11
103.58958199999999
 21
38.437069890888722
 31
0.0
  0
LINE
  5
1A2
  8
1
 10
95.589581999999993
 20
52.137069890888711
 30
0.0
 11
95.589581999999993
 21
35.137069890888711
 31
0.0
  0
LINE
  5
1A3
  8
2
 10
97.839581999999993
 20
44.137069890888711
 30
0.0
 11
97.839581999999993
 21
37.637069890888711
 31
0.0
  0
LINE
  5
1A4
  8
0
 10
101.685582
 20
49.637069890888711
 30
0.0
 11
100.161582
 21
48.11306989088871
 31
0.0
  0
LINE
  5
1A5
  8
2
 10
99.589581999999993
 20
48.685069890888698
 30
0.0
 11
99.589581999999993
 21
44.137069890888711
 31
0.0
  0
LINE
  5
1A6
  8
0
 10
98.637581999999995
 20
49.637069890888711
 30
0.0
 11
97.113581999999994
 21
48.11306989088871
 31
0.0
  0
LINE
  5
1A7
  8
0
 10
95.589581999999993
 20
49.637069890888711
 30
0.0
 11
94.065581999999992
 21
48.11306989088871
 31
0.0
  0
LINE
  5
1A8
  8
0
 10
97.113581999999994
 20
48.11306989088871
 30
0.0
 11
95.589581999999993
 21
49.637069890888711
 31
0.0
  0
LINE
  5
1A9
  8
0
 10
100.161582
 20
48.11306989088871
 30
0.0
 11
98.637581999999995
 21
49.637069890888711
 31
0.0
  0
LINE
  5
1AA
  8
0
 10
103.209582
 20
48.11306989088871
 30
0.0
 11
101.685582
 21
49.637069890888711
 31
0.0
  0
LINE
  5
1AB
  8
0
 10
103.58958199999999
 20
48.493069890888698
 30
0.0
 11
103.209582
 21
48.11306989088871
 31
0.0
  0
LINE
  5
1AC
  8
0
 10
102.789582
 20
37.637069890888711
 30
0.0
 11
103.58958199999999
 21
38.437069890888722
 31
0.0
  0
TEXT
  5
2FC
  8
0
 62
     3
 10
0.0
 20
0.0
 30
0.0
 40
5.0
  1
HS-162-C
  7
STANDARD1
  0
ENDSEC
  0
EOF
