  0
SECTION
  2
HEADER
  9
$ACADVER
  1
AC1009
  9
$INSBASE
 10
0.0
 20
0.0
 30
0.0
  9
$EXTMIN
 10
0.0
 20
-1.4802182810368341
 30
0.0
  9
$EXTMAX
 10
142.0654963286255
 20
110.2642625527056
 30
0.0
  9
$LIMMIN
 10
0.0
 20
0.0
  9
$LIMMAX
 10
187.5
 20
135.0
  9
$ORTHOMODE
 70
     1
  9
$REGENMODE
 70
     1
  9
$FILLMODE
 70
     1
  9
$QTEXTMODE
 70
     0
  9
$MIRRTEXT
 70
     0
  9
$DRAGMODE
 70
     2
  9
$LTSCALE
 40
5.0
  9
$OSMODE
 70
    55
  9
$ATTMODE
 70
     1
  9
$TEXTSIZE
 40
1.6000000000000001
  9
$TRACEWID
 40
0.05
  9
$TEXTSTYLE
  7
STANDARD
  9
$CLAYER
  8
0
  9
$CELTYPE
  6
BYLAYER
  9
$CECOLOR
 62
   256
  9
$DIMSCALE
 40
0.5
  9
$DIMASZ
 40
3.0
  9
$DIMEXO
 40
2.0
  9
$DIMDLI
 40
10.0
  9
$DIMRND
 40
0.0
  9
$DIMDLE
 40
0.0
  9
$DIMEXE
 40
2.0
  9
$DIMTP
 40
0.0
  9
$DIMTM
 40
0.0
  9
$DIMTXT
 40
3.2000000000000002
  9
$DIMCEN
 40
0.09
  9
$DIMTSZ
 40
0.0
  9
$DIMTOL
 70
     0
  9
$DIMLIM
 70
     0
  9
$DIMTIH
 70
     0
  9
$DIMTOH
 70
     0
  9
$DIMSE1
 70
     0
  9
$DIMSE2
 70
     0
  9
$DIMTAD
 70
     1
  9
$DIMZIN
 70
     0
  9
$DIMBLK
  1

  9
$DIMASO
 70
     0
  9
$DIMSHO
 70
     0
  9
$DIMPOST
  1

  9
$DIMAPOST
  1

  9
$DIMALT
 70
     0
  9
$DIMALTD
 70
     2
  9
$DIMALTF
 40
25.399999999999999
  9
$DIMLFAC
 40
1.0
  9
$DIMTOFL
 70
     1
  9
$DIMTVP
 40
1.6000000000000001
  9
$DIMTIX
 70
     1
  9
$DIMSOXD
 70
     0
  9
$DIMSAH
 70
     0
  9
$DIMBLK1
  1

  9
$DIMBLK2
  1

  9
$DIMSTYLE
  2
STANDARD
  9
$DIMCLRD
 70
     0
  9
$DIMCLRE
 70
     0
  9
$DIMCLRT
 70
     0
  9
$DIMTFAC
 40
1.0
  9
$DIMGAP
 40
0.09
  9
$LUNITS
 70
     2
  9
$LUPREC
 70
     4
  9
$SKETCHINC
 40
0.1
  9
$FILLETRAD
 40
0.0
  9
$AUNITS
 70
     0
  9
$AUPREC
 70
     0
  9
$MENU
  1
E:\r13\win\SUPPORT\ACAD
  9
$ELEVATION
 40
0.0
  9
$PELEVATION
 40
0.0
  9
$THICKNESS
 40
0.0
  9
$LIMCHECK
 70
     0
  9
$BLIPMODE
 70
     0
  9
$CHAMFERA
 40
0.0
  9
$CHAMFERB
 40
0.0
  9
$SKPOLY
 70
     0
  9
$TDCREATE
 40
2449840.5945023149
  9
$TDUPDATE
 40
2456598.6923237732
  9
$TDINDWG
 40
0.0117316898
  9
$TDUSRTIMER
 40
0.0117316898
  9
$USRTIMER
 70
     1
  9
$ANGBASE
 50
0.0
  9
$ANGDIR
 70
     0
  9
$PDMODE
 70
     0
  9
$PDSIZE
 40
0.0
  9
$PLINEWID
 40
0.0
  9
$COORDS
 70
     1
  9
$SPLFRAME
 70
     0
  9
$SPLINETYPE
 70
     6
  9
$SPLINESEGS
 70
     8
  9
$ATTDIA
 70
     0
  9
$ATTREQ
 70
     1
  9
$HANDLING
 70
     1
  9
$HANDSEED
  5
3D7
  9
$SURFTAB1
 70
     6
  9
$SURFTAB2
 70
     6
  9
$SURFTYPE
 70
     6
  9
$SURFU
 70
     6
  9
$SURFV
 70
     6
  9
$UCSNAME
  2

  9
$UCSORG
 10
0.0
 20
0.0
 30
0.0
  9
$UCSXDIR
 10
1.0
 20
0.0
 30
0.0
  9
$UCSYDIR
 10
0.0
 20
1.0
 30
0.0
  9
$PUCSNAME
  2

  9
$PUCSORG
 10
0.0
 20
0.0
 30
0.0
  9
$PUCSXDIR
 10
1.0
 20
0.0
 30
0.0
  9
$PUCSYDIR
 10
0.0
 20
1.0
 30
0.0
  9
$USERI1
 70
     0
  9
$USERI2
 70
     1
  9
$USERI3
 70
     0
  9
$USERI4
 70
     0
  9
$USERI5
 70
     0
  9
$USERR1
 40
0.0
  9
$USERR2
 40
0.0
  9
$USERR3
 40
0.0
  9
$USERR4
 40
0.0
  9
$USERR5
 40
0.0
  9
$WORLDVIEW
 70
     1
  9
$SHADEDGE
 70
     3
  9
$SHADEDIF
 70
    70
  9
$TILEMODE
 70
     1
  9
$MAXACTVP
 70
    16
  9
$PLIMCHECK
 70
     0
  9
$PEXTMIN
 10
1.0000000000000000E+020
 20
1.0000000000000000E+020
 30
1.0000000000000000E+020
  9
$PEXTMAX
 10
-1.0000000000000000E+020
 20
-1.0000000000000000E+020
 30
-1.0000000000000000E+020
  9
$PLIMMIN
 10
0.0
 20
0.0
  9
$PLIMMAX
 10
12.0
 20
9.0
  9
$UNITMODE
 70
     0
  9
$VISRETAIN
 70
     0
  9
$PLINEGEN
 70
     0
  9
$PSLTSCALE
 70
     0
  0
ENDSEC
  0
SECTION
  2
TABLES
  0
TABLE
  2
VPORT
 70
     1
  0
VPORT
  2
*ACTIVE
 70
     0
 10
0.0
 20
0.0
 11
1.0
 21
1.0
 12
93.74713919532617
 22
87.458386271734256
 13
0.0
 23
0.0
 14
5.0
 24
5.0
 15
5.0
 25
5.0
 16
0.0
 26
0.0
 36
1.0
 17
0.0
 27
0.0
 37
0.0
 40
179.46013949787169
 41
1.7807262569832401
 42
50.0
 43
0.0
 44
0.0
 50
0.0
 51
0.0
 71
     0
 72
   100
 73
     1
 74
     0
 75
     0
 76
     0
 77
     0
 78
     0
  0
ENDTAB
  0
TABLE
  2
LTYPE
 70
     4
  0
LTYPE
  2
CONTINUOUS
 70
     0
  3
Solid Line
 72
    65
 73
     0
 40
0.0
  0
LTYPE
  2
CENTER
 70
     0
  3
____ _ ____ _ ____ _ ____ _ ____ _ ____ _ ____
 72
    65
 73
     4
 40
2.0
 49
1.25
 49
-0.25
 49
0.25
 49
-0.25
  0
LTYPE
  2
HIDDEN
 70
     0
  3
_ _ _ _ _ _ _ _ _ _ _ _ _ _ _ _ _ _ _ _ _ _ _
 72
    65
 73
     2
 40
0.375
 49
0.25
 49
-0.125
  0
LTYPE
  2
PHANTOM2
 70
     0
  3
___ _ _ ___ _ _ ___ _ _ ___ _ _
 72
    65
 73
     6
 40
1.25
 49
0.625
 49
-0.125
 49
0.125
 49
-0.125
 49
0.125
 49
-0.125
  0
ENDTAB
  0
TABLE
  2
LAYER
 70
     4
  0
LAYER
  2
0
 70
     0
 62
     7
  6
CONTINUOUS
  0
LAYER
  2
1
 70
     0
 62
     1
  6
CENTER
  0
LAYER
  2
2
 70
     0
 62
     2
  6
HIDDEN
  0
LAYER
  2
3
 70
     0
 62
     3
  6
CONTINUOUS
  0
ENDTAB
  0
TABLE
  2
STYLE
 70
     2
  0
STYLE
  2
STANDARD
 70
     0
 40
0.0
 41
1.0
 50
0.0
 71
     0
 42
1.6000000000000001
  3
TXT
  4
BIGFONT
  0
STYLE
  2
STANDARD1
 70
     0
 40
0.0
 41
1.0
 50
0.0
 71
     0
 42
3.0
  3
txt
  4

  0
ENDTAB
  0
TABLE
  2
VIEW
 70
     1
  0
VIEW
  2
ALL
 70
     0
 40
135.0
 10
110.49579799999999
 20
67.5
 41
0.0
 11
0.0
 21
0.0
 31
1.0
 12
0.0
 22
0.0
 32
0.0
 42
0.0
 43
0.0
 44
0.0
 50
0.0
 71
     0
  0
ENDTAB
  0
TABLE
  2
UCS
 70
     0
  0
ENDTAB
  0
TABLE
  2
APPID
 70
     3
  0
APPID
  2
ACAD
 70
     0
  0
APPID
  2
ACAD_MLEADERVER
 70
     0
  0
APPID
  2
ACAD_NAV_VCDISPLAY
 70
     0
  0
ENDTAB
  0
TABLE
  2
DIMSTYLE
 70
     1
  0
DIMSTYLE
  2
STANDARD
 70
     0
  3

  4

  5

  6

  7

 40
1.0
 41
0.18
 42
0.0625
 43
0.38
 44
0.18
 45
0.0
 46
0.0
 47
0.0
 48
0.0
140
0.18
141
0.09
142
0.0
143
25.399999999999999
144
1.0
145
0.0
146
1.0
147
0.09
 71
     0
 72
     0
 73
     1
 74
     1
 75
     0
 76
     0
 77
     0
 78
     0
170
     0
171
     2
172
     0
173
     0
174
     0
175
     0
176
     0
177
     0
178
     0
  0
ENDTAB
  0
ENDSEC
  0
SECTION
  2
BLOCKS
  0
BLOCK
  8
0
  2
$MODEL_SPACE
 70
     0
 10
0.0
 20
0.0
 30
0.0
  3
$MODEL_SPACE
  1

  0
ENDBLK
  5
289
  8
0
  0
BLOCK
 67
     1
  8
0
  2
$PAPER_SPACE
 70
     0
 10
0.0
 20
0.0
 30
0.0
  3
$PAPER_SPACE
  1

  0
ENDBLK
  5
287
 67
     1
  8
0
  0
BLOCK
  8
0
  2
STDGX5
 70
     0
 10
0.0
 20
0.0
 30
0.0
  3
STDGX5
  1

  0
ENDBLK
  5
42
  8
0
  0
ENDSEC
  0
SECTION
  2
ENTITIES
  0
INSERT
  5
FE
  8
0
  2
STDGX5
 10
0.0
 20
0.0
 30
0.0
  0
LINE
  5
10E
  8
3
 10
99.342344000000011
 20
59.609054999999998
 30
0.0
 11
91.246105999999997
 21
59.609054999999998
 31
0.0
  0
LINE
  5
10F
  8
3
 10
92.781350000000003
 20
59.073929999999997
 30
0.0
 11
85.615099999999998
 21
66.240180000000009
 31
0.0
  0
LINE
  5
110
  8
3
 10
86.150225000000006
 20
64.704936000000004
 30
0.0
 11
86.150225000000006
 21
72.801174000000003
 31
0.0
  0
LINE
  5
111
  8
3
 10
85.615099999999998
 20
71.265929999999983
 30
0.0
 11
92.781350000000003
 21
78.432180000000002
 31
0.0
  0
LINE
  5
112
  8
3
 10
91.246105999999997
 20
77.897055000000009
 30
0.0
 11
99.342344000000011
 21
77.897055000000009
 31
0.0
  0
LINE
  5
113
  8
3
 10
97.807099999999991
 20
78.432180000000002
 30
0.0
 11
104.97335
 21
71.265929999999983
 31
0.0
  0
LINE
  5
114
  8
3
 10
104.438225
 20
72.801174000000003
 30
0.0
 11
104.438225
 21
64.704936000000004
 31
0.0
  0
LINE
  5
115
  8
3
 10
104.97335
 20
66.240180000000009
 30
0.0
 11
97.807099999999991
 21
59.073929999999997
 31
0.0
  0
CIRCLE
  5
116
  8
0
 10
95.294224999999997
 20
68.753055000000003
 30
0.0
 40
10.0
  0
LINE
  5
117
  8
3
 10
99.811329408469575
 20
67.283950591530427
 30
0.0
 11
103.72310899999999
 21
63.372171000000002
 31
0.0
  0
LINE
  5
118
  8
3
 10
93.825120591530435
 20
64.235950591530425
 30
0.0
 11
89.913341000000017
 21
60.324171
 31
0.0
  0
LINE
  5
119
  8
3
 10
96.763329408469559
 20
64.235950591530425
 30
0.0
 11
100.67510900000001
 21
60.324171
 31
0.0
  0
LINE
  5
11A
  8
3
 10
90.777120591530405
 20
67.283950591530427
 30
0.0
 11
86.865341000000015
 21
63.372171000000002
 31
0.0
  0
LINE
  5
11D
  8
3
 10
105.26037100000001
 20
69.575201000000007
 30
0.0
 11
94.472078999999994
 21
58.786909000000001
 31
0.0
  0
LINE
  5
11E
  8
3
 10
103.221317
 20
62.657055
 30
0.0
 11
87.367132999999995
 21
62.657055
 31
0.0
  0
LINE
  5
11F
  8
3
 10
96.116371000000015
 20
58.786909000000001
 30
0.0
 11
85.328078999999988
 21
69.575201000000007
 31
0.0
  0
LINE
  5
120
  8
3
 10
89.198224999999994
 20
60.825963000000002
 30
0.0
 11
89.198224999999994
 21
76.680147000000005
 31
0.0
  0
LINE
  5
121
  8
3
 10
85.328078999999988
 20
67.930909
 30
0.0
 11
96.116371000000015
 21
78.719200999999998
 31
0.0
  0
LINE
  5
122
  8
3
 10
87.367132999999995
 20
74.849055000000007
 30
0.0
 11
103.221317
 21
74.849055000000007
 31
0.0
  0
LINE
  5
123
  8
3
 10
101.390225
 20
76.680147000000005
 30
0.0
 11
101.390225
 21
60.825963000000002
 31
0.0
  0
LINE
  5
124
  8
3
 10
94.472078999999994
 20
78.719200999999998
 30
0.0
 11
105.26037100000001
 21
67.930909
 31
0.0
  0
LINE
  5
126
  8
3
 10
91.935467789363898
 20
65.394297789363904
 30
0.0
 11
88.223157
 21
61.681987000000007
 31
0.0
  0
LINE
  5
127
  8
3
 10
90.544224999999983
 20
68.753055000000003
 30
0.0
 11
85.294224999999997
 21
68.753055000000003
 31
0.0
  0
LINE
  5
128
  8
3
 10
98.652982210636097
 20
65.39429778936389
 30
0.0
 11
102.36529299999999
 21
61.681987000000007
 31
0.0
  0
LINE
  5
129
  8
3
 10
95.294224999999997
 20
64.003055000000003
 30
0.0
 11
95.294224999999997
 21
58.753055000000003
 31
0.0
  0
LINE
  5
12A
  8
3
 10
85.865809999999996
 20
72.085470000000001
 30
0.0
 11
90.835216141062546
 21
67.116063858937451
 31
0.0
  0
LINE
  5
12B
  8
3
 10
86.865341000000015
 20
74.133938999999984
 30
0.0
 11
90.777120591530434
 21
70.222159408469594
 31
0.0
  0
LINE
  5
12C
  8
3
 10
88.223157
 20
75.824123
 30
0.0
 11
91.935467789363898
 21
72.111812210636103
 31
0.0
  0
LINE
  5
12D
  8
3
 10
89.913341000000017
 20
77.181939
 30
0.0
 11
93.825120591530435
 21
73.270159408469581
 31
0.0
  0
LINE
  5
12E
  8
3
 10
91.961810000000014
 20
78.181470000000004
 30
0.0
 11
96.931216141062549
 21
73.212063858937455
 31
0.0
  0
LINE
  5
12F
  8
3
 10
104.72264
 20
72.085470000000001
 30
0.0
 11
91.961810000000014
 21
59.324640000000002
 31
0.0
  0
LINE
  5
130
  8
3
 10
98.626639999999995
 20
78.181470000000004
 30
0.0
 11
93.657233858937445
 21
73.212063858937455
 31
0.0
  0
LINE
  5
131
  8
3
 10
103.72310899999999
 20
74.133938999999984
 30
0.0
 11
99.811329408469575
 21
70.222159408469565
 31
0.0
  0
LINE
  5
132
  8
3
 10
102.36529299999999
 20
75.824123
 30
0.0
 11
98.652982210636111
 21
72.111812210636103
 31
0.0
  0
LINE
  5
133
  8
3
 10
100.67510900000001
 20
77.181939
 30
0.0
 11
96.763329408469573
 21
73.270159408469581
 31
0.0
  0
LINE
  5
134
  8
3
 10
98.342224999999999
 20
78.277219000000002
 30
0.0
 11
98.342224999999999
 21
72.396157523948503
 31
0.0
  0
LINE
  5
135
  8
3
 10
95.294224999999997
 20
78.753055000000003
 30
0.0
 11
95.294224999999997
 21
73.503055000000003
 31
0.0
  0
LINE
  5
136
  8
3
 10
92.246224999999995
 20
78.277219000000002
 30
0.0
 11
92.246224999999995
 21
72.396157523948503
 31
0.0
  0
LINE
  5
137
  8
3
 10
104.818389
 20
65.705055000000002
 30
0.0
 11
98.937327523948497
 21
65.705055000000002
 31
0.0
  0
LINE
  5
138
  8
3
 10
105.294225
 20
68.753055000000003
 30
0.0
 11
100.044225
 21
68.753055000000003
 31
0.0
  0
LINE
  5
139
  8
3
 10
104.818389
 20
71.801055000000005
 30
0.0
 11
98.937327523948497
 21
71.801055000000005
 31
0.0
  0
CIRCLE
  5
13C
  8
0
 10
95.294224999999997
 20
68.753055000000003
 30
0.0
 40
4.75
  0
CIRCLE
  5
13D
  8
0
 10
95.294224999999997
 20
68.753055000000003
 30
0.0
 40
2.75
  0
LINE
  5
13F
  8
3
 10
91.651122476051484
 20
71.801055000000005
 30
0.0
 11
85.770060999999998
 21
71.801055000000005
 31
0.0
  0
LINE
  5
140
  8
3
 10
90.835216141062546
 20
70.390046141062555
 30
0.0
 11
85.865809999999996
 21
65.420640000000006
 31
0.0
  0
LINE
  5
141
  8
3
 10
92.246224999999995
 20
65.109952476051504
 30
0.0
 11
92.246224999999995
 21
59.228890999999997
 31
0.0
  0
LINE
  5
142
  8
3
 10
91.651122476051484
 20
65.705055000000002
 30
0.0
 11
85.770060999999998
 21
65.705055000000002
 31
0.0
  0
LINE
  5
143
  8
3
 10
93.657233858937445
 20
64.294046141062552
 30
0.0
 11
98.626639999999995
 21
59.324640000000002
 31
0.0
  0
LINE
  5
144
  8
3
 10
98.342224999999999
 20
65.109952476051504
 30
0.0
 11
98.342224999999999
 21
59.228890999999997
 31
0.0
  0
LINE
  5
145
  8
3
 10
99.753233858937435
 20
70.390046141062555
 30
0.0
 11
104.72264
 21
65.420640000000006
 31
0.0
  0
LINE
  5
147
  8
1
 10
107.794225
 20
68.753055000000003
 30
0.0
 11
82.794224999999997
 21
68.753055000000003
 31
0.0
  0
LINE
  5
148
  8
1
 10
95.294224999999997
 20
81.253055000000003
 30
0.0
 11
95.294224999999997
 21
56.253055000000003
 31
0.0
  0
LINE
  5
149
  8
0
 10
128.23349632862551
 20
58.753055000000003
 30
0.0
 11
129.0894963286255
 21
59.609054999999998
 31
0.0
  0
LINE
  5
14A
  8
0
 10
128.23349632862551
 20
78.753055000000003
 30
0.0
 11
129.0894963286255
 21
77.897055000000009
 31
0.0
  0
LINE
  5
14B
  8
0
 10
129.0894963286255
 20
77.897055000000009
 30
0.0
 11
127.5654963286255
 21
76.373054999999994
 31
0.0
  0
LINE
  5
14C
  8
0
 10
129.0894963286255
 20
74.849055000000007
 30
0.0
 11
127.5654963286255
 21
73.325055000000006
 31
0.0
  0
LINE
  5
14D
  8
0
 10
127.5654963286255
 20
76.373054999999994
 30
0.0
 11
129.0894963286255
 21
74.849055000000007
 31
0.0
  0
LINE
  5
154
  8
1
 10
125.0654963286255
 20
68.753055000000003
 30
0.0
 11
142.0654963286255
 21
68.753055000000003
 31
0.0
  0
LINE
  5
155
  8
0
 10
129.0894963286255
 20
62.657055
 30
0.0
 11
127.5654963286255
 21
64.181055000000001
 31
0.0
  0
LINE
  5
156
  8
0
 10
127.5654963286255
 20
61.133054999999999
 30
0.0
 11
129.0894963286255
 21
62.657055
 31
0.0
  0
LINE
  5
157
  8
0
 10
129.0894963286255
 20
59.609054999999998
 30
0.0
 11
127.5654963286255
 21
61.133054999999999
 31
0.0
  0
LINE
  5
15C
  8
0
 10
138.76549632862549
 20
78.753055000000003
 30
0.0
 11
138.76549632862549
 21
58.753055000000003
 31
0.0
  0
LINE
  5
15D
  8
0
 10
139.5654963286255
 20
59.553055000000001
 30
0.0
 11
138.76549632862549
 21
58.753055000000003
 31
0.0
  0
LINE
  5
15E
  8
0
 10
128.23349632862551
 20
58.753055000000003
 30
0.0
 11
138.76549632862549
 21
58.753055000000003
 31
0.0
  0
LINE
  5
15F
  8
0
 10
127.5654963286255
 20
67.229055000000002
 30
0.0
 11
129.0894963286255
 21
68.753055000000003
 31
0.0
  0
LINE
  5
160
  8
0
 10
129.0894963286255
 20
65.705055000000002
 30
0.0
 11
127.5654963286255
 21
67.229055000000002
 31
0.0
  0
LINE
  5
161
  8
0
 10
127.5654963286255
 20
64.181055000000001
 30
0.0
 11
129.0894963286255
 21
65.705055000000002
 31
0.0
  0
LINE
  5
162
  8
0
 10
127.5654963286255
 20
73.325055000000006
 30
0.0
 11
129.0894963286255
 21
71.801055000000005
 31
0.0
  0
LINE
  5
163
  8
0
 10
129.0894963286255
 20
71.801055000000005
 30
0.0
 11
127.5654963286255
 21
70.277055000000004
 31
0.0
  0
LINE
  5
164
  8
0
 10
127.5654963286255
 20
70.277055000000004
 30
0.0
 11
129.0894963286255
 21
68.753055000000003
 31
0.0
  0
LINE
  5
165
  8
0
 10
139.5654963286255
 20
77.953055000000006
 30
0.0
 11
138.76549632862549
 21
78.753055000000003
 31
0.0
  0
LINE
  5
166
  8
0
 10
128.23349632862551
 20
78.753055000000003
 30
0.0
 11
138.76549632862549
 21
78.753055000000003
 31
0.0
  0
LINE
  5
168
  8
0
 10
139.5654963286255
 20
77.953055000000006
 30
0.0
 11
139.5654963286255
 21
59.553055000000001
 31
0.0
  0
LINE
  5
169
  8
2
 10
127.7434963286255
 20
73.503055000000003
 30
0.0
 11
134.0654963286255
 21
73.503055000000003
 31
0.0
  0
LINE
  5
16A
  8
2
 10
127.7434963286255
 20
64.003055000000003
 30
0.0
 11
134.0654963286255
 21
64.003055000000003
 31
0.0
  0
LINE
  5
16B
  8
2
 10
134.0654963286255
 20
71.503055000000003
 30
0.0
 11
139.5654963286255
 21
71.503054999999989
 31
0.0
  0
LINE
  5
16C
  8
2
 10
134.0654963286255
 20
66.003055000000003
 30
0.0
 11
139.5654963286255
 21
66.003055000000003
 31
0.0
  0
LINE
  5
16D
  8
2
 10
134.0654963286255
 20
73.503055000000003
 30
0.0
 11
134.0654963286255
 21
64.003055000000003
 31
0.0
  0
LINE
  5
16E
  8
2
 10
90.544224999999983
 20
102.2642625527056
 30
0.0
 11
100.044225
 21
102.2642625527056
 31
0.0
  0
LINE
  5
16F
  8
0
 10
86.094224999999994
 20
107.7642625527056
 30
0.0
 11
104.494225
 21
107.7642625527056
 31
0.0
  0
LINE
  5
170
  8
0
 10
96.818224999999998
 20
95.764262552705588
 30
0.0
 11
95.294224999999997
 21
97.288262552705589
 31
0.0
  0
LINE
  5
171
  8
0
 10
85.294224999999997
 20
106.96426255270551
 30
0.0
 11
105.294225
 21
106.96426255270551
 31
0.0
  0
LINE
  5
172
  8
2
 10
100.044225
 20
95.942262552705614
 30
0.0
 11
100.044225
 21
102.2642625527056
 31
0.0
  0
LINE
  5
173
  8
0
 10
105.294225
 20
96.432262552705595
 30
0.0
 11
105.294225
 21
106.96426255270551
 31
0.0
  0
LINE
  5
174
  8
0
 10
102.914225
 20
95.764262552705588
 30
0.0
 11
101.390225
 21
97.288262552705589
 31
0.0
  0
LINE
  5
175
  8
0
 10
105.294225
 20
96.432262552705595
 30
0.0
 11
104.438225
 21
97.288262552705589
 31
0.0
  0
LINE
  5
176
  8
0
 10
104.438225
 20
97.288262552705589
 30
0.0
 11
102.914225
 21
95.764262552705588
 31
0.0
  0
LINE
  5
177
  8
0
 10
99.866225000000014
 20
95.764262552705588
 30
0.0
 11
98.342224999999999
 21
97.288262552705589
 31
0.0
  0
LINE
  5
178
  8
0
 10
101.390225
 20
97.288262552705589
 30
0.0
 11
99.866225000000014
 21
95.764262552705588
 31
0.0
  0
LINE
  5
179
  8
0
 10
98.342224999999999
 20
97.288262552705589
 30
0.0
 11
96.818224999999998
 21
95.764262552705588
 31
0.0
  0
LINE
  5
17A
  8
0
 10
104.494225
 20
107.7642625527056
 30
0.0
 11
105.294225
 21
106.96426255270551
 31
0.0
  0
LINE
  5
17B
  8
2
 10
98.044225000000012
 20
102.2642625527056
 30
0.0
 11
98.044225000000012
 21
107.7642625527056
 31
0.0
  0
LINE
  5
17C
  8
1
 10
95.294224999999997
 20
93.264262552705588
 30
0.0
 11
95.294224999999997
 21
110.2642625527056
 31
0.0
  0
LINE
  5
17D
  8
0
 10
86.094224999999994
 20
107.7642625527056
 30
0.0
 11
85.294224999999997
 21
106.96426255270551
 31
0.0
  0
LINE
  5
17E
  8
0
 10
85.294224999999997
 20
96.432262552705595
 30
0.0
 11
86.150225000000006
 21
97.288262552705589
 31
0.0
  0
LINE
  5
17F
  8
2
 10
90.544225000000012
 20
95.942262552705586
 30
0.0
 11
90.544225000000012
 21
102.2642625527056
 31
0.0
  0
LINE
  5
180
  8
0
 10
90.722224999999995
 20
95.764262552705588
 30
0.0
 11
92.246224999999995
 21
97.288262552705589
 31
0.0
  0
LINE
  5
181
  8
0
 10
93.770224999999996
 20
95.764262552705588
 30
0.0
 11
95.294224999999997
 21
97.288262552705589
 31
0.0
  0
LINE
  5
182
  8
0
 10
92.246224999999995
 20
97.288262552705589
 30
0.0
 11
93.770224999999996
 21
95.764262552705588
 31
0.0
  0
LINE
  5
183
  8
0
 10
87.674225000000007
 20
95.764262552705588
 30
0.0
 11
89.198224999999994
 21
97.288262552705589
 31
0.0
  0
LINE
  5
184
  8
0
 10
89.198224999999994
 20
97.288262552705589
 30
0.0
 11
90.722224999999995
 21
95.764262552705588
 31
0.0
  0
LINE
  5
185
  8
0
 10
86.150225000000006
 20
97.288262552705589
 30
0.0
 11
87.674225000000007
 21
95.764262552705588
 31
0.0
  0
LINE
  5
186
  8
2
 10
92.544224999999997
 20
102.2642625527056
 30
0.0
 11
92.544225000000026
 21
107.7642625527056
 31
0.0
  0
LINE
  5
187
  8
0
 10
85.294224999999997
 20
96.432262552705595
 30
0.0
 11
85.294224999999997
 21
106.96426255270551
 31
0.0
  0
LINE
  5
1C5
  8
0
 10
51.822953671374499
 20
78.753055000000003
 30
0.0
 11
51.822953671374499
 21
58.753055000000003
 31
0.0
  0
LINE
  5
1C6
  8
0
 10
51.022953671374502
 20
77.953055000000006
 30
0.0
 11
51.022953671374502
 21
59.553055000000001
 31
0.0
  0
LINE
  5
1C7
  8
2
 10
56.522953671374488
 20
73.503055000000003
 30
0.0
 11
56.522953671374488
 21
64.003055000000003
 31
0.0
  0
LINE
  5
1C8
  8
0
 10
63.022953671374502
 20
67.229055000000002
 30
0.0
 11
61.498953671374501
 21
68.753055000000003
 31
0.0
  0
LINE
  5
1C9
  8
2
 10
56.522953671374488
 20
66.003055000000003
 30
0.0
 11
51.022953671374502
 21
66.003055000000003
 31
0.0
  0
LINE
  5
1CA
  8
0
 10
62.354953671374489
 20
58.753055000000003
 30
0.0
 11
51.822953671374499
 21
58.753055000000003
 31
0.0
  0
LINE
  5
1CB
  8
2
 10
62.844953671374469
 20
64.003055000000003
 30
0.0
 11
56.522953671374488
 21
64.003055000000003
 31
0.0
  0
LINE
  5
1CC
  8
0
 10
63.022953671374502
 20
61.133054999999999
 30
0.0
 11
61.498953671374501
 21
62.657055
 31
0.0
  0
LINE
  5
1CD
  8
0
 10
62.354953671374489
 20
58.753055000000003
 30
0.0
 11
61.498953671374501
 21
59.609054999999998
 31
0.0
  0
LINE
  5
1CE
  8
0
 10
61.498953671374501
 20
59.609054999999998
 30
0.0
 11
63.022953671374502
 21
61.133054999999999
 31
0.0
  0
LINE
  5
1CF
  8
0
 10
63.022953671374502
 20
64.181055000000001
 30
0.0
 11
61.498953671374501
 21
65.705055000000002
 31
0.0
  0
LINE
  5
1D0
  8
0
 10
61.498953671374501
 20
62.657055
 30
0.0
 11
63.022953671374502
 21
64.181055000000001
 31
0.0
  0
LINE
  5
1D1
  8
0
 10
61.498953671374501
 20
65.705055000000002
 30
0.0
 11
63.022953671374502
 21
67.229055000000002
 31
0.0
  0
LINE
  5
1D2
  8
0
 10
51.022953671374502
 20
59.553055000000001
 30
0.0
 11
51.822953671374499
 21
58.753055000000003
 31
0.0
  0
LINE
  5
1D3
  8
0
 10
62.354953671374489
 20
78.753055000000003
 30
0.0
 11
51.822953671374499
 21
78.753055000000003
 31
0.0
  0
LINE
  5
1D4
  8
2
 10
56.522953671374488
 20
71.503055000000003
 30
0.0
 11
51.022953671374502
 21
71.503054999999989
 31
0.0
  0
LINE
  5
1D5
  8
1
 10
65.522953671374495
 20
68.753055000000003
 30
0.0
 11
48.522953671374502
 21
68.753055000000003
 31
0.0
  0
LINE
  5
1D6
  8
0
 10
62.354953671374489
 20
78.753055000000003
 30
0.0
 11
61.498953671374501
 21
77.897055000000009
 31
0.0
  0
LINE
  5
1D7
  8
2
 10
62.844953671374491
 20
73.503055000000003
 30
0.0
 11
56.522953671374488
 21
73.503055000000003
 31
0.0
  0
LINE
  5
1D8
  8
0
 10
63.022953671374502
 20
73.325055000000006
 30
0.0
 11
61.498953671374501
 21
71.801055000000005
 31
0.0
  0
LINE
  5
1D9
  8
0
 10
63.022953671374502
 20
70.277055000000004
 30
0.0
 11
61.498953671374501
 21
68.753055000000003
 31
0.0
  0
LINE
  5
1DA
  8
0
 10
61.498953671374501
 20
71.801055000000005
 30
0.0
 11
63.022953671374502
 21
70.277055000000004
 31
0.0
  0
LINE
  5
1DB
  8
0
 10
63.022953671374502
 20
76.373054999999994
 30
0.0
 11
61.498953671374501
 21
74.849055000000007
 31
0.0
  0
LINE
  5
1DC
  8
0
 10
61.498953671374501
 20
74.849055000000007
 30
0.0
 11
63.022953671374502
 21
73.325055000000006
 31
0.0
  0
LINE
  5
1DD
  8
0
 10
61.498953671374501
 20
77.897055000000009
 30
0.0
 11
63.022953671374502
 21
76.373054999999994
 31
0.0
  0
LINE
  5
1DE
  8
0
 10
51.022953671374502
 20
77.953055000000006
 30
0.0
 11
51.822953671374499
 21
78.753055000000003
 31
0.0
  0
LINE
  5
1DF
  8
0
 10
86.094224999999994
 20
29.741847447294418
 30
0.0
 11
104.494225
 21
29.741847447294418
 31
0.0
  0
LINE
  5
1E0
  8
0
 10
85.294224999999997
 20
30.54184744729443
 30
0.0
 11
105.294225
 21
30.54184744729443
 31
0.0
  0
LINE
  5
1E1
  8
0
 10
92.246224999999995
 20
40.21784744729441
 30
0.0
 11
93.770224999999996
 21
41.741847447294418
 31
0.0
  0
LINE
  5
1E2
  8
2
 10
90.544224999999983
 20
35.241847447294418
 30
0.0
 11
100.044225
 21
35.241847447294418
 31
0.0
  0
LINE
  5
1E3
  8
0
 10
85.294224999999997
 20
41.073847447294412
 30
0.0
 11
85.294224999999997
 21
30.54184744729443
 31
0.0
  0
LINE
  5
1E4
  8
2
 10
90.544225000000012
 20
41.563847447294421
 30
0.0
 11
90.544225000000012
 21
35.241847447294418
 31
0.0
  0
LINE
  5
1E5
  8
0
 10
86.150225000000006
 20
40.21784744729441
 30
0.0
 11
87.674225000000007
 21
41.741847447294418
 31
0.0
  0
LINE
  5
1E6
  8
0
 10
85.294224999999997
 20
41.073847447294412
 30
0.0
 11
86.150225000000006
 21
40.21784744729441
 31
0.0
  0
LINE
  5
1E7
  8
0
 10
89.198224999999994
 20
40.21784744729441
 30
0.0
 11
90.722224999999995
 21
41.741847447294418
 31
0.0
  0
LINE
  5
1E8
  8
0
 10
87.674225000000007
 20
41.741847447294418
 30
0.0
 11
89.198224999999994
 21
40.21784744729441
 31
0.0
  0
LINE
  5
1E9
  8
0
 10
90.722224999999995
 20
41.741847447294418
 30
0.0
 11
92.246224999999995
 21
40.21784744729441
 31
0.0
  0
LINE
  5
1EA
  8
0
 10
86.094224999999994
 20
29.741847447294418
 30
0.0
 11
85.294224999999997
 21
30.54184744729443
 31
0.0
  0
LINE
  5
1EB
  8
2
 10
92.544224999999997
 20
35.241847447294418
 30
0.0
 11
92.544225000000026
 21
29.741847447294418
 31
0.0
  0
LINE
  5
1EC
  8
1
 10
95.294224999999997
 20
44.241847447294418
 30
0.0
 11
95.294224999999997
 21
27.241847447294418
 31
0.0
  0
LINE
  5
1ED
  8
0
 10
105.294225
 20
41.073847447294412
 30
0.0
 11
105.294225
 21
30.54184744729443
 31
0.0
  0
LINE
  5
1EE
  8
2
 10
100.044225
 20
41.563847447294393
 30
0.0
 11
100.044225
 21
35.241847447294418
 31
0.0
  0
LINE
  5
1EF
  8
0
 10
101.390225
 20
40.21784744729441
 30
0.0
 11
99.866225000000014
 21
41.741847447294418
 31
0.0
  0
LINE
  5
1F0
  8
0
 10
98.342224999999999
 20
40.21784744729441
 30
0.0
 11
96.818224999999998
 21
41.741847447294418
 31
0.0
  0
LINE
  5
1F1
  8
0
 10
93.770224999999996
 20
41.741847447294418
 30
0.0
 11
95.294224999999997
 21
40.21784744729441
 31
0.0
  0
LINE
  5
1F2
  8
0
 10
96.818224999999998
 20
41.741847447294418
 30
0.0
 11
95.294224999999997
 21
40.21784744729441
 31
0.0
  0
LINE
  5
1F3
  8
0
 10
99.866225000000014
 20
41.741847447294418
 30
0.0
 11
98.342224999999999
 21
40.21784744729441
 31
0.0
  0
LINE
  5
1F4
  8
0
 10
105.294225
 20
41.073847447294412
 30
0.0
 11
104.438225
 21
40.21784744729441
 31
0.0
  0
LINE
  5
1F5
  8
0
 10
104.438225
 20
40.21784744729441
 30
0.0
 11
102.914225
 21
41.741847447294418
 31
0.0
  0
LINE
  5
1F6
  8
0
 10
102.914225
 20
41.741847447294418
 30
0.0
 11
101.390225
 21
40.21784744729441
 31
0.0
  0
LINE
  5
1F7
  8
2
 10
98.044225000000012
 20
35.241847447294418
 30
0.0
 11
98.044225000000012
 21
29.741847447294418
 31
0.0
  0
LINE
  5
1F8
  8
0
 10
104.494225
 20
29.741847447294418
 30
0.0
 11
105.294225
 21
30.54184744729443
 31
0.0
  0
TEXT
  5
33E
  8
0
 62
     3
 10
0.0
 20
0.0
 30
0.0
 40
5.0
  1
HS-202-C
  7
STANDARD1
  0
ENDSEC
  0
EOF
