  0
SECTION
  2
HEADER
  9
$ACADVER
  1
AC1009
  9
$INSBASE
 10
0.0
 20
0.0
 30
0.0
  9
$EXTMIN
 10
0.0
 20
-1.4802182810368341
 30
0.0
  9
$EXTMAX
 10
74.133885512175823
 20
62.040653915191712
 30
0.0
  9
$LIMMIN
 10
0.0
 20
0.0
  9
$LIMMAX
 10
187.5
 20
135.0
  9
$ORTHOMODE
 70
     0
  9
$REGENMODE
 70
     1
  9
$FILLMODE
 70
     1
  9
$QTEXTMODE
 70
     0
  9
$MIRRTEXT
 70
     0
  9
$DRAGMODE
 70
     2
  9
$LTSCALE
 40
5.0
  9
$OSMODE
 70
    55
  9
$ATTMODE
 70
     1
  9
$TEXTSIZE
 40
1.6000000000000001
  9
$TRACEWID
 40
0.05
  9
$TEXTSTYLE
  7
STANDARD
  9
$CLAYER
  8
0
  9
$CELTYPE
  6
BYLAYER
  9
$CECOLOR
 62
   256
  9
$DIMSCALE
 40
0.5
  9
$DIMASZ
 40
3.0
  9
$DIMEXO
 40
2.0
  9
$DIMDLI
 40
10.0
  9
$DIMRND
 40
0.0
  9
$DIMDLE
 40
0.0
  9
$DIMEXE
 40
2.0
  9
$DIMTP
 40
0.0
  9
$DIMTM
 40
0.0
  9
$DIMTXT
 40
3.2000000000000002
  9
$DIMCEN
 40
0.09
  9
$DIMTSZ
 40
0.0
  9
$DIMTOL
 70
     0
  9
$DIMLIM
 70
     0
  9
$DIMTIH
 70
     0
  9
$DIMTOH
 70
     0
  9
$DIMSE1
 70
     0
  9
$DIMSE2
 70
     0
  9
$DIMTAD
 70
     1
  9
$DIMZIN
 70
     0
  9
$DIMBLK
  1

  9
$DIMASO
 70
     0
  9
$DIMSHO
 70
     0
  9
$DIMPOST
  1

  9
$DIMAPOST
  1

  9
$DIMALT
 70
     0
  9
$DIMALTD
 70
     2
  9
$DIMALTF
 40
25.399999999999999
  9
$DIMLFAC
 40
1.0
  9
$DIMTOFL
 70
     1
  9
$DIMTVP
 40
1.6000000000000001
  9
$DIMTIX
 70
     1
  9
$DIMSOXD
 70
     0
  9
$DIMSAH
 70
     0
  9
$DIMBLK1
  1

  9
$DIMBLK2
  1

  9
$DIMSTYLE
  2
STANDARD
  9
$DIMCLRD
 70
     0
  9
$DIMCLRE
 70
     0
  9
$DIMCLRT
 70
     0
  9
$DIMTFAC
 40
1.0
  9
$DIMGAP
 40
0.09
  9
$LUNITS
 70
     2
  9
$LUPREC
 70
     4
  9
$SKETCHINC
 40
0.1
  9
$FILLETRAD
 40
0.0
  9
$AUNITS
 70
     0
  9
$AUPREC
 70
     0
  9
$MENU
  1
E:\r13\win\SUPPORT\ACAD
  9
$ELEVATION
 40
0.0
  9
$PELEVATION
 40
0.0
  9
$THICKNESS
 40
0.0
  9
$LIMCHECK
 70
     0
  9
$BLIPMODE
 70
     0
  9
$CHAMFERA
 40
0.0
  9
$CHAMFERB
 40
0.0
  9
$SKPOLY
 70
     0
  9
$TDCREATE
 40
2449840.5945833339
  9
$TDUPDATE
 40
2456598.6926933802
  9
$TDINDWG
 40
0.0133578241
  9
$TDUSRTIMER
 40
0.0133578241
  9
$USRTIMER
 70
     1
  9
$ANGBASE
 50
0.0
  9
$ANGDIR
 70
     0
  9
$PDMODE
 70
     0
  9
$PDSIZE
 40
0.0
  9
$PLINEWID
 40
0.0
  9
$COORDS
 70
     1
  9
$SPLFRAME
 70
     0
  9
$SPLINETYPE
 70
     6
  9
$SPLINESEGS
 70
     8
  9
$ATTDIA
 70
     0
  9
$ATTREQ
 70
     1
  9
$HANDLING
 70
     1
  9
$HANDSEED
  5
43C
  9
$SURFTAB1
 70
     6
  9
$SURFTAB2
 70
     6
  9
$SURFTYPE
 70
     6
  9
$SURFU
 70
     6
  9
$SURFV
 70
     6
  9
$UCSNAME
  2

  9
$UCSORG
 10
0.0
 20
0.0
 30
0.0
  9
$UCSXDIR
 10
1.0
 20
0.0
 30
0.0
  9
$UCSYDIR
 10
0.0
 20
1.0
 30
0.0
  9
$PUCSNAME
  2

  9
$PUCSORG
 10
0.0
 20
0.0
 30
0.0
  9
$PUCSXDIR
 10
1.0
 20
0.0
 30
0.0
  9
$PUCSYDIR
 10
0.0
 20
1.0
 30
0.0
  9
$USERI1
 70
     0
  9
$USERI2
 70
     1
  9
$USERI3
 70
     0
  9
$USERI4
 70
     0
  9
$USERI5
 70
     0
  9
$USERR1
 40
0.0
  9
$USERR2
 40
0.0
  9
$USERR3
 40
0.0
  9
$USERR4
 40
0.0
  9
$USERR5
 40
0.0
  9
$WORLDVIEW
 70
     1
  9
$SHADEDGE
 70
     3
  9
$SHADEDIF
 70
    70
  9
$TILEMODE
 70
     1
  9
$MAXACTVP
 70
    16
  9
$PLIMCHECK
 70
     0
  9
$PEXTMIN
 10
1.0000000000000000E+020
 20
1.0000000000000000E+020
 30
1.0000000000000000E+020
  9
$PEXTMAX
 10
-1.0000000000000000E+020
 20
-1.0000000000000000E+020
 30
-1.0000000000000000E+020
  9
$PLIMMIN
 10
0.0
 20
0.0
  9
$PLIMMAX
 10
12.0
 20
9.0
  9
$UNITMODE
 70
     0
  9
$VISRETAIN
 70
     0
  9
$PLINEGEN
 70
     0
  9
$PSLTSCALE
 70
     0
  0
ENDSEC
  0
SECTION
  2
TABLES
  0
TABLE
  2
VPORT
 70
     1
  0
VPORT
  2
*ACTIVE
 70
     0
 10
0.0
 20
0.0
 11
1.0
 21
1.0
 12
93.74713919532617
 22
87.458386271734256
 13
0.0
 23
0.0
 14
5.0
 24
5.0
 15
5.0
 25
5.0
 16
0.0
 26
0.0
 36
1.0
 17
0.0
 27
0.0
 37
0.0
 40
179.46013949787169
 41
1.7807262569832401
 42
50.0
 43
0.0
 44
0.0
 50
0.0
 51
0.0
 71
     0
 72
   100
 73
     1
 74
     0
 75
     0
 76
     0
 77
     0
 78
     0
  0
ENDTAB
  0
TABLE
  2
LTYPE
 70
     4
  0
LTYPE
  2
CONTINUOUS
 70
     0
  3
Solid Line
 72
    65
 73
     0
 40
0.0
  0
LTYPE
  2
CENTER
 70
     0
  3
____ _ ____ _ ____ _ ____ _ ____ _ ____ _ ____
 72
    65
 73
     4
 40
2.0
 49
1.25
 49
-0.25
 49
0.25
 49
-0.25
  0
LTYPE
  2
HIDDEN
 70
     0
  3
_ _ _ _ _ _ _ _ _ _ _ _ _ _ _ _ _ _ _ _ _ _ _
 72
    65
 73
     2
 40
0.375
 49
0.25
 49
-0.125
  0
LTYPE
  2
PHANTOM2
 70
     0
  3
___ _ _ ___ _ _ ___ _ _ ___ _ _
 72
    65
 73
     6
 40
1.25
 49
0.625
 49
-0.125
 49
0.125
 49
-0.125
 49
0.125
 49
-0.125
  0
ENDTAB
  0
TABLE
  2
LAYER
 70
     4
  0
LAYER
  2
0
 70
     0
 62
     7
  6
CONTINUOUS
  0
LAYER
  2
1
 70
     0
 62
     1
  6
CENTER
  0
LAYER
  2
2
 70
     0
 62
     2
  6
HIDDEN
  0
LAYER
  2
3
 70
     0
 62
     3
  6
CONTINUOUS
  0
ENDTAB
  0
TABLE
  2
STYLE
 70
     2
  0
STYLE
  2
STANDARD
 70
     0
 40
0.0
 41
1.0
 50
0.0
 71
     0
 42
1.6000000000000001
  3
TXT
  4
BIGFONT
  0
STYLE
  2
STANDARD1
 70
     0
 40
0.0
 41
1.0
 50
0.0
 71
     0
 42
3.0
  3
txt
  4

  0
ENDTAB
  0
TABLE
  2
VIEW
 70
     1
  0
VIEW
  2
ALL
 70
     0
 40
135.0
 10
110.49579799999999
 20
67.5
 41
0.0
 11
0.0
 21
0.0
 31
1.0
 12
0.0
 22
0.0
 32
0.0
 42
0.0
 43
0.0
 44
0.0
 50
0.0
 71
     0
  0
ENDTAB
  0
TABLE
  2
UCS
 70
     0
  0
ENDTAB
  0
TABLE
  2
APPID
 70
     3
  0
APPID
  2
ACAD
 70
     0
  0
APPID
  2
ACAD_MLEADERVER
 70
     0
  0
APPID
  2
ACAD_NAV_VCDISPLAY
 70
     0
  0
ENDTAB
  0
TABLE
  2
DIMSTYLE
 70
     1
  0
DIMSTYLE
  2
STANDARD
 70
     0
  3

  4

  5

  6

  7

 40
1.0
 41
0.18
 42
0.0625
 43
0.38
 44
0.18
 45
0.0
 46
0.0
 47
0.0
 48
0.0
140
0.18
141
0.09
142
0.0
143
25.399999999999999
144
1.0
145
0.0
146
1.0
147
0.09
 71
     0
 72
     0
 73
     1
 74
     1
 75
     0
 76
     0
 77
     0
 78
     0
170
     0
171
     2
172
     0
173
     0
174
     0
175
     0
176
     0
177
     0
178
     0
  0
ENDTAB
  0
ENDSEC
  0
SECTION
  2
BLOCKS
  0
BLOCK
  8
0
  2
$MODEL_SPACE
 70
     0
 10
0.0
 20
0.0
 30
0.0
  3
$MODEL_SPACE
  1

  0
ENDBLK
  5
113
  8
0
  0
BLOCK
 67
     1
  8
0
  2
$PAPER_SPACE
 70
     0
 10
0.0
 20
0.0
 30
0.0
  3
$PAPER_SPACE
  1

  0
ENDBLK
  5
111
 67
     1
  8
0
  0
ENDSEC
  0
SECTION
  2
ENTITIES
  0
LINE
  5
36
  8
1
 10
23.133885512175841
 20
51.540653915191697
 30
0.0
 11
44.13388551217583
 21
51.540653915191697
 31
0.0
  0
LINE
  5
37
  8
1
 10
33.633885512175837
 20
62.040653915191712
 30
0.0
 11
33.633885512175802
 21
41.04065391519169
 31
0.0
  0
LINE
  5
38
  8
0
 10
71.633885512175851
 20
58.740653915191658
 30
0.0
 11
71.633885512175823
 21
44.340653915191687
 31
0.0
  0
LINE
  5
39
  8
1
 10
59.13388551217583
 20
51.540653915191697
 30
0.0
 11
74.133885512175823
 21
51.540653915191697
 31
0.0
  0
LINE
  5
3C
  8
0
 10
62.489885512175931
 20
59.54065391519169
 30
0.0
 11
70.833885512175854
 21
59.54065391519169
 31
0.0
  0
LINE
  5
3D
  8
0
 10
71.633885512175823
 20
58.740653915191679
 30
0.0
 11
70.83388551217584
 21
59.54065391519169
 31
0.0
  0
LINE
  5
3E
  8
0
 10
61.729885512175848
 20
51.540653915191683
 30
0.0
 11
63.253885512175849
 21
50.016653915191682
 31
0.0
  0
LINE
  5
3F
  8
0
 10
63.253885512175849
 20
53.064653915191677
 30
0.0
 11
61.729885512175848
 21
51.540653915191683
 31
0.0
  0
LINE
  5
40
  8
0
 10
61.729885512175848
 20
54.588653915191678
 30
0.0
 11
63.253885512175849
 21
53.064653915191677
 31
0.0
  0
LINE
  5
41
  8
0
 10
63.157885512175852
 20
56.016653915191682
 30
0.0
 11
61.729885512175848
 21
54.588653915191678
 31
0.0
  0
LINE
  5
42
  8
0
 10
63.157885512175852
 20
44.016653915191689
 30
0.0
 11
61.729885512175848
 21
45.44465391519168
 31
0.0
  0
LINE
  5
43
  8
0
 10
61.729885512175848
 20
45.44465391519168
 30
0.0
 11
63.253885512175849
 21
46.96865391519168
 31
0.0
  0
LINE
  5
44
  8
0
 10
63.253885512175849
 20
46.96865391519168
 30
0.0
 11
61.729885512175848
 21
48.492653915191688
 31
0.0
  0
LINE
  5
45
  8
0
 10
61.729885512175848
 20
48.492653915191688
 30
0.0
 11
63.253885512175849
 21
50.016653915191682
 31
0.0
  0
LINE
  5
46
  8
0
 10
62.681885512175832
 20
43.540653915191712
 30
0.0
 11
70.833885512175854
 21
43.540653915191697
 31
0.0
  0
LINE
  5
47
  8
0
 10
71.633885512175823
 20
44.340653915191687
 30
0.0
 11
70.833885512175854
 21
43.540653915191697
 31
0.0
  0
LINE
  5
48
  8
0
 10
70.833885512175868
 20
59.540653915191641
 30
0.0
 11
70.833885512175854
 21
43.540653915191683
 31
0.0
  0
LINE
  5
4F
  8
3
 10
41.633885512175823
 20
53.064653915191698
 30
0.0
 11
35.563042387600952
 21
53.064653915191698
 31
0.0
  0
LINE
  5
50
  8
3
 10
41.633885512175851
 20
50.016653915191696
 30
0.0
 11
35.563042387600952
 21
50.016653915191696
 31
0.0
  0
LINE
  5
51
  8
3
 10
41.63388551217583
 20
46.968653915191688
 30
0.0
 11
25.633885512175819
 21
46.968653915191702
 31
0.0
  0
LINE
  5
52
  8
3
 10
29.06188551217582
 20
59.540653915191712
 30
0.0
 11
29.06188551217581
 21
43.54065391519169
 31
0.0
  0
LINE
  5
53
  8
3
 10
32.109885512175822
 20
59.540653915191712
 30
0.0
 11
32.109885512175822
 21
53.469810790616819
 31
0.0
  0
LINE
  5
54
  8
3
 10
35.157885512175817
 20
59.540653915191712
 30
0.0
 11
35.157885512175817
 21
53.469810790616819
 31
0.0
  0
LINE
  5
55
  8
3
 10
38.585885512175857
 20
59.540653915191712
 30
0.0
 11
32.946267676619783
 21
53.901036079635666
 31
0.0
  0
LINE
  5
56
  8
3
 10
41.633885512175823
 20
59.540653138708457
 30
0.0
 11
35.372307232121962
 21
53.279076238339769
 31
0.0
  0
LINE
  5
57
  8
3
 10
41.633885512175823
 20
56.492653915191717
 30
0.0
 11
35.994267676619799
 21
50.853036079635672
 31
0.0
  0
LINE
  5
58
  8
3
 10
35.537885512175819
 20
59.54065391519169
 30
0.0
 11
25.633885512175819
 21
49.636653915191708
 31
0.0
  0
LINE
  5
59
  8
3
 10
41.633885512175851
 20
53.444653915191751
 30
0.0
 11
31.729885512175809
 21
43.540653915191697
 31
0.0
  0
LINE
  5
5A
  8
3
 10
28.681885512175811
 20
59.540653915191712
 30
0.0
 11
34.321503347731849
 21
53.901036079635666
 31
0.0
  0
LINE
  5
5B
  8
3
 10
25.633885512175819
 20
59.540653915191712
 30
0.0
 11
31.8954634906287
 21
53.27907593673882
 31
0.0
  0
LINE
  5
5C
  8
3
 10
25.633885512175819
 20
56.49265391519171
 30
0.0
 11
31.273503347731829
 21
50.853036079635693
 31
0.0
  0
LINE
  5
5E
  8
3
 10
25.633885512175819
 20
50.396653915191692
 30
0.0
 11
32.489885512175832
 21
43.540653915191697
 31
0.0
  0
LINE
  5
5F
  8
3
 10
32.109885512175822
 20
49.611497039766583
 30
0.0
 11
32.109885512175822
 21
44.016653915191696
 31
0.0
  0
LINE
  5
60
  8
3
 10
32.946266071164558
 20
49.180272218443612
 30
0.0
 11
38.585885617058359
 21
43.540653915191697
 31
0.0
  0
LINE
  5
61
  8
3
 10
31.704728636750701
 20
50.016653915191696
 30
0.0
 11
25.633885512175841
 21
50.016653915191696
 31
0.0
  0
LINE
  5
62
  8
3
 10
31.8954634906287
 20
49.802231893644567
 30
0.0
 11
25.633885512175841
 21
43.540653915191712
 31
0.0
  0
LINE
  5
67
  8
3
 10
31.729885512175802
 20
59.540653915191712
 30
0.0
 11
41.633885512175851
 21
49.63665391519168
 31
0.0
  0
LINE
  5
68
  8
3
 10
25.633885512175841
 20
52.684653915191703
 30
0.0
 11
32.489885512175832
 21
59.540653915191712
 31
0.0
  0
LINE
  5
69
  8
3
 10
29.441885512175791
 20
43.540653915191697
 30
0.0
 11
25.633885512175841
 21
47.34865391519169
 31
0.0
  0
LINE
  5
6A
  8
3
 10
41.633885512175851
 20
50.396653915191699
 30
0.0
 11
34.7778855121758
 21
43.540653915191697
 31
0.0
  0
CIRCLE
  5
2B4
  8
0
 10
33.633885512175823
 20
51.540653915191697
 30
0.0
 40
2.458499999999999
  0
CIRCLE
  5
2B5
  8
3
 10
33.633885512175823
 20
51.540653915191697
 30
0.0
 40
3.0
  0
LINE
  5
2B6
  8
3
 10
35.372307533722953
 20
49.802231893644567
 30
0.0
 11
41.633885512175823
 21
43.540653915191662
 31
0.0
  0
LINE
  5
2B7
  8
3
 10
31.27350334773185
 20
52.22827175074773
 30
0.0
 11
25.633885512175841
 21
46.588653915191699
 31
0.0
  0
LINE
  5
2B8
  8
3
 10
25.633885512175841
 20
53.444653915191687
 30
0.0
 11
35.537885512175819
 21
43.540653915191697
 31
0.0
  0
LINE
  5
2B9
  8
3
 10
34.321503347731827
 20
49.180271750747707
 30
0.0
 11
28.681885512175828
 21
43.540653915191697
 31
0.0
  0
LINE
  5
2BA
  8
0
 10
41.633885512175823
 20
59.54065391519169
 30
0.0
 11
41.63388551217583
 21
43.540653915191697
 31
0.0
  0
LINE
  5
2BB
  8
0
 10
25.633885512175819
 20
59.54065391519169
 30
0.0
 11
25.633885512175819
 21
43.540653915191697
 31
0.0
  0
LINE
  5
2BC
  8
0
 10
25.633885512175819
 20
59.54065391519169
 30
0.0
 11
41.63388551217583
 21
59.54065391519169
 31
0.0
  0
LINE
  5
2BD
  8
0
 10
25.633885512175819
 20
43.540653915191697
 30
0.0
 11
41.63388551217583
 21
43.540653915191697
 31
0.0
  0
LINE
  5
2BE
  8
3
 10
41.633885512175851
 20
47.348653915191697
 30
0.0
 11
37.825885512175802
 21
43.540653915191697
 31
0.0
  0
LINE
  5
2BF
  8
3
 10
34.777885512175757
 20
59.540653915191712
 30
0.0
 11
41.633885512175858
 21
52.684653915191689
 31
0.0
  0
LINE
  5
2C0
  8
3
 10
38.20588551217584
 20
59.540653915191712
 30
0.0
 11
38.205885512175811
 21
43.54065391519169
 31
0.0
  0
LINE
  5
2C1
  8
3
 10
41.253885512175842
 20
59.540653915191712
 30
0.0
 11
41.253885512175813
 21
43.54065391519169
 31
0.0
  0
LINE
  5
2C2
  8
3
 10
41.63388551217583
 20
56.112653915191672
 30
0.0
 11
25.633885512175819
 21
56.112653915191721
 31
0.0
  0
LINE
  5
2C3
  8
3
 10
41.633885512175809
 20
59.160653915191702
 30
0.0
 11
25.633885512175819
 21
59.160653915191702
 31
0.0
  0
LINE
  5
2C4
  8
3
 10
31.704728636750701
 20
53.064653915191698
 30
0.0
 11
25.633885512175819
 21
53.064653915191712
 31
0.0
  0
LINE
  5
2C5
  8
3
 10
35.994267676619799
 20
52.22827175074773
 30
0.0
 11
41.63388551217583
 21
46.588653915191678
 31
0.0
  0
LINE
  5
2C6
  8
3
 10
35.157885512175817
 20
49.611497039766583
 30
0.0
 11
35.15788551217581
 21
43.54065391519169
 31
0.0
  0
LINE
  5
2C8
  8
3
 10
41.633885512175823
 20
43.920653915191679
 30
0.0
 11
25.633885512175809
 21
43.920653915191693
 31
0.0
  0
LINE
  5
2C9
  8
3
 10
26.013885512175818
 20
59.540653915191712
 30
0.0
 11
26.013885512175801
 21
43.54065391519169
 31
0.0
  0
LINE
  5
2CA
  8
3
 10
25.633885512175851
 20
55.73265391519169
 30
0.0
 11
29.44188551217584
 21
59.54065391519169
 31
0.0
  0
LINE
  5
2CB
  8
3
 10
37.825885512175773
 20
59.540653915191712
 30
0.0
 11
41.633885512175823
 21
55.732653915191662
 31
0.0
  0
LINE
  5
2D0
  8
0
 10
61.633885512175851
 20
57.540653915191683
 30
0.0
 11
63.157885512175852
 21
56.016653915191682
 31
0.0
  0
LINE
  5
2D1
  8
0
 10
63.061885512175849
 20
58.96865391519168
 30
0.0
 11
61.633885512175851
 21
57.540653915191683
 31
0.0
  0
LINE
  5
2D2
  8
0
 10
62.489885512175867
 20
59.54065391519169
 30
0.0
 11
63.061885512175849
 21
58.96865391519168
 31
0.0
  0
LINE
  5
2D3
  8
0
 10
62.681885512175811
 20
43.540653915191669
 30
0.0
 11
63.157885512175852
 21
44.016653915191689
 31
0.0
  0
LINE
  5
2D4
  8
2
 10
70.833885512175826
 20
49.082153915191682
 30
0.0
 11
71.633885512175823
 21
48.282153915191692
 31
0.0
  0
LINE
  5
2D5
  8
2
 10
71.633885512175823
 20
54.799153915191681
 30
0.0
 11
70.833885512175826
 21
53.999153915191691
 31
0.0
  0
LINE
  5
2D6
  8
2
 10
71.375385512175868
 20
48.540653915191683
 30
0.0
 11
61.777885512175871
 21
48.540653915191683
 31
0.0
  0
LINE
  5
2D7
  8
2
 10
70.833885512175826
 20
49.082153915191682
 30
0.0
 11
62.31938551217587
 21
49.082153915191689
 31
0.0
  0
LINE
  5
2D8
  8
2
 10
70.833885512175826
 20
53.999153915191691
 30
0.0
 11
62.319385512175877
 21
53.999153915191691
 31
0.0
  0
LINE
  5
2D9
  8
2
 10
71.375385512175868
 20
54.54065391519169
 30
0.0
 11
61.77788551217585
 21
54.54065391519169
 31
0.0
  0
LINE
  5
2DA
  8
2
 10
70.833885512175826
 20
53.999153915191691
 30
0.0
 11
70.833885512175854
 21
49.082153915191682
 31
0.0
  0
TEXT
  5
3A3
  8
0
 62
     3
 10
0.0
 20
0.0
 30
0.0
 40
5.0
  1
HS-9160
  7
STANDARD1
  0
ENDSEC
  0
EOF
