  0
SECTION
  2
HEADER
  9
$ACADVER
  1
AC1009
  9
$INSBASE
 10
0.0
 20
0.0
 30
0.0
  9
$EXTMIN
 10
0.0
 20
-1.4802182810368341
 30
0.0
  9
$EXTMAX
 10
74.499999999999972
 20
40.500000000000007
 30
0.0
  9
$LIMMIN
 10
0.0
 20
0.0
  9
$LIMMAX
 10
187.5
 20
135.0
  9
$ORTHOMODE
 70
     1
  9
$REGENMODE
 70
     1
  9
$FILLMODE
 70
     1
  9
$QTEXTMODE
 70
     0
  9
$MIRRTEXT
 70
     0
  9
$DRAGMODE
 70
     2
  9
$LTSCALE
 40
5.0
  9
$OSMODE
 70
    37
  9
$ATTMODE
 70
     1
  9
$TEXTSIZE
 40
1.6000000000000001
  9
$TRACEWID
 40
0.05
  9
$TEXTSTYLE
  7
STANDARD
  9
$CLAYER
  8
0
  9
$CELTYPE
  6
BYLAYER
  9
$CECOLOR
 62
   256
  9
$DIMSCALE
 40
0.5
  9
$DIMASZ
 40
3.0
  9
$DIMEXO
 40
2.0
  9
$DIMDLI
 40
10.0
  9
$DIMRND
 40
0.0
  9
$DIMDLE
 40
0.0
  9
$DIMEXE
 40
2.0
  9
$DIMTP
 40
0.0
  9
$DIMTM
 40
0.0
  9
$DIMTXT
 40
3.2000000000000002
  9
$DIMCEN
 40
0.09
  9
$DIMTSZ
 40
0.0
  9
$DIMTOL
 70
     0
  9
$DIMLIM
 70
     0
  9
$DIMTIH
 70
     0
  9
$DIMTOH
 70
     0
  9
$DIMSE1
 70
     0
  9
$DIMSE2
 70
     0
  9
$DIMTAD
 70
     1
  9
$DIMZIN
 70
     8
  9
$DIMBLK
  1

  9
$DIMASO
 70
     0
  9
$DIMSHO
 70
     0
  9
$DIMPOST
  1

  9
$DIMAPOST
  1

  9
$DIMALT
 70
     0
  9
$DIMALTD
 70
     2
  9
$DIMALTF
 40
25.399999999999999
  9
$DIMLFAC
 40
1.0
  9
$DIMTOFL
 70
     1
  9
$DIMTVP
 40
1.6000000000000001
  9
$DIMTIX
 70
     1
  9
$DIMSOXD
 70
     0
  9
$DIMSAH
 70
     0
  9
$DIMBLK1
  1

  9
$DIMBLK2
  1

  9
$DIMSTYLE
  2
STANDARD
  9
$DIMCLRD
 70
     0
  9
$DIMCLRE
 70
     0
  9
$DIMCLRT
 70
     0
  9
$DIMTFAC
 40
1.0
  9
$DIMGAP
 40
0.09
  9
$LUNITS
 70
     2
  9
$LUPREC
 70
     1
  9
$SKETCHINC
 40
0.1
  9
$FILLETRAD
 40
0.0
  9
$AUNITS
 70
     0
  9
$AUPREC
 70
     1
  9
$MENU
  1
E:\r13\win\SUPPORT\ACAD
  9
$ELEVATION
 40
0.0
  9
$PELEVATION
 40
0.0
  9
$THICKNESS
 40
0.0
  9
$LIMCHECK
 70
     0
  9
$BLIPMODE
 70
     0
  9
$CHAMFERA
 40
0.0
  9
$CHAMFERB
 40
0.0
  9
$SKPOLY
 70
     0
  9
$TDCREATE
 40
2449840.5945833339
  9
$TDUPDATE
 40
2457711.4316349421
  9
$TDINDWG
 40
0.0290226389
  9
$TDUSRTIMER
 40
0.0290226389
  9
$USRTIMER
 70
     1
  9
$ANGBASE
 50
0.0
  9
$ANGDIR
 70
     0
  9
$PDMODE
 70
     0
  9
$PDSIZE
 40
0.0
  9
$PLINEWID
 40
0.0
  9
$COORDS
 70
     1
  9
$SPLFRAME
 70
     0
  9
$SPLINETYPE
 70
     6
  9
$SPLINESEGS
 70
     8
  9
$ATTDIA
 70
     0
  9
$ATTREQ
 70
     1
  9
$HANDLING
 70
     1
  9
$HANDSEED
  5
DD6
  9
$SURFTAB1
 70
     6
  9
$SURFTAB2
 70
     6
  9
$SURFTYPE
 70
     6
  9
$SURFU
 70
     6
  9
$SURFV
 70
     6
  9
$UCSNAME
  2

  9
$UCSORG
 10
0.0
 20
0.0
 30
0.0
  9
$UCSXDIR
 10
1.0
 20
0.0
 30
0.0
  9
$UCSYDIR
 10
0.0
 20
1.0
 30
0.0
  9
$PUCSNAME
  2

  9
$PUCSORG
 10
0.0
 20
0.0
 30
0.0
  9
$PUCSXDIR
 10
1.0
 20
0.0
 30
0.0
  9
$PUCSYDIR
 10
0.0
 20
1.0
 30
0.0
  9
$USERI1
 70
     0
  9
$USERI2
 70
     1
  9
$USERI3
 70
     0
  9
$USERI4
 70
     0
  9
$USERI5
 70
     0
  9
$USERR1
 40
0.0
  9
$USERR2
 40
0.0
  9
$USERR3
 40
0.0
  9
$USERR4
 40
0.0
  9
$USERR5
 40
0.0
  9
$WORLDVIEW
 70
     1
  9
$SHADEDGE
 70
     3
  9
$SHADEDIF
 70
    70
  9
$TILEMODE
 70
     1
  9
$MAXACTVP
 70
    16
  9
$PLIMCHECK
 70
     0
  9
$PEXTMIN
 10
1.0000000000000000E+020
 20
1.0000000000000000E+020
 30
1.0000000000000000E+020
  9
$PEXTMAX
 10
-1.0000000000000000E+020
 20
-1.0000000000000000E+020
 30
-1.0000000000000000E+020
  9
$PLIMMIN
 10
0.0
 20
0.0
  9
$PLIMMAX
 10
12.0
 20
9.0
  9
$UNITMODE
 70
     0
  9
$VISRETAIN
 70
     0
  9
$PLINEGEN
 70
     0
  9
$PSLTSCALE
 70
     0
  0
ENDSEC
  0
SECTION
  2
TABLES
  0
TABLE
  2
VPORT
 70
     1
  0
VPORT
  2
*ACTIVE
 70
     0
 10
0.0
 20
0.0
 11
1.0
 21
1.0
 12
81.730769230769226
 22
45.0
 13
0.0
 23
0.0
 14
5.0
 24
5.0
 15
5.0
 25
5.0
 16
0.0
 26
0.0
 36
1.0
 17
0.0
 27
0.0
 37
0.0
 40
90.0
 41
1.816239316239316
 42
50.0
 43
0.0
 44
0.0
 50
0.0
 51
0.0
 71
     0
 72
   100
 73
     1
 74
     0
 75
     0
 76
     0
 77
     0
 78
     0
  0
ENDTAB
  0
TABLE
  2
LTYPE
 70
     4
  0
LTYPE
  2
CONTINUOUS
 70
     0
  3
Solid Line
 72
    65
 73
     0
 40
0.0
  0
LTYPE
  2
CENTER
 70
     0
  3
____ _ ____ _ ____ _ ____ _ ____ _ ____ _ ____
 72
    65
 73
     4
 40
2.0
 49
1.25
 49
-0.25
 49
0.25
 49
-0.25
  0
LTYPE
  2
HIDDEN
 70
     0
  3
_ _ _ _ _ _ _ _ _ _ _ _ _ _ _ _ _ _ _ _ _ _ _
 72
    65
 73
     2
 40
0.375
 49
0.25
 49
-0.125
  0
LTYPE
  2
PHANTOM2
 70
     0
  3
___ _ _ ___ _ _ ___ _ _ ___ _ _
 72
    65
 73
     6
 40
1.25
 49
0.625
 49
-0.125
 49
0.125
 49
-0.125
 49
0.125
 49
-0.125
  0
ENDTAB
  0
TABLE
  2
LAYER
 70
     4
  0
LAYER
  2
0
 70
     0
 62
     7
  6
CONTINUOUS
  0
LAYER
  2
1
 70
     0
 62
     1
  6
CENTER
  0
LAYER
  2
2
 70
     0
 62
     2
  6
HIDDEN
  0
LAYER
  2
3
 70
     0
 62
     3
  6
CONTINUOUS
  0
ENDTAB
  0
TABLE
  2
STYLE
 70
     2
  0
STYLE
  2
STANDARD
 70
     0
 40
0.0
 41
1.0
 50
0.0
 71
     0
 42
1.6000000000000001
  3
TXT
  4
BIGFONT
  0
STYLE
  2
STANDARD1
 70
     0
 40
0.0
 41
1.0
 50
0.0
 71
     0
 42
3.0
  3
txt
  4

  0
ENDTAB
  0
TABLE
  2
VIEW
 70
     1
  0
VIEW
  2
ALL
 70
     0
 40
135.0
 10
110.49579799999999
 20
67.5
 41
0.0
 11
0.0
 21
0.0
 31
1.0
 12
0.0
 22
0.0
 32
0.0
 42
0.0
 43
0.0
 44
0.0
 50
0.0
 71
     0
  0
ENDTAB
  0
TABLE
  2
UCS
 70
     0
  0
ENDTAB
  0
TABLE
  2
APPID
 70
     6
  0
APPID
  2
ACAD
 70
     0
  0
APPID
  2
ACAD_MLEADERVER
 70
     0
  0
APPID
  2
ACAD_EXEMPT_FROM_CAD_STANDARDS
 70
     0
  0
APPID
  2
ACAD_DSTYLE_DIMJAG
 70
     0
  0
APPID
  2
ACAD_DSTYLE_DIMTALN
 70
     0
  0
APPID
  2
ACAD_NAV_VCDISPLAY
 70
     0
  0
ENDTAB
  0
TABLE
  2
DIMSTYLE
 70
     1
  0
DIMSTYLE
  2
STANDARD
 70
     0
  3

  4

  5

  6

  7

 40
1.0
 41
0.18
 42
0.0625
 43
0.38
 44
0.18
 45
0.0
 46
0.0
 47
0.0
 48
0.0
140
0.18
141
0.09
142
0.0
143
25.399999999999999
144
1.0
145
0.0
146
1.0
147
0.09
 71
     0
 72
     0
 73
     1
 74
     1
 75
     0
 76
     0
 77
     0
 78
     0
170
     0
171
     2
172
     0
173
     0
174
     0
175
     0
176
     0
177
     0
178
     0
  0
ENDTAB
  0
ENDSEC
  0
SECTION
  2
BLOCKS
  0
BLOCK
  8
0
  2
$MODEL_SPACE
 70
     0
 10
0.0
 20
0.0
 30
0.0
  3
$MODEL_SPACE
  1

  0
ENDBLK
  5
113
  8
0
  0
BLOCK
 67
     1
  8
0
  2
$PAPER_SPACE
 70
     0
 10
0.0
 20
0.0
 30
0.0
  3
$PAPER_SPACE
  1

  0
ENDBLK
  5
111
 67
     1
  8
0
  0
ENDSEC
  0
SECTION
  2
ENTITIES
  0
LINE
  5
36
  8
1
 10
19.5
 20
30.0
 30
0.0
 11
40.499999999999993
 21
30.0
 31
0.0
  0
LINE
  5
37
  8
1
 10
30.0
 20
40.500000000000007
 30
0.0
 11
29.999999999999961
 21
19.499999999999989
 31
0.0
  0
LINE
  5
38
  8
0
 10
72.0
 20
37.19999999999996
 30
0.0
 11
71.999999999999972
 21
22.800000000000001
 31
0.0
  0
LINE
  5
39
  8
1
 10
57.5
 20
30.0
 30
0.0
 11
74.499999999999972
 21
30.0
 31
0.0
  0
LINE
  5
3C
  8
0
 10
60.760000000000062
 20
37.999999999999993
 30
0.0
 11
71.200000000000003
 21
38.0
 31
0.0
  0
LINE
  5
3D
  8
0
 10
71.999999999999972
 20
37.199999999999989
 30
0.0
 11
71.199999999999989
 21
37.999999999999993
 31
0.0
  0
LINE
  5
3E
  8
0
 10
59.999999999999993
 20
29.999999999999989
 30
0.0
 11
61.523999999999987
 21
28.475999999999988
 31
0.0
  0
LINE
  5
3F
  8
0
 10
61.523999999999987
 20
31.52399999999999
 30
0.0
 11
59.999999999999993
 21
29.999999999999989
 31
0.0
  0
LINE
  5
40
  8
0
 10
59.999999999999993
 20
33.047999999999988
 30
0.0
 11
61.523999999999987
 21
31.52399999999999
 31
0.0
  0
LINE
  5
41
  8
0
 10
61.523999999999972
 20
34.571999999999981
 30
0.0
 11
59.999999999999993
 21
33.047999999999988
 31
0.0
  0
LINE
  5
42
  8
0
 10
61.523999999999972
 20
22.379999999999988
 30
0.0
 11
59.999999999999993
 21
23.903999999999989
 31
0.0
  0
LINE
  5
43
  8
0
 10
59.999999999999993
 20
23.903999999999989
 30
0.0
 11
61.523999999999987
 21
25.42799999999999
 31
0.0
  0
LINE
  5
44
  8
0
 10
61.523999999999987
 20
25.42799999999999
 30
0.0
 11
59.999999999999993
 21
26.951999999999991
 31
0.0
  0
LINE
  5
45
  8
0
 10
59.999999999999993
 20
26.951999999999991
 30
0.0
 11
61.523999999999987
 21
28.475999999999988
 31
0.0
  0
LINE
  5
46
  8
0
 10
60.95199999999997
 20
22.000000000000011
 30
0.0
 11
71.200000000000003
 21
22.0
 31
0.0
  0
LINE
  5
47
  8
0
 10
71.999999999999986
 20
22.800000000000001
 30
0.0
 11
71.200000000000003
 21
22.0
 31
0.0
  0
LINE
  5
48
  8
0
 10
71.200000000000017
 20
37.999999999999943
 30
0.0
 11
71.200000000000003
 21
21.999999999999989
 31
0.0
  0
LINE
  5
4F
  8
3
 10
37.999999999999993
 20
31.524000000000001
 30
0.0
 11
31.929156875425111
 21
31.524000000000001
 31
0.0
  0
LINE
  5
50
  8
3
 10
38.000000000000021
 20
28.475999999999999
 30
0.0
 11
31.929156875425111
 21
28.47600000000001
 31
0.0
  0
LINE
  5
51
  8
3
 10
38.0
 20
25.428000000000001
 30
0.0
 11
21.999999999999989
 21
25.428000000000011
 31
0.0
  0
LINE
  5
52
  8
3
 10
25.42799999999998
 20
38.000000000000021
 30
0.0
 11
25.427999999999969
 21
21.999999999999989
 31
0.0
  0
LINE
  5
53
  8
3
 10
28.475999999999988
 20
38.000000000000021
 30
0.0
 11
28.475999999999988
 21
31.929156875425122
 31
0.0
  0
LINE
  5
54
  8
3
 10
31.52399999999999
 20
38.000000000000021
 30
0.0
 11
31.52399999999999
 21
31.929156875425122
 31
0.0
  0
LINE
  5
55
  8
3
 10
34.952000000000027
 20
38.000000000000021
 30
0.0
 11
29.31238216444395
 21
32.360382164443983
 31
0.0
  0
LINE
  5
56
  8
3
 10
37.999999999999993
 20
37.999999223516767
 30
0.0
 11
31.738421719946121
 21
31.738422323148072
 31
0.0
  0
LINE
  5
57
  8
3
 10
37.999999999999993
 20
34.952000000000027
 30
0.0
 11
32.360382164443962
 21
29.312382164443971
 31
0.0
  0
LINE
  5
58
  8
3
 10
31.903999999999989
 20
38.0
 30
0.0
 11
21.999999999999989
 21
28.096000000000011
 31
0.0
  0
LINE
  5
59
  8
3
 10
38.000000000000021
 20
31.90400000000006
 30
0.0
 11
28.095999999999979
 21
22.0
 31
0.0
  0
LINE
  5
5A
  8
3
 10
25.047999999999981
 20
38.000000000000021
 30
0.0
 11
30.687617835556011
 21
32.360382164443983
 31
0.0
  0
LINE
  5
5B
  8
3
 10
21.999999999999989
 20
38.000000000000021
 30
0.0
 11
28.261577978452859
 21
31.73842202154713
 31
0.0
  0
LINE
  5
5C
  8
3
 10
21.999999999999989
 20
34.952000000000012
 30
0.0
 11
27.639617835555999
 21
29.312382164443999
 31
0.0
  0
LINE
  5
5E
  8
3
 10
21.999999999999989
 20
28.856000000000002
 30
0.0
 11
28.856000000000002
 21
22.000000000000011
 31
0.0
  0
LINE
  5
5F
  8
3
 10
28.475999999999988
 20
28.070843124574889
 30
0.0
 11
28.475999999999988
 21
22.47600000000001
 31
0.0
  0
LINE
  5
60
  8
3
 10
29.312380558988721
 20
27.639618303251918
 30
0.0
 11
34.952000104882529
 21
22.0
 31
0.0
  0
LINE
  5
61
  8
3
 10
28.070843124574871
 20
28.47600000000001
 30
0.0
 11
22.0
 21
28.475999999999999
 31
0.0
  0
LINE
  5
62
  8
3
 10
28.261577978452859
 20
28.26157797845288
 30
0.0
 11
22.0
 21
22.000000000000011
 31
0.0
  0
LINE
  5
67
  8
3
 10
28.095999999999961
 20
38.000000000000021
 30
0.0
 11
38.000000000000021
 21
28.095999999999989
 31
0.0
  0
LINE
  5
68
  8
3
 10
22.0
 20
31.144000000000009
 30
0.0
 11
28.856000000000002
 21
38.000000000000021
 31
0.0
  0
LINE
  5
69
  8
3
 10
25.80799999999995
 20
22.0
 30
0.0
 11
22.0
 21
25.807999999999989
 31
0.0
  0
LINE
  5
6A
  8
3
 10
38.000000000000021
 20
28.856000000000002
 30
0.0
 11
31.143999999999959
 21
22.000000000000011
 31
0.0
  0
CIRCLE
  5
2B4
  8
0
 10
29.999999999999989
 20
30.0
 30
0.0
 40
2.458499999999999
  0
CIRCLE
  5
2B5
  8
3
 10
29.999999999999989
 20
30.0
 30
0.0
 40
3.0
  0
LINE
  5
2B6
  8
3
 10
31.738422021547109
 20
28.26157797845287
 30
0.0
 11
37.999999999999993
 21
21.999999999999972
 31
0.0
  0
LINE
  5
2B7
  8
3
 10
27.63961783555601
 20
30.68761783555604
 30
0.0
 11
22.0
 21
25.047999999999998
 31
0.0
  0
LINE
  5
2B8
  8
3
 10
22.0
 20
31.904
 30
0.0
 11
31.903999999999989
 21
22.0
 31
0.0
  0
LINE
  5
2B9
  8
3
 10
30.687617835556001
 20
27.63961783555602
 30
0.0
 11
25.047999999999991
 21
22.0
 31
0.0
  0
LINE
  5
2BA
  8
0
 10
37.999999999999993
 20
37.999999999999993
 30
0.0
 11
38.0
 21
22.0
 31
0.0
  0
LINE
  5
2BB
  8
0
 10
21.999999999999989
 20
37.999999999999993
 30
0.0
 11
21.999999999999989
 21
22.0
 31
0.0
  0
LINE
  5
2BC
  8
0
 10
21.999999999999989
 20
38.0
 30
0.0
 11
38.0
 21
38.0
 31
0.0
  0
LINE
  5
2BD
  8
0
 10
21.999999999999989
 20
22.0
 30
0.0
 11
38.0
 21
22.0
 31
0.0
  0
LINE
  5
2BE
  8
3
 10
38.000000000000021
 20
25.808000000000021
 30
0.0
 11
34.191999999999958
 21
22.000000000000011
 31
0.0
  0
LINE
  5
2BF
  8
3
 10
31.14399999999992
 20
38.000000000000021
 30
0.0
 11
38.000000000000028
 21
31.143999999999991
 31
0.0
  0
LINE
  5
2C0
  8
3
 10
34.572000000000003
 20
38.000000000000021
 30
0.0
 11
34.571999999999981
 21
21.999999999999989
 31
0.0
  0
LINE
  5
2C1
  8
3
 10
37.619999999999997
 20
38.000000000000021
 30
0.0
 11
37.619999999999983
 21
21.999999999999989
 31
0.0
  0
LINE
  5
2C2
  8
3
 10
38.0
 20
34.571999999999981
 30
0.0
 11
21.999999999999989
 21
34.572000000000017
 31
0.0
  0
LINE
  5
2C3
  8
3
 10
37.999999999999972
 20
37.619999999999997
 30
0.0
 11
21.999999999999989
 21
37.619999999999997
 31
0.0
  0
LINE
  5
2C4
  8
3
 10
28.070843124574871
 20
31.524000000000001
 30
0.0
 11
21.999999999999989
 21
31.524000000000019
 31
0.0
  0
LINE
  5
2C5
  8
3
 10
32.360382164443962
 20
30.687617835556029
 30
0.0
 11
38.0
 21
25.047999999999991
 31
0.0
  0
LINE
  5
2C6
  8
3
 10
31.52399999999999
 20
28.070843124574889
 30
0.0
 11
31.523999999999969
 21
21.999999999999989
 31
0.0
  0
LINE
  5
2C8
  8
3
 10
37.999999999999993
 20
22.379999999999988
 30
0.0
 11
21.999999999999972
 21
22.379999999999988
 31
0.0
  0
LINE
  5
2C9
  8
3
 10
22.379999999999981
 20
38.000000000000021
 30
0.0
 11
22.379999999999971
 21
21.999999999999989
 31
0.0
  0
LINE
  5
2CA
  8
3
 10
22.000000000000011
 20
34.192
 30
0.0
 11
25.80800000000001
 21
38.0
 31
0.0
  0
LINE
  5
2CB
  8
3
 10
34.191999999999943
 20
38.000000000000021
 30
0.0
 11
37.999999999999993
 21
34.191999999999958
 31
0.0
  0
LINE
  5
2D2
  8
0
 10
60.759999999999998
 20
37.999999999999993
 30
0.0
 11
61.523999999999972
 21
37.619999999999919
 31
0.0
  0
LINE
  5
2D3
  8
0
 10
60.951999999999941
 20
21.999999999999979
 30
0.0
 11
61.523999999999972
 21
22.379999999999988
 31
0.0
  0
LINE
  5
2D4
  8
2
 10
71.199999999999974
 20
27.541499999999989
 30
0.0
 11
71.999999999999986
 21
26.741499999999991
 31
0.0
  0
LINE
  5
2D5
  8
2
 10
71.999999999999986
 20
33.258499999999991
 30
0.0
 11
71.199999999999974
 21
32.458499999999987
 31
0.0
  0
LINE
  5
2D6
  8
2
 10
71.741500000000016
 20
26.999999999999989
 30
0.0
 11
60.048000000000002
 21
26.999999999999989
 31
0.0
  0
LINE
  5
2D7
  8
2
 10
71.199999999999974
 20
27.541499999999989
 30
0.0
 11
60.589500000000001
 21
27.541499999999989
 31
0.0
  0
LINE
  5
2D8
  8
2
 10
71.199999999999974
 20
32.458499999999987
 30
0.0
 11
60.589500000000022
 21
32.458499999999987
 31
0.0
  0
LINE
  5
2D9
  8
2
 10
71.741500000000016
 20
32.999999999999993
 30
0.0
 11
60.047999999999988
 21
32.999999999999993
 31
0.0
  0
LINE
  5
2DA
  8
2
 10
71.199999999999974
 20
32.458499999999987
 30
0.0
 11
71.200000000000003
 21
27.541499999999989
 31
0.0
  0
TEXT
  5
3A3
  8
0
 62
     3
 10
0.0
 20
0.0
 30
0.0
 40
5.0
  1
HS-9162
  7
STANDARD1
  0
LINE
  5
C6F
  8
0
 10
60.000000000000028
 20
36.095999999999982
 30
0.0
 11
61.524000000000029
 21
34.571999999999981
 31
0.0
  0
LINE
  5
C70
  8
0
 10
61.524000000000029
 20
37.619999999999983
 30
0.0
 11
60.000000000000028
 21
36.095999999999982
 31
0.0
  0
ENDSEC
  0
EOF
