  0
SECTION
  2
HEADER
  9
$ACADVER
  1
AC1009
  9
$INSBASE
 10
0.0
 20
0.0
 30
0.0
  9
$EXTMIN
 10
0.0
 20
-1.4802182810368341
 30
0.0
  9
$EXTMAX
 10
152.14568499999999
 20
113.44745630765379
 30
0.0
  9
$LIMMIN
 10
0.0
 20
0.0
  9
$LIMMAX
 10
187.5
 20
135.0
  9
$ORTHOMODE
 70
     1
  9
$REGENMODE
 70
     1
  9
$FILLMODE
 70
     1
  9
$QTEXTMODE
 70
     0
  9
$MIRRTEXT
 70
     0
  9
$DRAGMODE
 70
     2
  9
$LTSCALE
 40
5.0
  9
$OSMODE
 70
    55
  9
$ATTMODE
 70
     1
  9
$TEXTSIZE
 40
1.6000000000000001
  9
$TRACEWID
 40
0.05
  9
$TEXTSTYLE
  7
STANDARD
  9
$CLAYER
  8
0
  9
$CELTYPE
  6
BYLAYER
  9
$CECOLOR
 62
   256
  9
$DIMSCALE
 40
0.5
  9
$DIMASZ
 40
3.0
  9
$DIMEXO
 40
2.0
  9
$DIMDLI
 40
10.0
  9
$DIMRND
 40
0.0
  9
$DIMDLE
 40
0.0
  9
$DIMEXE
 40
2.0
  9
$DIMTP
 40
0.0
  9
$DIMTM
 40
0.0
  9
$DIMTXT
 40
3.2000000000000002
  9
$DIMCEN
 40
0.09
  9
$DIMTSZ
 40
0.0
  9
$DIMTOL
 70
     0
  9
$DIMLIM
 70
     0
  9
$DIMTIH
 70
     0
  9
$DIMTOH
 70
     0
  9
$DIMSE1
 70
     0
  9
$DIMSE2
 70
     0
  9
$DIMTAD
 70
     1
  9
$DIMZIN
 70
     0
  9
$DIMBLK
  1

  9
$DIMASO
 70
     0
  9
$DIMSHO
 70
     0
  9
$DIMPOST
  1

  9
$DIMAPOST
  1

  9
$DIMALT
 70
     0
  9
$DIMALTD
 70
     2
  9
$DIMALTF
 40
25.399999999999999
  9
$DIMLFAC
 40
1.0
  9
$DIMTOFL
 70
     1
  9
$DIMTVP
 40
1.6000000000000001
  9
$DIMTIX
 70
     1
  9
$DIMSOXD
 70
     0
  9
$DIMSAH
 70
     0
  9
$DIMBLK1
  1

  9
$DIMBLK2
  1

  9
$DIMSTYLE
  2
STANDARD
  9
$DIMCLRD
 70
     0
  9
$DIMCLRE
 70
     0
  9
$DIMCLRT
 70
     0
  9
$DIMTFAC
 40
1.0
  9
$DIMGAP
 40
0.09
  9
$LUNITS
 70
     2
  9
$LUPREC
 70
     4
  9
$SKETCHINC
 40
0.1
  9
$FILLETRAD
 40
0.0
  9
$AUNITS
 70
     0
  9
$AUPREC
 70
     0
  9
$MENU
  1
E:\r13\win\SUPPORT\ACAD
  9
$ELEVATION
 40
0.0
  9
$PELEVATION
 40
0.0
  9
$THICKNESS
 40
0.0
  9
$LIMCHECK
 70
     0
  9
$BLIPMODE
 70
     0
  9
$CHAMFERA
 40
0.0
  9
$CHAMFERB
 40
0.0
  9
$SKPOLY
 70
     0
  9
$TDCREATE
 40
2449840.594618056
  9
$TDUPDATE
 40
2456598.6929782871
  9
$TDINDWG
 40
0.0039429398
  9
$TDUSRTIMER
 40
0.0039429398
  9
$USRTIMER
 70
     1
  9
$ANGBASE
 50
0.0
  9
$ANGDIR
 70
     0
  9
$PDMODE
 70
     0
  9
$PDSIZE
 40
0.0
  9
$PLINEWID
 40
0.0
  9
$COORDS
 70
     1
  9
$SPLFRAME
 70
     0
  9
$SPLINETYPE
 70
     6
  9
$SPLINESEGS
 70
     8
  9
$ATTDIA
 70
     0
  9
$ATTREQ
 70
     1
  9
$HANDLING
 70
     1
  9
$HANDSEED
  5
393
  9
$SURFTAB1
 70
     6
  9
$SURFTAB2
 70
     6
  9
$SURFTYPE
 70
     6
  9
$SURFU
 70
     6
  9
$SURFV
 70
     6
  9
$UCSNAME
  2

  9
$UCSORG
 10
0.0
 20
0.0
 30
0.0
  9
$UCSXDIR
 10
1.0
 20
0.0
 30
0.0
  9
$UCSYDIR
 10
0.0
 20
1.0
 30
0.0
  9
$PUCSNAME
  2

  9
$PUCSORG
 10
0.0
 20
0.0
 30
0.0
  9
$PUCSXDIR
 10
1.0
 20
0.0
 30
0.0
  9
$PUCSYDIR
 10
0.0
 20
1.0
 30
0.0
  9
$USERI1
 70
     0
  9
$USERI2
 70
     1
  9
$USERI3
 70
     0
  9
$USERI4
 70
     0
  9
$USERI5
 70
     0
  9
$USERR1
 40
0.0
  9
$USERR2
 40
0.0
  9
$USERR3
 40
0.0
  9
$USERR4
 40
0.0
  9
$USERR5
 40
0.0
  9
$WORLDVIEW
 70
     1
  9
$SHADEDGE
 70
     3
  9
$SHADEDIF
 70
    70
  9
$TILEMODE
 70
     1
  9
$MAXACTVP
 70
    16
  9
$PLIMCHECK
 70
     0
  9
$PEXTMIN
 10
1.0000000000000000E+020
 20
1.0000000000000000E+020
 30
1.0000000000000000E+020
  9
$PEXTMAX
 10
-1.0000000000000000E+020
 20
-1.0000000000000000E+020
 30
-1.0000000000000000E+020
  9
$PLIMMIN
 10
0.0
 20
0.0
  9
$PLIMMAX
 10
12.0
 20
9.0
  9
$UNITMODE
 70
     0
  9
$VISRETAIN
 70
     0
  9
$PLINEGEN
 70
     0
  9
$PSLTSCALE
 70
     0
  0
ENDSEC
  0
SECTION
  2
TABLES
  0
TABLE
  2
VPORT
 70
     1
  0
VPORT
  2
*ACTIVE
 70
     0
 10
0.0
 20
0.0
 11
1.0
 21
1.0
 12
93.74713919532617
 22
87.458386271734256
 13
0.0
 23
0.0
 14
5.0
 24
5.0
 15
5.0
 25
5.0
 16
0.0
 26
0.0
 36
1.0
 17
0.0
 27
0.0
 37
0.0
 40
179.46013949787169
 41
1.7807262569832401
 42
50.0
 43
0.0
 44
0.0
 50
0.0
 51
0.0
 71
     0
 72
   100
 73
     1
 74
     0
 75
     0
 76
     0
 77
     0
 78
     0
  0
ENDTAB
  0
TABLE
  2
LTYPE
 70
     4
  0
LTYPE
  2
CONTINUOUS
 70
     0
  3
Solid Line
 72
    65
 73
     0
 40
0.0
  0
LTYPE
  2
CENTER
 70
     0
  3
____ _ ____ _ ____ _ ____ _ ____ _ ____ _ ____
 72
    65
 73
     4
 40
2.0
 49
1.25
 49
-0.25
 49
0.25
 49
-0.25
  0
LTYPE
  2
HIDDEN
 70
     0
  3
_ _ _ _ _ _ _ _ _ _ _ _ _ _ _ _ _ _ _ _ _ _ _
 72
    65
 73
     2
 40
0.375
 49
0.25
 49
-0.125
  0
LTYPE
  2
PHANTOM2
 70
     0
  3
___ _ _ ___ _ _ ___ _ _ ___ _ _
 72
    65
 73
     6
 40
1.25
 49
0.625
 49
-0.125
 49
0.125
 49
-0.125
 49
0.125
 49
-0.125
  0
ENDTAB
  0
TABLE
  2
LAYER
 70
     4
  0
LAYER
  2
0
 70
     0
 62
     7
  6
CONTINUOUS
  0
LAYER
  2
1
 70
     0
 62
     1
  6
CENTER
  0
LAYER
  2
2
 70
     0
 62
     2
  6
HIDDEN
  0
LAYER
  2
3
 70
     0
 62
     3
  6
CONTINUOUS
  0
ENDTAB
  0
TABLE
  2
STYLE
 70
     2
  0
STYLE
  2
STANDARD
 70
     0
 40
0.0
 41
1.0
 50
0.0
 71
     0
 42
1.6000000000000001
  3
TXT
  4
BIGFONT
  0
STYLE
  2
STANDARD1
 70
     0
 40
0.0
 41
1.0
 50
0.0
 71
     0
 42
3.0
  3
txt
  4

  0
ENDTAB
  0
TABLE
  2
VIEW
 70
     1
  0
VIEW
  2
ALL
 70
     0
 40
135.0
 10
110.49579799999999
 20
67.5
 41
0.0
 11
0.0
 21
0.0
 31
1.0
 12
0.0
 22
0.0
 32
0.0
 42
0.0
 43
0.0
 44
0.0
 50
0.0
 71
     0
  0
ENDTAB
  0
TABLE
  2
UCS
 70
     0
  0
ENDTAB
  0
TABLE
  2
APPID
 70
     3
  0
APPID
  2
ACAD
 70
     0
  0
APPID
  2
ACAD_MLEADERVER
 70
     0
  0
APPID
  2
ACAD_NAV_VCDISPLAY
 70
     0
  0
ENDTAB
  0
TABLE
  2
DIMSTYLE
 70
     1
  0
DIMSTYLE
  2
STANDARD
 70
     0
  3

  4

  5

  6

  7

 40
1.0
 41
0.18
 42
0.0625
 43
0.38
 44
0.18
 45
0.0
 46
0.0
 47
0.0
 48
0.0
140
0.18
141
0.09
142
0.0
143
25.399999999999999
144
1.0
145
0.0
146
1.0
147
0.09
 71
     0
 72
     0
 73
     1
 74
     1
 75
     0
 76
     0
 77
     0
 78
     0
170
     0
171
     2
172
     0
173
     0
174
     0
175
     0
176
     0
177
     0
178
     0
  0
ENDTAB
  0
ENDSEC
  0
SECTION
  2
BLOCKS
  0
BLOCK
  8
0
  2
$MODEL_SPACE
 70
     0
 10
0.0
 20
0.0
 30
0.0
  3
$MODEL_SPACE
  1

  0
ENDBLK
  5
245
  8
0
  0
BLOCK
 67
     1
  8
0
  2
$PAPER_SPACE
 70
     0
 10
0.0
 20
0.0
 30
0.0
  3
$PAPER_SPACE
  1

  0
ENDBLK
  5
243
 67
     1
  8
0
  0
ENDSEC
  0
SECTION
  2
ENTITIES
  0
LINE
  5
38
  8
0
 10
149.64568499999999
 20
76.214104000000006
 30
0.0
 11
149.64568499999999
 21
52.814104
 31
0.0
  0
LINE
  5
39
  8
0
 10
138.86168499999999
 20
77.014104000000003
 30
0.0
 11
148.845685
 21
77.014104000000003
 31
0.0
  0
LINE
  5
3A
  8
0
 10
149.64568499999999
 20
76.214104000000006
 30
0.0
 11
148.845685
 21
77.014104000000003
 31
0.0
  0
LINE
  5
3B
  8
0
 10
137.64568499999999
 20
66.038104000000004
 30
0.0
 11
139.16968499999999
 21
64.514104000000003
 31
0.0
  0
LINE
  5
3C
  8
0
 10
139.16968499999999
 20
67.562104000000005
 30
0.0
 11
137.64568499999999
 21
66.038104000000004
 31
0.0
  0
LINE
  5
3D
  8
0
 10
137.64568499999999
 20
69.086104000000006
 30
0.0
 11
139.16968499999999
 21
67.562104000000005
 31
0.0
  0
LINE
  5
3E
  8
0
 10
137.64568499999999
 20
59.942104
 30
0.0
 11
139.16968499999999
 21
61.466104000000001
 31
0.0
  0
LINE
  5
3F
  8
0
 10
139.16968499999999
 20
61.466104000000001
 30
0.0
 11
137.64568499999999
 21
62.990104000000002
 31
0.0
  0
LINE
  5
40
  8
0
 10
137.64568499999999
 20
62.990104000000002
 30
0.0
 11
139.16968499999999
 21
64.514104000000003
 31
0.0
  0
LINE
  5
41
  8
0
 10
138.86168499999999
 20
52.014104000000003
 30
0.0
 11
148.845685
 21
52.014104000000003
 31
0.0
  0
LINE
  5
42
  8
0
 10
149.64568499999999
 20
52.814104
 30
0.0
 11
148.845685
 21
52.014104000000003
 31
0.0
  0
LINE
  5
43
  8
0
 10
148.845685
 20
77.014104000000003
 30
0.0
 11
148.845685
 21
52.014104000000003
 31
0.0
  0
LINE
  5
44
  8
3
 10
105.145685
 20
67.562104000000005
 30
0.0
 11
97.223861056029307
 21
67.562104000000005
 31
0.0
  0
LINE
  5
45
  8
3
 10
105.145685
 20
64.514104000000003
 30
0.0
 11
98.145685
 21
64.514104000000003
 31
0.0
  0
LINE
  5
46
  8
3
 10
105.145685
 20
61.466104000000001
 30
0.0
 11
97.223861056029293
 21
61.466104000000001
 31
0.0
  0
LINE
  5
47
  8
3
 10
89.597684999999998
 20
77.014104000000003
 30
0.0
 11
89.597684999999984
 21
69.092280056029296
 31
0.0
  0
LINE
  5
48
  8
3
 10
92.645685000000014
 20
77.014104000000003
 30
0.0
 11
92.645685000000014
 21
70.014104000000003
 31
0.0
  0
LINE
  5
49
  8
3
 10
95.693685000000016
 20
77.014104000000003
 30
0.0
 11
95.693684999999988
 21
69.09228005602931
 31
0.0
  0
LINE
  5
4A
  8
3
 10
102.097685
 20
77.014104000000003
 30
0.0
 11
94.699733032447028
 21
69.616151302838375
 31
0.0
  0
LINE
  5
4B
  8
3
 10
105.145685
 20
77.014104000000003
 30
0.0
 11
96.534772296526015
 21
68.403191296526018
 31
0.0
  0
LINE
  5
4C
  8
3
 10
105.145685
 20
73.966104000000001
 30
0.0
 11
97.747732721684386
 21
66.568150992075715
 31
0.0
  0
LINE
  5
4D
  8
3
 10
99.049684999999997
 20
77.014104000000003
 30
0.0
 11
92.013196540026257
 21
69.97761554002625
 31
0.0
  0
LINE
  5
4E
  8
3
 10
105.145685
 20
70.918103999999985
 30
0.0
 11
98.109196540026247
 21
63.881615540026218
 31
0.0
  0
LINE
  5
4F
  8
3
 10
86.241685000000004
 20
77.014104000000003
 30
0.0
 11
93.278173459973758
 21
69.97761554002625
 31
0.0
  0
LINE
  5
50
  8
3
 10
83.193685000000016
 20
77.014104000000003
 30
0.0
 11
90.591637487738595
 21
69.616151512261411
 31
0.0
  0
LINE
  5
51
  8
3
 10
80.145685000000014
 20
77.014104000000003
 30
0.0
 11
88.756597703473986
 21
68.403191296526018
 31
0.0
  0
LINE
  5
52
  8
3
 10
80.145685000000014
 20
73.966104000000001
 30
0.0
 11
87.543637487738593
 21
66.568151512261394
 31
0.0
  0
LINE
  5
53
  8
3
 10
80.145685000000014
 20
70.918103999999985
 30
0.0
 11
87.182173459973754
 21
63.881615540026253
 31
0.0
  0
LINE
  5
54
  8
3
 10
92.645685000000014
 20
59.014104000000003
 30
0.0
 11
92.645685000000014
 21
52.014104000000003
 31
0.0
  0
LINE
  5
55
  8
3
 10
96.534772296526015
 20
60.625016703473982
 30
0.0
 11
105.145685
 21
52.014104000000003
 31
0.0
  0
LINE
  5
56
  8
3
 10
87.145685
 20
64.514104000000003
 30
0.0
 11
80.145685000000014
 21
64.514104000000003
 31
0.0
  0
LINE
  5
57
  8
3
 10
88.756597703473986
 20
60.625016703473989
 30
0.0
 11
80.145685000000014
 21
52.014104000000003
 31
0.0
  0
LINE
  5
58
  8
3
 10
89.289684999999992
 20
77.014104000000003
 30
0.0
 11
105.145685
 21
61.158104000000002
 31
0.0
  0
LINE
  5
59
  8
3
 10
98.741685000000004
 20
77.014104000000003
 30
0.0
 11
98.741685000000004
 21
52.014104000000003
 31
0.0
  0
LINE
  5
5A
  8
3
 10
80.145685000000014
 20
70.610104000000007
 30
0.0
 11
105.145685
 21
70.610104000000007
 31
0.0
  0
LINE
  5
5B
  8
3
 10
80.145685000000014
 20
61.158104000000002
 30
0.0
 11
96.001684999999995
 21
77.014104000000003
 31
0.0
  0
LINE
  5
5C
  8
3
 10
86.549684999999997
 20
52.014104000000003
 30
0.0
 11
86.549684999999997
 21
77.014104000000003
 31
0.0
  0
LINE
  5
5D
  8
3
 10
96.001684999999995
 20
52.014104000000003
 30
0.0
 11
80.145685000000014
 21
67.870103999999984
 31
0.0
  0
LINE
  5
5E
  8
3
 10
105.145685
 20
58.418104
 30
0.0
 11
80.145685000000014
 21
58.418104
 31
0.0
  0
LINE
  5
5F
  8
3
 10
105.145685
 20
67.870103999999984
 30
0.0
 11
89.289684999999992
 21
52.014104000000003
 31
0.0
  0
LINE
  5
60
  8
0
 10
139.16968499999999
 20
55.370103999999998
 30
0.0
 11
137.64568499999999
 21
56.894103999999999
 31
0.0
  0
LINE
  5
61
  8
0
 10
137.64568499999999
 20
56.894103999999999
 30
0.0
 11
139.16968499999999
 21
58.418104
 31
0.0
  0
LINE
  5
62
  8
0
 10
139.16968499999999
 20
58.418104
 30
0.0
 11
137.64568499999999
 21
59.942104
 31
0.0
  0
LINE
  5
63
  8
1
 10
135.14568499999999
 20
64.514104000000003
 30
0.0
 11
152.14568499999999
 21
64.514104000000003
 31
0.0
  0
LINE
  5
66
  8
3
 10
87.543637487738593
 20
62.460056487738598
 30
0.0
 11
80.145685000000014
 21
55.062103999999998
 31
0.0
  0
LINE
  5
67
  8
3
 10
94.699733032447014
 20
59.41205669716161
 30
0.0
 11
102.097685
 21
52.014104000000003
 31
0.0
  0
LINE
  5
68
  8
3
 10
90.591637487738595
 20
59.412056487738603
 30
0.0
 11
83.193685000000016
 21
52.014104000000003
 31
0.0
  0
LINE
  5
69
  8
3
 10
97.747732721684386
 20
62.460057007924298
 30
0.0
 11
105.145685
 21
55.062103999999998
 31
0.0
  0
LINE
  5
70
  8
0
 10
137.64568499999999
 20
72.134103999999994
 30
0.0
 11
139.16968499999999
 21
70.610104000000007
 31
0.0
  0
LINE
  5
71
  8
0
 10
139.16968499999999
 20
70.610104000000007
 30
0.0
 11
137.64568499999999
 21
69.086104000000006
 31
0.0
  0
LINE
  5
72
  8
0
 10
139.16968499999999
 20
73.658103999999994
 30
0.0
 11
137.64568499999999
 21
72.134103999999994
 31
0.0
  0
LINE
  5
73
  8
0
 10
139.16968499999999
 20
76.706104000000011
 30
0.0
 11
137.64568499999999
 21
75.182103999999995
 31
0.0
  0
LINE
  5
74
  8
0
 10
137.64568499999999
 20
75.182103999999995
 30
0.0
 11
139.16968499999999
 21
73.658103999999994
 31
0.0
  0
LINE
  5
75
  8
0
 10
138.86168499999999
 20
77.014104000000003
 30
0.0
 11
139.16968499999999
 21
76.706104000000011
 31
0.0
  0
LINE
  5
76
  8
0
 10
138.86168499999999
 20
52.014104000000003
 30
0.0
 11
139.16968499999999
 21
52.322103999999989
 31
0.0
  0
LINE
  5
77
  8
0
 10
137.64568499999999
 20
53.846103999999997
 30
0.0
 11
139.16968499999999
 21
55.370103999999998
 31
0.0
  0
LINE
  5
78
  8
0
 10
139.16968499999999
 20
52.322103999999989
 30
0.0
 11
137.64568499999999
 21
53.846103999999997
 31
0.0
  0
LINE
  5
79
  8
3
 10
83.501684999999995
 20
52.014104000000003
 30
0.0
 11
83.501684999999995
 21
77.014104000000003
 31
0.0
  0
LINE
  5
7A
  8
3
 10
80.453684999999993
 20
52.014104000000003
 30
0.0
 11
80.453684999999993
 21
77.014104000000003
 31
0.0
  0
LINE
  5
7B
  8
3
 10
105.145685
 20
52.322103999999989
 30
0.0
 11
80.145685000000014
 21
52.322103999999989
 31
0.0
  0
LINE
  5
7C
  8
3
 10
105.145685
 20
55.370103999999998
 30
0.0
 11
80.145685000000014
 21
55.370103999999998
 31
0.0
  0
LINE
  5
7D
  8
3
 10
104.83768499999999
 20
77.014104000000003
 30
0.0
 11
104.83768499999999
 21
52.014104000000003
 31
0.0
  0
LINE
  5
7E
  8
3
 10
101.78968500000001
 20
77.014104000000003
 30
0.0
 11
101.78968500000001
 21
52.014104000000003
 31
0.0
  0
LINE
  5
7F
  8
3
 10
80.145685000000014
 20
76.706104000000011
 30
0.0
 11
105.145685
 21
76.706104000000011
 31
0.0
  0
LINE
  5
80
  8
3
 10
80.145685000000014
 20
73.658103999999994
 30
0.0
 11
105.145685
 21
73.658103999999994
 31
0.0
  0
LINE
  5
81
  8
3
 10
92.953684999999993
 20
77.014104000000003
 30
0.0
 11
80.145685000000014
 21
64.206104000000011
 31
0.0
  0
LINE
  5
82
  8
3
 10
89.905685000000005
 20
77.014104000000003
 30
0.0
 11
80.145685000000014
 21
67.254103999999998
 31
0.0
  0
LINE
  5
83
  8
3
 10
80.145685000000014
 20
61.774104000000001
 30
0.0
 11
89.905685000000005
 21
52.014104000000003
 31
0.0
  0
LINE
  5
84
  8
3
 10
80.145685000000014
 20
64.82210400000001
 30
0.0
 11
92.953684999999993
 21
52.014104000000003
 31
0.0
  0
LINE
  5
85
  8
3
 10
95.385684999999995
 20
52.014104000000003
 30
0.0
 11
105.145685
 21
61.774104000000001
 31
0.0
  0
LINE
  5
86
  8
3
 10
92.337684999999993
 20
52.014104000000003
 30
0.0
 11
105.145685
 21
64.82210400000001
 31
0.0
  0
LINE
  5
87
  8
3
 10
105.145685
 20
67.254103999999998
 30
0.0
 11
95.385684999999995
 21
77.014104000000003
 31
0.0
  0
LINE
  5
88
  8
3
 10
105.145685
 20
64.206104000000011
 30
0.0
 11
92.337684999999993
 21
77.014104000000003
 31
0.0
  0
LINE
  5
89
  8
0
 10
105.145685
 20
77.014104000000003
 30
0.0
 11
80.145685000000014
 21
77.014104000000003
 31
0.0
  0
LINE
  5
8A
  8
0
 10
80.145685000000014
 20
77.014104000000003
 30
0.0
 11
80.145685000000014
 21
52.014104000000003
 31
0.0
  0
LINE
  5
8B
  8
0
 10
80.145685000000014
 20
52.014104000000003
 30
0.0
 11
105.145685
 21
52.014104000000003
 31
0.0
  0
LINE
  5
8C
  8
0
 10
105.145685
 20
52.014104000000003
 30
0.0
 11
105.145685
 21
77.014104000000003
 31
0.0
  0
LINE
  5
8D
  8
3
 10
86.857685000000004
 20
77.014104000000003
 30
0.0
 11
80.145685000000014
 21
70.302104
 31
0.0
  0
LINE
  5
8E
  8
3
 10
83.809684999999988
 20
77.014104000000003
 30
0.0
 11
80.145685000000014
 21
73.350104000000002
 31
0.0
  0
LINE
  5
8F
  8
3
 10
80.761684999999986
 20
77.014104000000003
 30
0.0
 11
80.145685000000014
 21
76.398104000000004
 31
0.0
  0
LINE
  5
90
  8
3
 10
80.145685000000014
 20
52.630104000000003
 30
0.0
 11
80.761684999999986
 21
52.014104000000003
 31
0.0
  0
LINE
  5
91
  8
3
 10
80.145685000000014
 20
55.678103999999998
 30
0.0
 11
83.809684999999988
 21
52.014104000000003
 31
0.0
  0
LINE
  5
92
  8
3
 10
80.145685000000014
 20
58.726104000000007
 30
0.0
 11
86.857685000000004
 21
52.014104000000003
 31
0.0
  0
LINE
  5
93
  8
3
 10
104.529685
 20
52.014104000000003
 30
0.0
 11
105.145685
 21
52.630104000000003
 31
0.0
  0
LINE
  5
94
  8
3
 10
101.481685
 20
52.014104000000003
 30
0.0
 11
105.145685
 21
55.678103999999998
 31
0.0
  0
LINE
  5
95
  8
3
 10
98.433684999999997
 20
52.014104000000003
 30
0.0
 11
105.145685
 21
58.726104000000007
 31
0.0
  0
LINE
  5
96
  8
3
 10
105.145685
 20
76.398104000000004
 30
0.0
 11
104.529685
 21
77.014104000000003
 31
0.0
  0
LINE
  5
97
  8
3
 10
105.145685
 20
73.350104000000002
 30
0.0
 11
101.481685
 21
77.014104000000003
 31
0.0
  0
LINE
  5
98
  8
3
 10
105.145685
 20
70.302104
 30
0.0
 11
98.433684999999997
 21
77.014104000000003
 31
0.0
  0
CIRCLE
  5
10C
  8
0
 10
92.645685000000014
 20
64.514104000000003
 30
0.0
 40
5.5
  0
CIRCLE
  5
10D
  8
0
 10
92.645685000000014
 20
64.514104000000003
 30
0.0
 40
3.2999999999999989
  0
LINE
  5
10E
  8
3
 10
95.693684999999988
 20
59.935927943970697
 30
0.0
 11
95.693685000000016
 21
52.014104000000003
 31
0.0
  0
LINE
  5
10F
  8
3
 10
88.067508943970694
 20
67.562104000000005
 30
0.0
 11
80.145685000000014
 21
67.562104000000005
 31
0.0
  0
LINE
  5
110
  8
3
 10
98.109196540026247
 20
65.14659245997376
 30
0.0
 11
105.145685
 21
58.110104
 31
0.0
  0
LINE
  5
111
  8
3
 10
93.278173459973772
 20
59.05059245997375
 30
0.0
 11
86.241685000000004
 21
52.014104000000003
 31
0.0
  0
LINE
  5
112
  8
3
 10
88.067508943970708
 20
61.466104000000001
 30
0.0
 11
80.145685000000014
 21
61.466104000000001
 31
0.0
  0
LINE
  5
113
  8
3
 10
92.013196540026243
 20
59.050592459973743
 30
0.0
 11
99.049684999999997
 21
52.014104000000003
 31
0.0
  0
LINE
  5
114
  8
3
 10
89.597684999999984
 20
59.935927943970711
 30
0.0
 11
89.597684999999998
 21
52.014104000000003
 31
0.0
  0
LINE
  5
115
  8
3
 10
87.182173459973725
 20
65.146592459973746
 30
0.0
 11
80.145685000000014
 21
58.110104
 31
0.0
  0
LINE
  5
116
  8
1
 10
92.645685000000014
 20
79.514104000000003
 30
0.0
 11
92.645685000000014
 21
49.514104000000003
 31
0.0
  0
LINE
  5
117
  8
1
 10
107.645685
 20
64.514104000000003
 30
0.0
 11
77.645685
 21
64.514104000000003
 31
0.0
  0
LINE
  5
118
  8
2
 10
138.57368500000001
 20
70.014103999999989
 30
0.0
 11
145.14568499999999
 21
70.014103999999989
 31
0.0
  0
LINE
  5
119
  8
2
 10
138.57368500000001
 20
59.014104000000003
 30
0.0
 11
145.14568499999999
 21
59.014104000000003
 31
0.0
  0
LINE
  5
11A
  8
2
 10
145.14568499999999
 20
67.814103999999986
 30
0.0
 11
149.64568499999999
 21
67.814104
 31
0.0
  0
LINE
  5
11B
  8
2
 10
145.14568499999999
 20
61.214104000000013
 30
0.0
 11
149.64568499999999
 21
61.214104000000013
 31
0.0
  0
LINE
  5
11C
  8
2
 10
145.14568499999999
 20
70.014103999999989
 30
0.0
 11
145.14568499999999
 21
59.014104000000003
 31
0.0
  0
LINE
  5
11D
  8
2
 10
87.145685000000043
 20
106.44745630765379
 30
0.0
 11
98.145685000000029
 21
106.44745630765389
 31
0.0
  0
LINE
  5
11E
  8
0
 10
80.145685000000014
 20
110.1474563076538
 30
0.0
 11
105.145685
 21
110.1474563076538
 31
0.0
  0
LINE
  5
11F
  8
0
 10
89.597685000000027
 20
100.4714563076538
 30
0.0
 11
91.121685000000014
 21
98.947456307653852
 31
0.0
  0
LINE
  5
120
  8
0
 10
80.945685000000012
 20
110.94745630765379
 30
0.0
 11
104.345685
 21
110.94745630765379
 31
0.0
  0
LINE
  5
121
  8
0
 10
104.83768499999999
 20
100.4714563076538
 30
0.0
 11
103.31368500000001
 21
98.947456307653852
 31
0.0
  0
LINE
  5
122
  8
0
 10
103.31368500000001
 20
98.947456307653852
 30
0.0
 11
101.78968500000001
 21
100.4714563076538
 31
0.0
  0
LINE
  5
123
  8
1
 10
92.645685000000014
 20
96.447456307653852
 30
0.0
 11
92.645685000000014
 21
113.44745630765379
 31
0.0
  0
LINE
  5
124
  8
0
 10
98.741685000000032
 20
100.4714563076538
 30
0.0
 11
97.217685000000031
 21
98.947456307653852
 31
0.0
  0
LINE
  5
125
  8
0
 10
100.265685
 20
98.947456307653852
 30
0.0
 11
98.741685000000032
 21
100.4714563076538
 31
0.0
  0
LINE
  5
126
  8
0
 10
101.78968500000001
 20
100.4714563076538
 30
0.0
 11
100.265685
 21
98.947456307653852
 31
0.0
  0
LINE
  5
127
  8
0
 10
94.169685000000015
 20
98.947456307653852
 30
0.0
 11
92.645685000000014
 21
100.4714563076538
 31
0.0
  0
LINE
  5
128
  8
0
 10
95.693685000000031
 20
100.4714563076538
 30
0.0
 11
94.169685000000015
 21
98.947456307653852
 31
0.0
  0
LINE
  5
129
  8
0
 10
97.217685000000031
 20
98.947456307653852
 30
0.0
 11
95.693685000000031
 21
100.4714563076538
 31
0.0
  0
LINE
  5
12A
  8
0
 10
91.121685000000014
 20
98.947456307653852
 30
0.0
 11
92.645685000000014
 21
100.4714563076538
 31
0.0
  0
LINE
  5
12B
  8
0
 10
105.145685
 20
100.1634563076538
 30
0.0
 11
105.145685
 21
110.1474563076538
 31
0.0
  0
LINE
  5
12C
  8
0
 10
105.145685
 20
100.1634563076538
 30
0.0
 11
104.83768499999999
 21
100.4714563076538
 31
0.0
  0
LINE
  5
12D
  8
0
 10
104.345685
 20
110.94745630765379
 30
0.0
 11
105.145685
 21
110.1474563076538
 31
0.0
  0
LINE
  5
12E
  8
2
 10
98.145685000000029
 20
99.875456307653849
 30
0.0
 11
98.145685000000029
 21
106.44745630765379
 31
0.0
  0
LINE
  5
12F
  8
2
 10
95.945685000000012
 20
106.44745630765379
 30
0.0
 11
95.945685000000012
 21
110.94745630765379
 31
0.0
  0
LINE
  5
130
  8
0
 10
81.977685000000022
 20
98.947456307653852
 30
0.0
 11
83.501685000000023
 21
100.4714563076538
 31
0.0
  0
LINE
  5
131
  8
0
 10
80.453685000000021
 20
100.4714563076538
 30
0.0
 11
81.977685000000022
 21
98.947456307653852
 31
0.0
  0
LINE
  5
132
  8
0
 10
83.501685000000023
 20
100.4714563076538
 30
0.0
 11
85.025685000000024
 21
98.947456307653852
 31
0.0
  0
LINE
  5
133
  8
0
 10
86.549685000000025
 20
100.4714563076538
 30
0.0
 11
88.073685000000026
 21
98.947456307653852
 31
0.0
  0
LINE
  5
134
  8
0
 10
85.025685000000024
 20
98.947456307653852
 30
0.0
 11
86.549685000000025
 21
100.4714563076538
 31
0.0
  0
LINE
  5
135
  8
0
 10
88.073685000000026
 20
98.947456307653852
 30
0.0
 11
89.597685000000027
 21
100.4714563076538
 31
0.0
  0
LINE
  5
136
  8
2
 10
87.145685000000043
 20
99.87545630765382
 30
0.0
 11
87.145685000000043
 21
106.44745630765379
 31
0.0
  0
LINE
  5
137
  8
0
 10
80.145685000000014
 20
100.1634563076538
 30
0.0
 11
80.145685000000014
 21
110.1474563076538
 31
0.0
  0
LINE
  5
138
  8
0
 10
80.145685000000014
 20
100.1634563076538
 30
0.0
 11
80.453685000000021
 21
100.4714563076538
 31
0.0
  0
LINE
  5
139
  8
2
 10
89.345685000000046
 20
106.44745630765379
 30
0.0
 11
89.345685000000046
 21
110.94745630765379
 31
0.0
  0
LINE
  5
13A
  8
0
 10
80.945685000000012
 20
110.94745630765379
 30
0.0
 11
80.145685000000014
 21
110.1474563076538
 31
0.0
  0
LINE
  5
17C
  8
0
 10
35.645685000000022
 20
76.214104000000006
 30
0.0
 11
35.645685000000022
 21
52.814104
 31
0.0
  0
LINE
  5
17D
  8
0
 10
36.445685000000033
 20
77.014104000000003
 30
0.0
 11
36.445685000000033
 21
52.014104000000003
 31
0.0
  0
LINE
  5
17E
  8
2
 10
40.145685000000007
 20
70.014103999999989
 30
0.0
 11
40.145684999999979
 21
59.014104000000003
 31
0.0
  0
LINE
  5
17F
  8
0
 10
46.121685000000006
 20
67.562104000000005
 30
0.0
 11
47.645685000000007
 21
66.038104000000004
 31
0.0
  0
LINE
  5
180
  8
1
 10
50.145685000000007
 20
64.514104000000003
 30
0.0
 11
33.145685000000022
 21
64.514104000000003
 31
0.0
  0
LINE
  5
181
  8
0
 10
46.121685000000006
 20
52.322103999999989
 30
0.0
 11
47.645685000000007
 21
53.846103999999997
 31
0.0
  0
LINE
  5
182
  8
0
 10
47.645685000000007
 20
53.846103999999997
 30
0.0
 11
46.121685000000006
 21
55.370103999999998
 31
0.0
  0
LINE
  5
183
  8
0
 10
46.121685000000006
 20
58.418104
 30
0.0
 11
47.645685000000007
 21
59.942104
 31
0.0
  0
LINE
  5
184
  8
0
 10
47.645685000000007
 20
56.894103999999999
 30
0.0
 11
46.121685000000006
 21
58.418104
 31
0.0
  0
LINE
  5
185
  8
0
 10
46.121685000000006
 20
55.370103999999998
 30
0.0
 11
47.645685000000007
 21
56.894103999999999
 31
0.0
  0
LINE
  5
186
  8
0
 10
47.645685000000007
 20
62.990104000000002
 30
0.0
 11
46.121685000000006
 21
64.514104000000003
 31
0.0
  0
LINE
  5
187
  8
0
 10
46.121685000000006
 20
61.466104000000001
 30
0.0
 11
47.645685000000007
 21
62.990104000000002
 31
0.0
  0
LINE
  5
188
  8
0
 10
47.645685000000007
 20
59.942104
 30
0.0
 11
46.121685000000006
 21
61.466104000000001
 31
0.0
  0
LINE
  5
189
  8
0
 10
47.645685000000007
 20
66.038104000000004
 30
0.0
 11
46.121685000000006
 21
64.514104000000003
 31
0.0
  0
LINE
  5
18A
  8
0
 10
46.429685000000013
 20
52.014104000000003
 30
0.0
 11
36.445685000000033
 21
52.014104000000003
 31
0.0
  0
LINE
  5
18B
  8
0
 10
46.429685000000013
 20
52.014104000000003
 30
0.0
 11
46.121685000000006
 21
52.322103999999989
 31
0.0
  0
LINE
  5
18C
  8
0
 10
35.645685000000022
 20
52.814104
 30
0.0
 11
36.445685000000033
 21
52.014104000000003
 31
0.0
  0
LINE
  5
18D
  8
2
 10
46.71768500000001
 20
59.014104000000003
 30
0.0
 11
40.145685000000007
 21
59.014104000000003
 31
0.0
  0
LINE
  5
18E
  8
2
 10
40.145685000000007
 20
61.214104000000013
 30
0.0
 11
35.645685000000022
 21
61.214104000000013
 31
0.0
  0
LINE
  5
18F
  8
0
 10
47.645685000000007
 20
75.182103999999995
 30
0.0
 11
46.121685000000006
 21
73.658103999999994
 31
0.0
  0
LINE
  5
190
  8
0
 10
46.121685000000006
 20
76.706104000000011
 30
0.0
 11
47.645685000000007
 21
75.182103999999995
 31
0.0
  0
LINE
  5
191
  8
0
 10
46.121685000000006
 20
73.658103999999994
 30
0.0
 11
47.645685000000007
 21
72.134103999999994
 31
0.0
  0
LINE
  5
192
  8
0
 10
46.121685000000006
 20
70.610104000000007
 30
0.0
 11
47.645685000000007
 21
69.086104000000006
 31
0.0
  0
LINE
  5
193
  8
0
 10
47.645685000000007
 20
72.134103999999994
 30
0.0
 11
46.121685000000006
 21
70.610104000000007
 31
0.0
  0
LINE
  5
194
  8
0
 10
47.645685000000007
 20
69.086104000000006
 30
0.0
 11
46.121685000000006
 21
67.562104000000005
 31
0.0
  0
LINE
  5
195
  8
0
 10
46.429685000000013
 20
77.014104000000003
 30
0.0
 11
36.445685000000033
 21
77.014104000000003
 31
0.0
  0
LINE
  5
196
  8
2
 10
46.717685000000053
 20
70.014103999999989
 30
0.0
 11
40.145685000000007
 21
70.014103999999989
 31
0.0
  0
LINE
  5
197
  8
0
 10
46.429685000000013
 20
77.014104000000003
 30
0.0
 11
46.121685000000006
 21
76.706104000000011
 31
0.0
  0
LINE
  5
198
  8
2
 10
40.145685000000007
 20
67.814103999999986
 30
0.0
 11
35.645685000000022
 21
67.814104
 31
0.0
  0
LINE
  5
199
  8
0
 10
35.645685000000022
 20
76.214104000000006
 30
0.0
 11
36.445685000000033
 21
77.014104000000003
 31
0.0
  0
LINE
  5
19A
  8
0
 10
80.145685000000014
 20
18.880751692346159
 30
0.0
 11
105.145685
 21
18.880751692346159
 31
0.0
  0
LINE
  5
19B
  8
0
 10
80.945685000000012
 20
18.080751692346151
 30
0.0
 11
104.345685
 21
18.080751692346151
 31
0.0
  0
LINE
  5
19C
  8
0
 10
94.169685000000015
 20
30.080751692346151
 30
0.0
 11
92.645685000000014
 21
28.55675169234615
 31
0.0
  0
LINE
  5
19D
  8
2
 10
87.145685000000043
 20
22.580751692346151
 30
0.0
 11
98.145685000000029
 21
22.58075169234613
 31
0.0
  0
LINE
  5
19E
  8
2
 10
89.345685000000046
 20
22.580751692346151
 30
0.0
 11
89.345685000000046
 21
18.080751692346151
 31
0.0
  0
LINE
  5
19F
  8
0
 10
80.145685000000014
 20
28.86475169234615
 30
0.0
 11
80.145685000000014
 21
18.880751692346159
 31
0.0
  0
LINE
  5
1A0
  8
1
 10
92.645685000000014
 20
32.580751692346148
 30
0.0
 11
92.645685000000014
 21
15.58075169234615
 31
0.0
  0
LINE
  5
1A1
  8
0
 10
88.073685000000026
 20
30.080751692346151
 30
0.0
 11
89.597685000000027
 21
28.55675169234615
 31
0.0
  0
LINE
  5
1A2
  8
0
 10
85.025685000000024
 20
30.080751692346151
 30
0.0
 11
86.549685000000025
 21
28.55675169234615
 31
0.0
  0
LINE
  5
1A3
  8
0
 10
86.549685000000025
 20
28.55675169234615
 30
0.0
 11
88.073685000000026
 21
30.080751692346151
 31
0.0
  0
LINE
  5
1A4
  8
0
 10
83.501685000000023
 20
28.55675169234615
 30
0.0
 11
85.025685000000024
 21
30.080751692346151
 31
0.0
  0
LINE
  5
1A5
  8
0
 10
80.453685000000021
 20
28.55675169234615
 30
0.0
 11
81.977685000000022
 21
30.080751692346151
 31
0.0
  0
LINE
  5
1A6
  8
0
 10
81.977685000000022
 20
30.080751692346151
 30
0.0
 11
83.501685000000023
 21
28.55675169234615
 31
0.0
  0
LINE
  5
1A7
  8
0
 10
91.121685000000014
 20
30.080751692346151
 30
0.0
 11
92.645685000000014
 21
28.55675169234615
 31
0.0
  0
LINE
  5
1A8
  8
0
 10
89.597685000000027
 20
28.55675169234615
 30
0.0
 11
91.121685000000014
 21
30.080751692346151
 31
0.0
  0
LINE
  5
1A9
  8
0
 10
80.145685000000014
 20
28.86475169234615
 30
0.0
 11
80.453685000000021
 21
28.55675169234615
 31
0.0
  0
LINE
  5
1AA
  8
2
 10
87.145685000000043
 20
29.152751692346179
 30
0.0
 11
87.145685000000043
 21
22.580751692346151
 31
0.0
  0
LINE
  5
1AB
  8
0
 10
80.945685000000012
 20
18.080751692346151
 30
0.0
 11
80.145685000000014
 21
18.880751692346159
 31
0.0
  0
LINE
  5
1AC
  8
0
 10
105.145685
 20
28.86475169234615
 30
0.0
 11
105.145685
 21
18.880751692346159
 31
0.0
  0
LINE
  5
1AD
  8
2
 10
95.945685000000012
 20
22.580751692346151
 30
0.0
 11
95.945685000000012
 21
18.080751692346151
 31
0.0
  0
LINE
  5
1AE
  8
0
 10
97.217685000000031
 20
30.080751692346151
 30
0.0
 11
95.693685000000031
 21
28.55675169234615
 31
0.0
  0
LINE
  5
1AF
  8
0
 10
95.693685000000031
 20
28.55675169234615
 30
0.0
 11
94.169685000000015
 21
30.080751692346151
 31
0.0
  0
LINE
  5
1B0
  8
0
 10
101.78968500000001
 20
28.55675169234615
 30
0.0
 11
100.265685
 21
30.080751692346151
 31
0.0
  0
LINE
  5
1B1
  8
0
 10
100.265685
 20
30.080751692346151
 30
0.0
 11
98.741685000000032
 21
28.55675169234615
 31
0.0
  0
LINE
  5
1B2
  8
0
 10
98.741685000000032
 20
28.55675169234615
 30
0.0
 11
97.217685000000031
 21
30.080751692346151
 31
0.0
  0
LINE
  5
1B3
  8
0
 10
103.31368500000001
 20
30.080751692346151
 30
0.0
 11
101.78968500000001
 21
28.55675169234615
 31
0.0
  0
LINE
  5
1B4
  8
0
 10
104.83768499999999
 20
28.55675169234615
 30
0.0
 11
103.31368500000001
 21
30.080751692346151
 31
0.0
  0
LINE
  5
1B5
  8
2
 10
98.145685000000029
 20
29.152751692346161
 30
0.0
 11
98.145685000000029
 21
22.580751692346151
 31
0.0
  0
LINE
  5
1B6
  8
0
 10
105.145685
 20
28.86475169234615
 30
0.0
 11
104.83768499999999
 21
28.55675169234615
 31
0.0
  0
LINE
  5
1B7
  8
0
 10
104.345685
 20
18.080751692346151
 30
0.0
 11
105.145685
 21
18.880751692346159
 31
0.0
  0
TEXT
  5
2FA
  8
0
 62
     3
 10
0.0
 20
0.0
 30
0.0
 40
5.0
  1
HS-9252-C
  7
STANDARD1
  0
ENDSEC
  0
EOF
