  0
SECTION
  2
HEADER
  9
$ACADVER
  1
AC1009
  9
$INSBASE
 10
0.0
 20
0.0
 30
0.0
  9
$EXTMIN
 10
0.0
 20
-1.4802182810368341
 30
0.0
  9
$EXTMAX
 10
113.4899999999999
 20
65.0
 30
0.0
  9
$LIMMIN
 10
0.0
 20
0.0
  9
$LIMMAX
 10
187.5
 20
135.0
  9
$ORTHOMODE
 70
     1
  9
$REGENMODE
 70
     1
  9
$FILLMODE
 70
     1
  9
$QTEXTMODE
 70
     0
  9
$MIRRTEXT
 70
     0
  9
$DRAGMODE
 70
     2
  9
$LTSCALE
 40
2.0
  9
$OSMODE
 70
    37
  9
$ATTMODE
 70
     1
  9
$TEXTSIZE
 40
4.0
  9
$TRACEWID
 40
0.05
  9
$TEXTSTYLE
  7
STANDARD
  9
$CLAYER
  8
0
  9
$CELTYPE
  6
BYLAYER
  9
$CECOLOR
 62
   256
  9
$DIMSCALE
 40
0.5
  9
$DIMASZ
 40
3.0
  9
$DIMEXO
 40
2.0
  9
$DIMDLI
 40
0.38
  9
$DIMRND
 40
0.0
  9
$DIMDLE
 40
0.0
  9
$DIMEXE
 40
2.0
  9
$DIMTP
 40
0.0
  9
$DIMTM
 40
0.0
  9
$DIMTXT
 40
3.0
  9
$DIMCEN
 40
0.0
  9
$DIMTSZ
 40
0.0
  9
$DIMTOL
 70
     0
  9
$DIMLIM
 70
     0
  9
$DIMTIH
 70
     0
  9
$DIMTOH
 70
     0
  9
$DIMSE1
 70
     0
  9
$DIMSE2
 70
     0
  9
$DIMTAD
 70
     1
  9
$DIMZIN
 70
     8
  9
$DIMBLK
  1

  9
$DIMASO
 70
     0
  9
$DIMSHO
 70
     0
  9
$DIMPOST
  1

  9
$DIMAPOST
  1

  9
$DIMALT
 70
     0
  9
$DIMALTD
 70
     2
  9
$DIMALTF
 40
25.399999999999999
  9
$DIMLFAC
 40
1.0
  9
$DIMTOFL
 70
     1
  9
$DIMTVP
 40
1.6000000000000001
  9
$DIMTIX
 70
     1
  9
$DIMSOXD
 70
     0
  9
$DIMSAH
 70
     0
  9
$DIMBLK1
  1

  9
$DIMBLK2
  1

  9
$DIMSTYLE
  2
STANDARD
  9
$DIMCLRD
 70
   256
  9
$DIMCLRE
 70
   256
  9
$DIMCLRT
 70
   256
  9
$DIMTFAC
 40
1.0
  9
$DIMGAP
 40
1.0
  9
$LUNITS
 70
     2
  9
$LUPREC
 70
     1
  9
$SKETCHINC
 40
0.1
  9
$FILLETRAD
 40
1.0
  9
$AUNITS
 70
     0
  9
$AUPREC
 70
     0
  9
$MENU
  1
E:\r13\win\SUPPORT\ACAD
  9
$ELEVATION
 40
0.0
  9
$PELEVATION
 40
0.0
  9
$THICKNESS
 40
0.0
  9
$LIMCHECK
 70
     0
  9
$BLIPMODE
 70
     0
  9
$CHAMFERA
 40
0.0
  9
$CHAMFERB
 40
0.0
  9
$SKPOLY
 70
     0
  9
$TDCREATE
 40
2449840.6143865739
  9
$TDUPDATE
 40
2459256.6227020491
  9
$TDINDWG
 40
0.7062624074
  9
$TDUSRTIMER
 40
0.7062624074
  9
$USRTIMER
 70
     1
  9
$ANGBASE
 50
0.0
  9
$ANGDIR
 70
     0
  9
$PDMODE
 70
     0
  9
$PDSIZE
 40
0.0
  9
$PLINEWID
 40
0.0
  9
$COORDS
 70
     1
  9
$SPLFRAME
 70
     0
  9
$SPLINETYPE
 70
     6
  9
$SPLINESEGS
 70
     8
  9
$ATTDIA
 70
     0
  9
$ATTREQ
 70
     1
  9
$HANDLING
 70
     1
  9
$HANDSEED
  5
2776
  9
$SURFTAB1
 70
     6
  9
$SURFTAB2
 70
     6
  9
$SURFTYPE
 70
     6
  9
$SURFU
 70
     6
  9
$SURFV
 70
     6
  9
$UCSNAME
  2

  9
$UCSORG
 10
0.0
 20
0.0
 30
0.0
  9
$UCSXDIR
 10
1.0
 20
0.0
 30
0.0
  9
$UCSYDIR
 10
0.0
 20
1.0
 30
0.0
  9
$PUCSNAME
  2

  9
$PUCSORG
 10
0.0
 20
0.0
 30
0.0
  9
$PUCSXDIR
 10
1.0
 20
0.0
 30
0.0
  9
$PUCSYDIR
 10
0.0
 20
1.0
 30
0.0
  9
$USERI1
 70
     0
  9
$USERI2
 70
     1
  9
$USERI3
 70
     1
  9
$USERI4
 70
     0
  9
$USERI5
 70
     0
  9
$USERR1
 40
0.0
  9
$USERR2
 40
0.0
  9
$USERR3
 40
0.0
  9
$USERR4
 40
0.0
  9
$USERR5
 40
0.0
  9
$WORLDVIEW
 70
     1
  9
$SHADEDGE
 70
     3
  9
$SHADEDIF
 70
    70
  9
$TILEMODE
 70
     1
  9
$MAXACTVP
 70
    16
  9
$PLIMCHECK
 70
     0
  9
$PEXTMIN
 10
1.0000000000000000E+020
 20
1.0000000000000000E+020
 30
1.0000000000000000E+020
  9
$PEXTMAX
 10
-1.0000000000000000E+020
 20
-1.0000000000000000E+020
 30
-1.0000000000000000E+020
  9
$PLIMMIN
 10
0.0
 20
0.0
  9
$PLIMMAX
 10
12.0
 20
9.0
  9
$UNITMODE
 70
     0
  9
$VISRETAIN
 70
     0
  9
$PLINEGEN
 70
     0
  9
$PSLTSCALE
 70
     0
  0
ENDSEC
  0
SECTION
  2
TABLES
  0
TABLE
  2
VPORT
 70
     1
  0
VPORT
  2
*ACTIVE
 70
     0
 10
0.0
 20
0.0
 11
1.0
 21
1.0
 12
195.14681892332791
 22
75.0
 13
0.0
 23
0.0
 14
5.0
 24
5.0
 15
5.0
 25
5.0
 16
0.0
 26
0.0
 36
1.0
 17
0.0
 27
0.0
 37
0.0
 40
150.0
 41
2.6019575856443709
 42
50.0
 43
0.0
 44
0.0
 50
0.0
 51
0.0
 71
     0
 72
   100
 73
     1
 74
     0
 75
     0
 76
     0
 77
     0
 78
     0
  0
ENDTAB
  0
TABLE
  2
LTYPE
 70
     4
  0
LTYPE
  2
CONTINUOUS
 70
     0
  3
Solid Line
 72
    65
 73
     0
 40
0.0
  0
LTYPE
  2
CENTER
 70
     0
  3
____ _ ____ _ ____ _ ____ _ ____ _ ____ _ ____
 72
    65
 73
     4
 40
2.0
 49
1.25
 49
-0.25
 49
0.25
 49
-0.25
  0
LTYPE
  2
HIDDEN
 70
     0
  3
_ _ _ _ _ _ _ _ _ _ _ _ _ _ _ _ _ _ _ _ _ _ _
 72
    65
 73
     2
 40
0.375
 49
0.25
 49
-0.125
  0
LTYPE
  2
PHANTOM2
 70
     0
  3
___ _ _ ___ _ _ ___ _ _ ___ _ _
 72
    65
 73
     6
 40
1.25
 49
0.625
 49
-0.125
 49
0.125
 49
-0.125
 49
0.125
 49
-0.125
  0
ENDTAB
  0
TABLE
  2
LAYER
 70
     5
  0
LAYER
  2
0
 70
     0
 62
     7
  6
CONTINUOUS
  0
LAYER
  2
1
 70
     0
 62
     1
  6
CENTER
  0
LAYER
  2
3
 70
     0
 62
     3
  6
CONTINUOUS
  0
LAYER
  2
2
 70
     0
 62
     2
  6
HIDDEN
  0
LAYER
  2
DEFPOINTS
 70
     0
 62
     7
  6
CONTINUOUS
  0
ENDTAB
  0
TABLE
  2
STYLE
 70
     2
  0
STYLE
  2
STANDARD
 70
     0
 40
0.0
 41
1.0
 50
0.0
 71
     0
 42
4.0
  3
TXT
  4
BIGFONT
  0
STYLE
  2
STANDARD1
 70
     0
 40
0.0
 41
1.0
 50
0.0
 71
     0
 42
3.0
  3
txt
  4

  0
ENDTAB
  0
TABLE
  2
VIEW
 70
     1
  0
VIEW
  2
ALL
 70
     0
 40
179.66152299999999
 10
141.903918
 20
89.830760999999995
 41
0.0
 11
0.0
 21
0.0
 31
1.0
 12
0.0
 22
0.0
 32
0.0
 42
0.0
 43
0.0
 44
0.0
 50
0.0
 71
     0
  0
ENDTAB
  0
TABLE
  2
UCS
 70
     0
  0
ENDTAB
  0
TABLE
  2
APPID
 70
     8
  0
APPID
  2
ACAD
 70
     0
  0
APPID
  2
DCO15
 70
     0
  0
APPID
  2
ACAD_MLEADERVER
 70
     0
  0
APPID
  2
ACAD_NAV_VCDISPLAY
 70
     0
  0
APPID
  2
ACAD_EXEMPT_FROM_CAD_STANDARDS
 70
     0
  0
APPID
  2
ACAD_DSTYLE_DIMRADIAL_EXTENSION
 70
     0
  0
APPID
  2
ACAD_DSTYLE_DIMJAG
 70
     0
  0
APPID
  2
ACAD_DSTYLE_DIMTALN
 70
     0
  0
ENDTAB
  0
TABLE
  2
DIMSTYLE
 70
     1
  0
DIMSTYLE
  2
STANDARD
 70
     0
  3

  4

  5

  6

  7

 40
1.0
 41
0.18
 42
0.0625
 43
0.38
 44
0.18
 45
0.0
 46
0.0
 47
0.0
 48
0.0
140
0.18
141
0.09
142
0.0
143
25.399999999999999
144
1.0
145
0.0
146
1.0
147
0.09
 71
     0
 72
     0
 73
     1
 74
     1
 75
     0
 76
     0
 77
     0
 78
     0
170
     0
171
     2
172
     0
173
     0
174
     0
175
     0
176
     0
177
     0
178
     0
  0
ENDTAB
  0
ENDSEC
  0
SECTION
  2
BLOCKS
  0
BLOCK
  8
0
  2
$MODEL_SPACE
 70
     0
 10
0.0
 20
0.0
 30
0.0
  3
$MODEL_SPACE
  1

  0
ENDBLK
  5
1BD
  8
0
  0
BLOCK
 67
     1
  8
0
  2
$PAPER_SPACE
 70
     0
 10
0.0
 20
0.0
 30
0.0
  3
$PAPER_SPACE
  1

  0
ENDBLK
  5
1BB
 67
     1
  8
0
  0
ENDSEC
  0
SECTION
  2
ENTITIES
  0
TEXT
  5
14AC
  8
0
 62
     3
 10
0.0
 20
0.0
 30
0.0
 40
5.0
  1
HSSB10X27-SUS
  7
STANDARD1
  0
LINE
  5
255E
  8
2
 10
58.199999999999932
 20
62.5
 30
0.0
 11
54.999999999999943
 21
62.5
 31
0.0
  0
LINE
  5
255F
  8
2
 10
58.199999999999932
 20
57.5
 30
0.0
 11
54.999999999999943
 21
57.5
 31
0.0
  0
LINE
  5
2560
  8
2
 10
58.199999999999932
 20
62.5
 30
0.0
 11
58.199999999999932
 21
57.5
 31
0.0
  0
LINE
  5
2561
  8
2
 10
58.199999999999932
 20
60.0
 30
0.0
 11
54.999999999999943
 21
60.0
 31
0.0
  0
LINE
  5
2562
  8
0
 10
79.39999999999992
 20
56.5
 30
0.0
 11
81.489999999999952
 21
56.5
 31
0.0
  0
LINE
  5
2563
  8
0
 10
81.489999999999952
 20
63.5
 30
0.0
 11
79.39999999999992
 21
63.5
 31
0.0
  0
LINE
  5
256A
  8
0
 10
81.989999999999966
 20
63.0
 30
0.0
 11
81.989999999999966
 21
57.0
 31
0.0
  0
LINE
  5
256B
  8
0
 10
81.489999999999952
 20
63.5
 30
0.0
 11
81.489999999999952
 21
56.5
 31
0.0
  0
LINE
  5
256C
  8
0
 10
81.989999999999966
 20
63.0
 30
0.0
 11
81.489999999999952
 21
63.5
 31
0.0
  0
LINE
  5
256D
  8
0
 10
81.489999999999952
 20
56.5
 30
0.0
 11
81.989999999999966
 21
57.0
 31
0.0
  0
LINE
  5
256E
  8
0
 10
79.39999999999992
 20
64.049999999999997
 30
0.0
 11
79.39999999999992
 21
55.950000000000003
 31
0.0
  0
LINE
  5
256F
  8
0
 10
78.39999999999992
 20
55.950000000000003
 30
0.0
 11
79.39999999999992
 21
55.950000000000003
 31
0.0
  0
LINE
  5
2570
  8
0
 10
79.39999999999992
 20
64.049999999999997
 30
0.0
 11
78.39999999999992
 21
64.049999999999997
 31
0.0
  0
LINE
  5
2571
  8
0
 10
78.39999999999992
 20
64.049999999999997
 30
0.0
 11
78.39999999999992
 21
55.949999999999989
 31
0.0
  0
LINE
  5
2572
  8
0
 10
78.39999999999992
 20
64.049999999999997
 30
0.0
 11
77.449999999999932
 21
65.0
 31
0.0
  0
LINE
  5
2573
  8
0
 10
77.449999999999932
 20
55.0
 30
0.0
 11
78.39999999999992
 21
55.949999999999989
 31
0.0
  0
LINE
  5
2574
  8
0
 10
54.999999999999943
 20
63.79999999999999
 30
0.0
 11
54.999999999999943
 21
56.200000000000003
 31
0.0
  0
LINE
  5
2575
  8
0
 10
54.999999999999943
 20
56.200000000000003
 30
0.0
 11
56.199999999999932
 21
55.0
 31
0.0
  0
LINE
  5
2576
  8
0
 10
56.199999999999932
 20
65.0
 30
0.0
 11
54.999999999999943
 21
63.79999999999999
 31
0.0
  0
LINE
  5
2577
  8
0
 10
77.449999999999932
 20
65.0
 30
0.0
 11
77.449999999999932
 21
55.0
 31
0.0
  0
LINE
  5
2578
  8
0
 10
56.199999999999932
 20
65.0
 30
0.0
 11
56.199999999999932
 21
55.0
 31
0.0
  0
LINE
  5
2579
  8
0
 10
56.199999999999932
 20
55.0
 30
0.0
 11
77.449999999999932
 21
55.0
 31
0.0
  0
LINE
  5
257A
  8
0
 10
77.449999999999932
 20
65.0
 30
0.0
 11
56.199999999999932
 21
65.0
 31
0.0
  0
LINE
  5
257B
  8
3
 10
55.279999999999909
 20
55.920000000000002
 30
0.0
 11
78.369999999999891
 21
55.920000000000009
 31
0.0
  0
LINE
  5
257D
  8
3
 10
55.279999999999909
 20
64.079999999999998
 30
0.0
 11
78.369999999999948
 21
64.079999999999998
 31
0.0
  0
LINE
  5
2594
  8
0
 10
30.0
 20
27.113248654051869
 30
0.0
 11
32.5
 21
28.55662432702594
 31
0.0
  0
LINE
  5
2595
  8
0
 10
27.5
 20
31.44337567297406
 30
0.0
 11
27.5
 21
28.55662432702594
 31
0.0
  0
LINE
  5
2596
  8
0
 10
27.5
 20
28.55662432702594
 30
0.0
 11
30.0
 21
27.113248654051869
 31
0.0
  0
LINE
  5
2597
  8
0
 10
32.5
 20
28.55662432702594
 30
0.0
 11
32.5
 21
31.44337567297406
 31
0.0
  0
LINE
  5
2598
  8
0
 10
32.5
 20
31.44337567297406
 30
0.0
 11
30.0
 21
32.886751345948127
 31
0.0
  0
LINE
  5
2599
  8
0
 10
30.0
 20
32.886751345948127
 30
0.0
 11
27.5
 21
31.44337567297406
 31
0.0
  0
CIRCLE
  5
259A
  8
0
 10
30.0
 20
30.0
 30
0.0
 40
5.0
  0
CIRCLE
  5
25BC
  8
0
 10
106.9899999999999
 20
30.0
 30
0.0
 40
5.0
  0
CIRCLE
  5
25BE
  8
0
 10
106.9899999999999
 20
30.0
 30
0.0
 40
4.0499999999999989
  0
CIRCLE
  5
25BF
  8
0
 10
106.9899999999999
 20
30.0
 30
0.0
 40
3.5
  0
LINE
  5
262C
  8
2
 10
58.199999999999989
 20
27.113248654051869
 30
0.0
 11
55.0
 21
27.113248654051869
 31
0.0
  0
LINE
  5
262D
  8
2
 10
58.199999999999989
 20
32.886751345948127
 30
0.0
 11
55.0
 21
32.886751345948127
 31
0.0
  0
LINE
  5
262E
  8
2
 10
58.199999999999989
 20
31.44337567297406
 30
0.0
 11
55.0
 21
31.44337567297406
 31
0.0
  0
LINE
  5
262F
  8
2
 10
58.199999999999989
 20
28.55662432702594
 30
0.0
 11
55.0
 21
28.55662432702594
 31
0.0
  0
LINE
  5
2630
  8
2
 10
58.199999999999989
 20
32.886751345948127
 30
0.0
 11
58.199999999999989
 21
27.113248654051869
 31
0.0
  0
LINE
  5
2631
  8
0
 10
79.399999999999963
 20
26.5
 30
0.0
 11
81.489999999999952
 21
26.5
 31
0.0
  0
LINE
  5
2632
  8
0
 10
81.489999999999952
 20
33.5
 30
0.0
 11
79.399999999999963
 21
33.5
 31
0.0
  0
LINE
  5
2639
  8
0
 10
81.989999999999966
 20
33.0
 30
0.0
 11
81.489999999999952
 21
33.5
 31
0.0
  0
LINE
  5
263A
  8
0
 10
81.489999999999952
 20
26.5
 30
0.0
 11
81.989999999999966
 21
27.0
 31
0.0
  0
LINE
  5
263B
  8
0
 10
81.989999999999966
 20
33.0
 30
0.0
 11
81.989999999999966
 21
27.0
 31
0.0
  0
LINE
  5
263C
  8
0
 10
81.489999999999952
 20
33.5
 30
0.0
 11
81.489999999999952
 21
26.5
 31
0.0
  0
LINE
  5
263D
  8
0
 10
78.399999999999977
 20
25.949999999999999
 30
0.0
 11
79.399999999999963
 21
25.949999999999999
 31
0.0
  0
LINE
  5
263E
  8
0
 10
79.399999999999963
 20
34.049999999999997
 30
0.0
 11
78.399999999999977
 21
34.049999999999997
 31
0.0
  0
LINE
  5
263F
  8
0
 10
79.399999999999963
 20
34.049999999999997
 30
0.0
 11
79.399999999999963
 21
25.949999999999999
 31
0.0
  0
LINE
  5
2640
  8
0
 10
78.399999999999977
 20
34.049999999999997
 30
0.0
 11
77.449999999999989
 21
35.0
 31
0.0
  0
LINE
  5
2641
  8
0
 10
77.449999999999989
 20
25.0
 30
0.0
 11
78.399999999999977
 21
25.949999999999999
 31
0.0
  0
LINE
  5
2642
  8
0
 10
78.399999999999977
 20
34.049999999999997
 30
0.0
 11
78.399999999999977
 21
25.949999999999999
 31
0.0
  0
LINE
  5
2643
  8
0
 10
55.0
 20
26.199999999999999
 30
0.0
 11
56.199999999999989
 21
25.0
 31
0.0
  0
LINE
  5
2644
  8
0
 10
56.199999999999989
 20
35.0
 30
0.0
 11
55.0
 21
33.799999999999997
 31
0.0
  0
LINE
  5
2645
  8
0
 10
55.0
 20
33.799999999999997
 30
0.0
 11
55.0
 21
26.199999999999999
 31
0.0
  0
LINE
  5
2646
  8
0
 10
56.199999999999989
 20
25.0
 30
0.0
 11
77.449999999999989
 21
25.0
 31
0.0
  0
LINE
  5
2647
  8
0
 10
77.449999999999989
 20
35.0
 30
0.0
 11
56.199999999999989
 21
35.0
 31
0.0
  0
LINE
  5
2648
  8
0
 10
77.449999999999989
 20
35.0
 30
0.0
 11
77.449999999999989
 21
25.0
 31
0.0
  0
LINE
  5
2649
  8
0
 10
56.199999999999989
 20
35.0
 30
0.0
 11
56.199999999999989
 21
25.0
 31
0.0
  0
LINE
  5
264A
  8
3
 10
55.279999999999973
 20
34.079999999999998
 30
0.0
 11
78.369999999999948
 21
34.079999999999998
 31
0.0
  0
LINE
  5
264C
  8
3
 10
55.279999999999973
 20
25.920000000000002
 30
0.0
 11
78.369999999999948
 21
25.920000000000002
 31
0.0
  0
LINE
  5
26B2
  8
2
 10
59.643375672973953
 20
59.999999999999957
 30
0.0
 11
58.199999999999932
 21
57.5
 31
0.0
  0
LINE
  5
26B3
  8
2
 10
58.199999999999932
 20
62.5
 30
0.0
 11
59.643375672974003
 21
60.0
 31
0.0
  0
LINE
  5
26B4
  8
1
 10
83.489999999999938
 20
60.0
 30
0.0
 11
53.499999999999943
 21
60.0
 31
0.0
  0
LINE
  5
26BD
  8
2
 10
59.643375672974003
 20
29.999999999999961
 30
0.0
 11
58.199999999999989
 21
27.5
 31
0.0
  0
LINE
  5
26BE
  8
2
 10
58.199999999999989
 20
32.5
 30
0.0
 11
59.643375672974052
 21
30.0
 31
0.0
  0
LINE
  5
26BF
  8
1
 10
53.5
 20
30.0
 30
0.0
 11
83.489999999999938
 21
30.0
 31
0.0
  0
CIRCLE
  5
26C4
  8
3
 10
30.0
 20
30.0
 30
0.0
 40
4.0800000000000116
  0
LINE
  5
26C5
  8
1
 10
30.0
 20
23.5
 30
0.0
 11
30.0
 21
36.5
 31
0.0
  0
LINE
  5
26C6
  8
1
 10
23.5
 20
30.0
 30
0.0
 11
36.5
 21
30.0
 31
0.0
  0
CIRCLE
  5
26CC
  8
3
 10
106.9899999999999
 20
30.0
 30
0.0
 40
4.0799999999999983
  0
LINE
  5
26CD
  8
1
 10
113.4899999999999
 20
30.0
 30
0.0
 11
100.4899999999999
 21
30.0
 31
0.0
  0
LINE
  5
26CE
  8
1
 10
106.9899999999999
 20
36.5
 30
0.0
 11
106.9899999999999
 21
23.5
 31
0.0
  0
ENDSEC
  0
EOF
