  0
SECTION
  2
HEADER
  9
$ACADVER
  1
AC1009
  9
$INSBASE
 10
0.0
 20
0.0
 30
0.0
  9
$EXTMIN
 10
0.0
 20
-1.4802182810368341
 30
0.0
  9
$EXTMAX
 10
104.3899999999999
 20
65.0
 30
0.0
  9
$LIMMIN
 10
0.0
 20
0.0
  9
$LIMMAX
 10
187.5
 20
135.0
  9
$ORTHOMODE
 70
     1
  9
$REGENMODE
 70
     1
  9
$FILLMODE
 70
     1
  9
$QTEXTMODE
 70
     0
  9
$MIRRTEXT
 70
     0
  9
$DRAGMODE
 70
     2
  9
$LTSCALE
 40
2.0
  9
$OSMODE
 70
    37
  9
$ATTMODE
 70
     1
  9
$TEXTSIZE
 40
4.0
  9
$TRACEWID
 40
0.05
  9
$TEXTSTYLE
  7
STANDARD
  9
$CLAYER
  8
0
  9
$CELTYPE
  6
BYLAYER
  9
$CECOLOR
 62
   256
  9
$DIMSCALE
 40
0.5
  9
$DIMASZ
 40
3.0
  9
$DIMEXO
 40
2.0
  9
$DIMDLI
 40
0.38
  9
$DIMRND
 40
0.0
  9
$DIMDLE
 40
0.0
  9
$DIMEXE
 40
2.0
  9
$DIMTP
 40
0.0
  9
$DIMTM
 40
0.0
  9
$DIMTXT
 40
3.0
  9
$DIMCEN
 40
0.0
  9
$DIMTSZ
 40
0.0
  9
$DIMTOL
 70
     0
  9
$DIMLIM
 70
     0
  9
$DIMTIH
 70
     0
  9
$DIMTOH
 70
     0
  9
$DIMSE1
 70
     0
  9
$DIMSE2
 70
     0
  9
$DIMTAD
 70
     1
  9
$DIMZIN
 70
     8
  9
$DIMBLK
  1

  9
$DIMASO
 70
     0
  9
$DIMSHO
 70
     0
  9
$DIMPOST
  1

  9
$DIMAPOST
  1

  9
$DIMALT
 70
     0
  9
$DIMALTD
 70
     2
  9
$DIMALTF
 40
25.399999999999999
  9
$DIMLFAC
 40
1.0
  9
$DIMTOFL
 70
     1
  9
$DIMTVP
 40
1.6000000000000001
  9
$DIMTIX
 70
     1
  9
$DIMSOXD
 70
     0
  9
$DIMSAH
 70
     0
  9
$DIMBLK1
  1

  9
$DIMBLK2
  1

  9
$DIMSTYLE
  2
STANDARD
  9
$DIMCLRD
 70
   256
  9
$DIMCLRE
 70
   256
  9
$DIMCLRT
 70
   256
  9
$DIMTFAC
 40
1.0
  9
$DIMGAP
 40
1.0
  9
$LUNITS
 70
     2
  9
$LUPREC
 70
     1
  9
$SKETCHINC
 40
0.1
  9
$FILLETRAD
 40
1.0
  9
$AUNITS
 70
     0
  9
$AUPREC
 70
     0
  9
$MENU
  1
E:\r13\win\SUPPORT\ACAD
  9
$ELEVATION
 40
0.0
  9
$PELEVATION
 40
0.0
  9
$THICKNESS
 40
0.0
  9
$LIMCHECK
 70
     0
  9
$BLIPMODE
 70
     0
  9
$CHAMFERA
 40
0.0
  9
$CHAMFERB
 40
0.0
  9
$SKPOLY
 70
     0
  9
$TDCREATE
 40
2449840.6143865739
  9
$TDUPDATE
 40
2459270.3852630672
  9
$TDINDWG
 40
0.7463293287
  9
$TDUSRTIMER
 40
0.7463293287
  9
$USRTIMER
 70
     1
  9
$ANGBASE
 50
0.0
  9
$ANGDIR
 70
     0
  9
$PDMODE
 70
     0
  9
$PDSIZE
 40
0.0
  9
$PLINEWID
 40
0.0
  9
$COORDS
 70
     1
  9
$SPLFRAME
 70
     0
  9
$SPLINETYPE
 70
     6
  9
$SPLINESEGS
 70
     8
  9
$ATTDIA
 70
     0
  9
$ATTREQ
 70
     1
  9
$HANDLING
 70
     1
  9
$HANDSEED
  5
2A3D
  9
$SURFTAB1
 70
     6
  9
$SURFTAB2
 70
     6
  9
$SURFTYPE
 70
     6
  9
$SURFU
 70
     6
  9
$SURFV
 70
     6
  9
$UCSNAME
  2

  9
$UCSORG
 10
0.0
 20
0.0
 30
0.0
  9
$UCSXDIR
 10
1.0
 20
0.0
 30
0.0
  9
$UCSYDIR
 10
0.0
 20
1.0
 30
0.0
  9
$PUCSNAME
  2

  9
$PUCSORG
 10
0.0
 20
0.0
 30
0.0
  9
$PUCSXDIR
 10
1.0
 20
0.0
 30
0.0
  9
$PUCSYDIR
 10
0.0
 20
1.0
 30
0.0
  9
$USERI1
 70
     0
  9
$USERI2
 70
     1
  9
$USERI3
 70
     1
  9
$USERI4
 70
     0
  9
$USERI5
 70
     0
  9
$USERR1
 40
0.0
  9
$USERR2
 40
0.0
  9
$USERR3
 40
0.0
  9
$USERR4
 40
0.0
  9
$USERR5
 40
0.0
  9
$WORLDVIEW
 70
     1
  9
$SHADEDGE
 70
     3
  9
$SHADEDIF
 70
    70
  9
$TILEMODE
 70
     1
  9
$MAXACTVP
 70
    16
  9
$PLIMCHECK
 70
     0
  9
$PEXTMIN
 10
1.0000000000000000E+020
 20
1.0000000000000000E+020
 30
1.0000000000000000E+020
  9
$PEXTMAX
 10
-1.0000000000000000E+020
 20
-1.0000000000000000E+020
 30
-1.0000000000000000E+020
  9
$PLIMMIN
 10
0.0
 20
0.0
  9
$PLIMMAX
 10
12.0
 20
9.0
  9
$UNITMODE
 70
     0
  9
$VISRETAIN
 70
     0
  9
$PLINEGEN
 70
     0
  9
$PSLTSCALE
 70
     0
  0
ENDSEC
  0
SECTION
  2
TABLES
  0
TABLE
  2
VPORT
 70
     1
  0
VPORT
  2
*ACTIVE
 70
     0
 10
0.0
 20
0.0
 11
1.0
 21
1.0
 12
195.14681892332791
 22
75.0
 13
0.0
 23
0.0
 14
5.0
 24
5.0
 15
5.0
 25
5.0
 16
0.0
 26
0.0
 36
1.0
 17
0.0
 27
0.0
 37
0.0
 40
150.0
 41
2.6019575856443709
 42
50.0
 43
0.0
 44
0.0
 50
0.0
 51
0.0
 71
     0
 72
   100
 73
     1
 74
     0
 75
     0
 76
     0
 77
     0
 78
     0
  0
ENDTAB
  0
TABLE
  2
LTYPE
 70
     4
  0
LTYPE
  2
CONTINUOUS
 70
     0
  3
Solid Line
 72
    65
 73
     0
 40
0.0
  0
LTYPE
  2
CENTER
 70
     0
  3
____ _ ____ _ ____ _ ____ _ ____ _ ____ _ ____
 72
    65
 73
     4
 40
2.0
 49
1.25
 49
-0.25
 49
0.25
 49
-0.25
  0
LTYPE
  2
HIDDEN
 70
     0
  3
_ _ _ _ _ _ _ _ _ _ _ _ _ _ _ _ _ _ _ _ _ _ _
 72
    65
 73
     2
 40
0.375
 49
0.25
 49
-0.125
  0
LTYPE
  2
PHANTOM2
 70
     0
  3
___ _ _ ___ _ _ ___ _ _ ___ _ _
 72
    65
 73
     6
 40
1.25
 49
0.625
 49
-0.125
 49
0.125
 49
-0.125
 49
0.125
 49
-0.125
  0
ENDTAB
  0
TABLE
  2
LAYER
 70
     5
  0
LAYER
  2
0
 70
     0
 62
     7
  6
CONTINUOUS
  0
LAYER
  2
1
 70
     0
 62
     1
  6
CENTER
  0
LAYER
  2
3
 70
     0
 62
     3
  6
CONTINUOUS
  0
LAYER
  2
2
 70
     0
 62
     2
  6
HIDDEN
  0
LAYER
  2
DEFPOINTS
 70
     0
 62
     7
  6
CONTINUOUS
  0
ENDTAB
  0
TABLE
  2
STYLE
 70
     2
  0
STYLE
  2
STANDARD
 70
     0
 40
0.0
 41
1.0
 50
0.0
 71
     0
 42
4.0
  3
TXT
  4
BIGFONT
  0
STYLE
  2
STANDARD1
 70
     0
 40
0.0
 41
1.0
 50
0.0
 71
     0
 42
3.0
  3
txt
  4

  0
ENDTAB
  0
TABLE
  2
VIEW
 70
     1
  0
VIEW
  2
ALL
 70
     0
 40
179.66152299999999
 10
141.903918
 20
89.830760999999995
 41
0.0
 11
0.0
 21
0.0
 31
1.0
 12
0.0
 22
0.0
 32
0.0
 42
0.0
 43
0.0
 44
0.0
 50
0.0
 71
     0
  0
ENDTAB
  0
TABLE
  2
UCS
 70
     0
  0
ENDTAB
  0
TABLE
  2
APPID
 70
     8
  0
APPID
  2
ACAD
 70
     0
  0
APPID
  2
DCO15
 70
     0
  0
APPID
  2
ACAD_MLEADERVER
 70
     0
  0
APPID
  2
ACAD_NAV_VCDISPLAY
 70
     0
  0
APPID
  2
ACAD_EXEMPT_FROM_CAD_STANDARDS
 70
     0
  0
APPID
  2
ACAD_DSTYLE_DIMRADIAL_EXTENSION
 70
     0
  0
APPID
  2
ACAD_DSTYLE_DIMJAG
 70
     0
  0
APPID
  2
ACAD_DSTYLE_DIMTALN
 70
     0
  0
ENDTAB
  0
TABLE
  2
DIMSTYLE
 70
     1
  0
DIMSTYLE
  2
STANDARD
 70
     0
  3

  4

  5

  6

  7

 40
1.0
 41
0.18
 42
0.0625
 43
0.38
 44
0.18
 45
0.0
 46
0.0
 47
0.0
 48
0.0
140
0.18
141
0.09
142
0.0
143
25.399999999999999
144
1.0
145
0.0
146
1.0
147
0.09
 71
     0
 72
     0
 73
     1
 74
     1
 75
     0
 76
     0
 77
     0
 78
     0
170
     0
171
     2
172
     0
173
     0
174
     0
175
     0
176
     0
177
     0
178
     0
  0
ENDTAB
  0
ENDSEC
  0
SECTION
  2
BLOCKS
  0
BLOCK
  8
0
  2
$MODEL_SPACE
 70
     0
 10
0.0
 20
0.0
 30
0.0
  3
$MODEL_SPACE
  1

  0
ENDBLK
  5
1BD
  8
0
  0
BLOCK
 67
     1
  8
0
  2
$PAPER_SPACE
 70
     0
 10
0.0
 20
0.0
 30
0.0
  3
$PAPER_SPACE
  1

  0
ENDBLK
  5
1BB
 67
     1
  8
0
  0
ENDSEC
  0
SECTION
  2
ENTITIES
  0
TEXT
  5
14AC
  8
0
 62
     3
 10
0.0
 20
0.0
 30
0.0
 40
5.0
  1
HSSP10X17.9
  7
STANDARD1
  0
LINE
  5
28BA
  8
2
 10
61.0
 20
32.886751345948127
 30
0.0
 11
55.0
 21
32.886751345948127
 31
0.0
  0
LINE
  5
28BB
  8
2
 10
61.0
 20
27.113248654051869
 30
0.0
 11
55.0
 21
27.113248654051869
 31
0.0
  0
LINE
  5
28BC
  8
2
 10
61.0
 20
28.556624327025929
 30
0.0
 11
55.0
 21
28.556624327025929
 31
0.0
  0
LINE
  5
28BD
  8
2
 10
61.0
 20
31.44337567297406
 30
0.0
 11
55.0
 21
31.44337567297406
 31
0.0
  0
LINE
  5
28BE
  8
2
 10
61.0
 20
32.886751345948127
 30
0.0
 11
61.0
 21
27.113248654051869
 31
0.0
  0
LINE
  5
28BF
  8
0
 10
70.400000000000006
 20
26.75
 30
0.0
 11
72.389999999999986
 21
26.75
 31
0.0
  0
LINE
  5
28C0
  8
0
 10
72.389999999999986
 20
33.25
 30
0.0
 11
70.400000000000006
 21
33.25
 31
0.0
  0
LINE
  5
28C1
  8
0
 10
72.889999999999986
 20
32.75
 30
0.0
 11
72.389999999999986
 21
33.25
 31
0.0
  0
LINE
  5
28C2
  8
0
 10
72.389999999999986
 20
26.75
 30
0.0
 11
72.889999999999986
 21
27.25
 31
0.0
  0
LINE
  5
28C3
  8
0
 10
72.889999999999986
 20
32.75
 30
0.0
 11
72.889999999999986
 21
27.25
 31
0.0
  0
LINE
  5
28C4
  8
0
 10
72.389999999999986
 20
33.25
 30
0.0
 11
72.389999999999986
 21
26.75
 31
0.0
  0
LINE
  5
28CA
  8
0
 10
69.400000000000006
 20
25.949999999999999
 30
0.0
 11
70.400000000000006
 21
25.949999999999999
 31
0.0
  0
LINE
  5
28CB
  8
0
 10
70.400000000000006
 20
34.049999999999997
 30
0.0
 11
69.400000000000006
 21
34.049999999999997
 31
0.0
  0
LINE
  5
28CC
  8
0
 10
70.400000000000006
 20
34.049999999999997
 30
0.0
 11
70.400000000000006
 21
25.949999999999999
 31
0.0
  0
LINE
  5
28CD
  8
0
 10
69.400000000000006
 20
34.049999999999997
 30
0.0
 11
68.449999999999974
 21
35.0
 31
0.0
  0
LINE
  5
28CE
  8
0
 10
68.449999999999974
 20
25.0
 30
0.0
 11
69.400000000000006
 21
25.949999999999999
 31
0.0
  0
LINE
  5
28CF
  8
0
 10
69.400000000000006
 20
34.049999999999997
 30
0.0
 11
69.400000000000006
 21
25.949999999999999
 31
0.0
  0
LINE
  5
28D0
  8
0
 10
55.0
 20
26.199999999999999
 30
0.0
 11
56.199999999999989
 21
25.0
 31
0.0
  0
LINE
  5
28D1
  8
0
 10
56.199999999999989
 20
35.0
 30
0.0
 11
55.0
 21
33.799999999999997
 31
0.0
  0
LINE
  5
28D2
  8
0
 10
55.0
 20
33.799999999999997
 30
0.0
 11
55.0
 21
26.199999999999999
 31
0.0
  0
LINE
  5
28D3
  8
0
 10
56.199999999999989
 20
25.0
 30
0.0
 11
68.449999999999974
 21
25.0
 31
0.0
  0
LINE
  5
28D4
  8
0
 10
68.449999999999974
 20
35.0
 30
0.0
 11
56.199999999999989
 21
35.0
 31
0.0
  0
LINE
  5
28D5
  8
0
 10
68.449999999999974
 20
35.0
 30
0.0
 11
68.449999999999974
 21
25.0
 31
0.0
  0
LINE
  5
28D6
  8
0
 10
56.199999999999989
 20
35.0
 30
0.0
 11
56.199999999999989
 21
25.0
 31
0.0
  0
LINE
  5
28D7
  8
3
 10
55.280000000000001
 20
34.079999999999998
 30
0.0
 11
69.370000000000005
 21
34.079999999999998
 31
0.0
  0
LINE
  5
28D9
  8
3
 10
55.280000000000001
 20
25.920000000000002
 30
0.0
 11
69.370000000000005
 21
25.920000000000002
 31
0.0
  0
LINE
  5
28F8
  8
2
 10
61.0
 20
62.5
 30
0.0
 11
55.0
 21
62.5
 31
0.0
  0
LINE
  5
28F9
  8
2
 10
61.0
 20
57.5
 30
0.0
 11
55.0
 21
57.5
 31
0.0
  0
LINE
  5
28FA
  8
2
 10
61.0
 20
62.5
 30
0.0
 11
61.0
 21
57.5
 31
0.0
  0
LINE
  5
28FB
  8
2
 10
61.0
 20
60.0
 30
0.0
 11
55.0
 21
60.0
 31
0.0
  0
LINE
  5
28FC
  8
0
 10
70.400000000000006
 20
56.75
 30
0.0
 11
72.389999999999986
 21
56.75
 31
0.0
  0
LINE
  5
28FD
  8
0
 10
72.389999999999986
 20
63.25
 30
0.0
 11
70.400000000000006
 21
63.25
 31
0.0
  0
LINE
  5
28FE
  8
0
 10
72.889999999999986
 20
62.75
 30
0.0
 11
72.889999999999986
 21
57.25
 31
0.0
  0
LINE
  5
28FF
  8
0
 10
72.389999999999986
 20
63.25
 30
0.0
 11
72.389999999999986
 21
56.75
 31
0.0
  0
LINE
  5
2900
  8
0
 10
72.889999999999986
 20
62.75
 30
0.0
 11
72.389999999999986
 21
63.25
 31
0.0
  0
LINE
  5
2901
  8
0
 10
72.389999999999986
 20
56.75
 30
0.0
 11
72.889999999999986
 21
57.25
 31
0.0
  0
LINE
  5
2907
  8
0
 10
70.400000000000006
 20
64.049999999999997
 30
0.0
 11
70.400000000000006
 21
55.950000000000003
 31
0.0
  0
LINE
  5
2908
  8
0
 10
69.400000000000006
 20
55.950000000000003
 30
0.0
 11
70.400000000000006
 21
55.950000000000003
 31
0.0
  0
LINE
  5
2909
  8
0
 10
70.400000000000006
 20
64.049999999999997
 30
0.0
 11
69.400000000000006
 21
64.049999999999997
 31
0.0
  0
LINE
  5
290A
  8
0
 10
69.400000000000006
 20
64.049999999999997
 30
0.0
 11
69.400000000000006
 21
55.950000000000003
 31
0.0
  0
LINE
  5
290B
  8
0
 10
69.400000000000006
 20
64.049999999999997
 30
0.0
 11
68.449999999999974
 21
65.0
 31
0.0
  0
LINE
  5
290C
  8
0
 10
68.449999999999974
 20
55.0
 30
0.0
 11
69.400000000000006
 21
55.950000000000003
 31
0.0
  0
LINE
  5
290D
  8
0
 10
55.0
 20
63.79999999999999
 30
0.0
 11
55.0
 21
56.200000000000003
 31
0.0
  0
LINE
  5
290E
  8
0
 10
55.0
 20
56.200000000000003
 30
0.0
 11
56.199999999999989
 21
55.0
 31
0.0
  0
LINE
  5
290F
  8
0
 10
56.199999999999989
 20
65.0
 30
0.0
 11
55.0
 21
63.79999999999999
 31
0.0
  0
LINE
  5
2910
  8
0
 10
68.449999999999974
 20
65.0
 30
0.0
 11
68.449999999999974
 21
55.0
 31
0.0
  0
LINE
  5
2911
  8
0
 10
56.199999999999989
 20
65.0
 30
0.0
 11
56.199999999999989
 21
55.0
 31
0.0
  0
LINE
  5
2912
  8
0
 10
56.199999999999989
 20
55.0
 30
0.0
 11
68.449999999999974
 21
55.0
 31
0.0
  0
LINE
  5
2913
  8
0
 10
68.449999999999974
 20
65.0
 30
0.0
 11
56.199999999999989
 21
65.0
 31
0.0
  0
LINE
  5
2914
  8
3
 10
55.280000000000001
 20
55.920000000000002
 30
0.0
 11
69.370000000000005
 21
55.920000000000002
 31
0.0
  0
LINE
  5
2916
  8
3
 10
55.280000000000001
 20
64.079999999999998
 30
0.0
 11
69.369999999999976
 21
64.079999999999998
 31
0.0
  0
CIRCLE
  5
2920
  8
0
 10
97.889999999999958
 20
30.0
 30
0.0
 40
5.0
  0
CIRCLE
  5
2922
  8
0
 10
97.889999999999958
 20
30.0
 30
0.0
 40
4.0499999999999989
  0
CIRCLE
  5
2923
  8
0
 10
97.889999999999958
 20
30.0
 30
0.0
 40
3.25
  0
LINE
  5
297B
  8
0
 10
32.5
 20
28.556624327025929
 30
0.0
 11
32.5
 21
31.44337567297406
 31
0.0
  0
LINE
  5
297C
  8
0
 10
32.5
 20
31.44337567297406
 30
0.0
 11
30.0
 21
32.886751345948127
 31
0.0
  0
LINE
  5
297D
  8
0
 10
27.5
 20
31.44337567297406
 30
0.0
 11
27.5
 21
28.556624327025929
 31
0.0
  0
LINE
  5
297E
  8
0
 10
30.0
 20
27.113248654051869
 30
0.0
 11
32.5
 21
28.556624327025929
 31
0.0
  0
CIRCLE
  5
297F
  8
0
 10
30.0
 20
30.0
 30
0.0
 40
5.0
  0
LINE
  5
2983
  8
0
 10
27.5
 20
28.556624327025929
 30
0.0
 11
30.0
 21
27.113248654051869
 31
0.0
  0
LINE
  5
2984
  8
0
 10
30.0
 20
32.886751345948127
 30
0.0
 11
27.5
 21
31.44337567297406
 31
0.0
  0
LINE
  5
298B
  8
2
 10
62.443375672974042
 20
59.999999999999972
 30
0.0
 11
61.0
 21
57.5
 31
0.0
  0
LINE
  5
298C
  8
2
 10
61.0
 20
62.5
 30
0.0
 11
62.443375672974042
 21
59.999999999999972
 31
0.0
  0
LINE
  5
298D
  8
1
 10
74.389999999999986
 20
60.0
 30
0.0
 11
53.5
 21
60.0
 31
0.0
  0
LINE
  5
2996
  8
2
 10
62.443375672974042
 20
29.999999999999972
 30
0.0
 11
61.0
 21
27.5
 31
0.0
  0
LINE
  5
2997
  8
2
 10
61.0
 20
32.5
 30
0.0
 11
62.443375672974042
 21
29.999999999999972
 31
0.0
  0
LINE
  5
2998
  8
1
 10
74.389999999999986
 20
30.0
 30
0.0
 11
53.5
 21
30.0
 31
0.0
  0
CIRCLE
  5
29A4
  8
3
 10
30.0
 20
30.0
 30
0.0
 40
4.0799999999999983
  0
LINE
  5
29A5
  8
1
 10
30.0
 20
23.5
 30
0.0
 11
30.0
 21
36.5
 31
0.0
  0
LINE
  5
29A6
  8
1
 10
36.5
 20
30.0
 30
0.0
 11
23.5
 21
30.0
 31
0.0
  0
CIRCLE
  5
29AC
  8
3
 10
97.889999999999958
 20
30.0
 30
0.0
 40
4.0799999999999983
  0
LINE
  5
29AD
  8
1
 10
104.3899999999999
 20
30.0
 30
0.0
 11
91.389999999999944
 21
30.0
 31
0.0
  0
LINE
  5
29AE
  8
1
 10
97.889999999999958
 20
36.5
 30
0.0
 11
97.889999999999958
 21
23.5
 31
0.0
  0
ENDSEC
  0
EOF
