  0
SECTION
  2
HEADER
  9
$ACADVER
  1
AC1009
  9
$INSBASE
 10
0.0
 20
0.0
 30
0.0
  9
$EXTMIN
 10
0.0
 20
-1.4802182810368341
 30
0.0
  9
$EXTMAX
 10
147.09
 20
88.0
 30
0.0
  9
$LIMMIN
 10
0.0
 20
0.0
  9
$LIMMAX
 10
187.5
 20
135.0
  9
$ORTHOMODE
 70
     1
  9
$REGENMODE
 70
     1
  9
$FILLMODE
 70
     1
  9
$QTEXTMODE
 70
     0
  9
$MIRRTEXT
 70
     0
  9
$DRAGMODE
 70
     2
  9
$LTSCALE
 40
3.0
  9
$OSMODE
 70
    37
  9
$ATTMODE
 70
     1
  9
$TEXTSIZE
 40
4.0
  9
$TRACEWID
 40
0.05
  9
$TEXTSTYLE
  7
STANDARD
  9
$CLAYER
  8
0
  9
$CELTYPE
  6
BYLAYER
  9
$CECOLOR
 62
   256
  9
$DIMSCALE
 40
0.5
  9
$DIMASZ
 40
3.0
  9
$DIMEXO
 40
2.0
  9
$DIMDLI
 40
0.38
  9
$DIMRND
 40
0.0
  9
$DIMDLE
 40
0.0
  9
$DIMEXE
 40
2.0
  9
$DIMTP
 40
0.0
  9
$DIMTM
 40
0.0
  9
$DIMTXT
 40
3.0
  9
$DIMCEN
 40
0.0
  9
$DIMTSZ
 40
0.0
  9
$DIMTOL
 70
     0
  9
$DIMLIM
 70
     0
  9
$DIMTIH
 70
     0
  9
$DIMTOH
 70
     0
  9
$DIMSE1
 70
     0
  9
$DIMSE2
 70
     0
  9
$DIMTAD
 70
     1
  9
$DIMZIN
 70
     8
  9
$DIMBLK
  1

  9
$DIMASO
 70
     0
  9
$DIMSHO
 70
     0
  9
$DIMPOST
  1

  9
$DIMAPOST
  1

  9
$DIMALT
 70
     0
  9
$DIMALTD
 70
     2
  9
$DIMALTF
 40
25.399999999999999
  9
$DIMLFAC
 40
1.0
  9
$DIMTOFL
 70
     1
  9
$DIMTVP
 40
1.6000000000000001
  9
$DIMTIX
 70
     1
  9
$DIMSOXD
 70
     0
  9
$DIMSAH
 70
     0
  9
$DIMBLK1
  1

  9
$DIMBLK2
  1

  9
$DIMSTYLE
  2
STANDARD
  9
$DIMCLRD
 70
   256
  9
$DIMCLRE
 70
   256
  9
$DIMCLRT
 70
   256
  9
$DIMTFAC
 40
1.0
  9
$DIMGAP
 40
1.0
  9
$LUNITS
 70
     2
  9
$LUPREC
 70
     1
  9
$SKETCHINC
 40
0.1
  9
$FILLETRAD
 40
1.0
  9
$AUNITS
 70
     0
  9
$AUPREC
 70
     0
  9
$MENU
  1
E:\r13\win\SUPPORT\ACAD
  9
$ELEVATION
 40
0.0
  9
$PELEVATION
 40
0.0
  9
$THICKNESS
 40
0.0
  9
$LIMCHECK
 70
     0
  9
$BLIPMODE
 70
     0
  9
$CHAMFERA
 40
0.0
  9
$CHAMFERB
 40
0.0
  9
$SKPOLY
 70
     0
  9
$TDCREATE
 40
2449840.6143865739
  9
$TDUPDATE
 40
2459270.3853162499
  9
$TDINDWG
 40
0.7820608449000001
  9
$TDUSRTIMER
 40
0.7820608449000001
  9
$USRTIMER
 70
     1
  9
$ANGBASE
 50
0.0
  9
$ANGDIR
 70
     0
  9
$PDMODE
 70
     0
  9
$PDSIZE
 40
0.0
  9
$PLINEWID
 40
0.0
  9
$COORDS
 70
     1
  9
$SPLFRAME
 70
     0
  9
$SPLINETYPE
 70
     6
  9
$SPLINESEGS
 70
     8
  9
$ATTDIA
 70
     0
  9
$ATTREQ
 70
     1
  9
$HANDLING
 70
     1
  9
$HANDSEED
  5
2BD3
  9
$SURFTAB1
 70
     6
  9
$SURFTAB2
 70
     6
  9
$SURFTYPE
 70
     6
  9
$SURFU
 70
     6
  9
$SURFV
 70
     6
  9
$UCSNAME
  2

  9
$UCSORG
 10
0.0
 20
0.0
 30
0.0
  9
$UCSXDIR
 10
1.0
 20
0.0
 30
0.0
  9
$UCSYDIR
 10
0.0
 20
1.0
 30
0.0
  9
$PUCSNAME
  2

  9
$PUCSORG
 10
0.0
 20
0.0
 30
0.0
  9
$PUCSXDIR
 10
1.0
 20
0.0
 30
0.0
  9
$PUCSYDIR
 10
0.0
 20
1.0
 30
0.0
  9
$USERI1
 70
     0
  9
$USERI2
 70
     1
  9
$USERI3
 70
     1
  9
$USERI4
 70
     0
  9
$USERI5
 70
     0
  9
$USERR1
 40
0.0
  9
$USERR2
 40
0.0
  9
$USERR3
 40
0.0
  9
$USERR4
 40
0.0
  9
$USERR5
 40
0.0
  9
$WORLDVIEW
 70
     1
  9
$SHADEDGE
 70
     3
  9
$SHADEDIF
 70
    70
  9
$TILEMODE
 70
     1
  9
$MAXACTVP
 70
    16
  9
$PLIMCHECK
 70
     0
  9
$PEXTMIN
 10
1.0000000000000000E+020
 20
1.0000000000000000E+020
 30
1.0000000000000000E+020
  9
$PEXTMAX
 10
-1.0000000000000000E+020
 20
-1.0000000000000000E+020
 30
-1.0000000000000000E+020
  9
$PLIMMIN
 10
0.0
 20
0.0
  9
$PLIMMAX
 10
12.0
 20
9.0
  9
$UNITMODE
 70
     0
  9
$VISRETAIN
 70
     0
  9
$PLINEGEN
 70
     0
  9
$PSLTSCALE
 70
     0
  0
ENDSEC
  0
SECTION
  2
TABLES
  0
TABLE
  2
VPORT
 70
     1
  0
VPORT
  2
*ACTIVE
 70
     0
 10
0.0
 20
0.0
 11
1.0
 21
1.0
 12
195.14681892332791
 22
75.0
 13
0.0
 23
0.0
 14
5.0
 24
5.0
 15
5.0
 25
5.0
 16
0.0
 26
0.0
 36
1.0
 17
0.0
 27
0.0
 37
0.0
 40
150.0
 41
2.6019575856443709
 42
50.0
 43
0.0
 44
0.0
 50
0.0
 51
0.0
 71
     0
 72
   100
 73
     1
 74
     0
 75
     0
 76
     0
 77
     0
 78
     0
  0
ENDTAB
  0
TABLE
  2
LTYPE
 70
     4
  0
LTYPE
  2
CONTINUOUS
 70
     0
  3
Solid Line
 72
    65
 73
     0
 40
0.0
  0
LTYPE
  2
CENTER
 70
     0
  3
____ _ ____ _ ____ _ ____ _ ____ _ ____ _ ____
 72
    65
 73
     4
 40
2.0
 49
1.25
 49
-0.25
 49
0.25
 49
-0.25
  0
LTYPE
  2
HIDDEN
 70
     0
  3
_ _ _ _ _ _ _ _ _ _ _ _ _ _ _ _ _ _ _ _ _ _ _
 72
    65
 73
     2
 40
0.375
 49
0.25
 49
-0.125
  0
LTYPE
  2
PHANTOM2
 70
     0
  3
___ _ _ ___ _ _ ___ _ _ ___ _ _
 72
    65
 73
     6
 40
1.25
 49
0.625
 49
-0.125
 49
0.125
 49
-0.125
 49
0.125
 49
-0.125
  0
ENDTAB
  0
TABLE
  2
LAYER
 70
     5
  0
LAYER
  2
0
 70
     0
 62
     7
  6
CONTINUOUS
  0
LAYER
  2
1
 70
     0
 62
     1
  6
CENTER
  0
LAYER
  2
3
 70
     0
 62
     3
  6
CONTINUOUS
  0
LAYER
  2
2
 70
     0
 62
     2
  6
HIDDEN
  0
LAYER
  2
DEFPOINTS
 70
     0
 62
     7
  6
CONTINUOUS
  0
ENDTAB
  0
TABLE
  2
STYLE
 70
     2
  0
STYLE
  2
STANDARD
 70
     0
 40
0.0
 41
1.0
 50
0.0
 71
     0
 42
4.0
  3
TXT
  4
BIGFONT
  0
STYLE
  2
STANDARD1
 70
     0
 40
0.0
 41
1.0
 50
0.0
 71
     0
 42
3.0
  3
txt
  4

  0
ENDTAB
  0
TABLE
  2
VIEW
 70
     1
  0
VIEW
  2
ALL
 70
     0
 40
179.66152299999999
 10
141.903918
 20
89.830760999999995
 41
0.0
 11
0.0
 21
0.0
 31
1.0
 12
0.0
 22
0.0
 32
0.0
 42
0.0
 43
0.0
 44
0.0
 50
0.0
 71
     0
  0
ENDTAB
  0
TABLE
  2
UCS
 70
     0
  0
ENDTAB
  0
TABLE
  2
APPID
 70
     8
  0
APPID
  2
ACAD
 70
     0
  0
APPID
  2
DCO15
 70
     0
  0
APPID
  2
ACAD_MLEADERVER
 70
     0
  0
APPID
  2
ACAD_NAV_VCDISPLAY
 70
     0
  0
APPID
  2
ACAD_EXEMPT_FROM_CAD_STANDARDS
 70
     0
  0
APPID
  2
ACAD_DSTYLE_DIMRADIAL_EXTENSION
 70
     0
  0
APPID
  2
ACAD_DSTYLE_DIMJAG
 70
     0
  0
APPID
  2
ACAD_DSTYLE_DIMTALN
 70
     0
  0
ENDTAB
  0
TABLE
  2
DIMSTYLE
 70
     1
  0
DIMSTYLE
  2
STANDARD
 70
     0
  3

  4

  5

  6

  7

 40
1.0
 41
0.18
 42
0.0625
 43
0.38
 44
0.18
 45
0.0
 46
0.0
 47
0.0
 48
0.0
140
0.18
141
0.09
142
0.0
143
25.399999999999999
144
1.0
145
0.0
146
1.0
147
0.09
 71
     0
 72
     0
 73
     1
 74
     1
 75
     0
 76
     0
 77
     0
 78
     0
170
     0
171
     2
172
     0
173
     0
174
     0
175
     0
176
     0
177
     0
178
     0
  0
ENDTAB
  0
ENDSEC
  0
SECTION
  2
BLOCKS
  0
BLOCK
  8
0
  2
$MODEL_SPACE
 70
     0
 10
0.0
 20
0.0
 30
0.0
  3
$MODEL_SPACE
  1

  0
ENDBLK
  5
1BD
  8
0
  0
BLOCK
 67
     1
  8
0
  2
$PAPER_SPACE
 70
     0
 10
0.0
 20
0.0
 30
0.0
  3
$PAPER_SPACE
  1

  0
ENDBLK
  5
1BB
 67
     1
  8
0
  0
ENDSEC
  0
SECTION
  2
ENTITIES
  0
TEXT
  5
14AC
  8
0
 62
     3
 10
0.0
 20
0.0
 30
0.0
 40
5.0
  1
HSSP12X27.1
  7
STANDARD1
  0
LINE
  5
2A17
  8
2
 10
84.0
 20
43.464101615137757
 30
0.0
 11
76.0
 21
43.464101615137757
 31
0.0
  0
LINE
  5
2A18
  8
2
 10
84.0
 20
36.53589838486225
 30
0.0
 11
76.0
 21
36.53589838486225
 31
0.0
  0
LINE
  5
2A19
  8
2
 10
84.0
 20
38.267949192431132
 30
0.0
 11
76.0
 21
38.267949192431132
 31
0.0
  0
LINE
  5
2A1A
  8
2
 10
84.0
 20
41.732050807568868
 30
0.0
 11
76.0
 21
41.732050807568868
 31
0.0
  0
LINE
  5
2A1B
  8
2
 10
84.0
 20
43.464101615137757
 30
0.0
 11
84.0
 21
36.53589838486225
 31
0.0
  0
LINE
  5
2A1C
  8
0
 10
100.2
 20
36.0
 30
0.0
 11
102.59
 21
36.0
 31
0.0
  0
LINE
  5
2A1D
  8
0
 10
102.59
 20
44.0
 30
0.0
 11
100.2
 21
44.0
 31
0.0
  0
LINE
  5
2A1E
  8
0
 10
103.0899999999999
 20
43.5
 30
0.0
 11
102.59
 21
44.0
 31
0.0
  0
LINE
  5
2A1F
  8
0
 10
102.59
 20
36.0
 30
0.0
 11
103.0899999999999
 21
36.5
 31
0.0
  0
LINE
  5
2A20
  8
0
 10
103.0899999999999
 20
43.5
 30
0.0
 11
103.0899999999999
 21
36.5
 31
0.0
  0
LINE
  5
2A21
  8
0
 10
102.59
 20
44.0
 30
0.0
 11
102.59
 21
36.0
 31
0.0
  0
LINE
  5
2A27
  8
0
 10
99.199999999999989
 20
35.200000000000003
 30
0.0
 11
100.2
 21
35.200000000000003
 31
0.0
  0
LINE
  5
2A28
  8
0
 10
100.2
 20
44.79999999999999
 30
0.0
 11
99.199999999999989
 21
44.79999999999999
 31
0.0
  0
LINE
  5
2A29
  8
0
 10
100.2
 20
44.79999999999999
 30
0.0
 11
100.2
 21
35.200000000000003
 31
0.0
  0
LINE
  5
2A2A
  8
0
 10
99.199999999999989
 20
44.79999999999999
 30
0.0
 11
98.0
 21
46.0
 31
0.0
  0
LINE
  5
2A2B
  8
0
 10
98.0
 20
34.0
 30
0.0
 11
99.199999999999989
 21
35.200000000000003
 31
0.0
  0
LINE
  5
2A2C
  8
0
 10
99.199999999999989
 20
44.79999999999999
 30
0.0
 11
99.199999999999989
 21
35.200000000000003
 31
0.0
  0
LINE
  5
2A2D
  8
0
 10
76.0
 20
35.5
 30
0.0
 11
77.5
 21
34.0
 31
0.0
  0
LINE
  5
2A2E
  8
0
 10
77.5
 20
46.0
 30
0.0
 11
76.0
 21
44.5
 31
0.0
  0
LINE
  5
2A2F
  8
0
 10
76.0
 20
44.5
 30
0.0
 11
76.0
 21
35.5
 31
0.0
  0
LINE
  5
2A30
  8
0
 10
77.5
 20
34.0
 30
0.0
 11
98.0
 21
34.0
 31
0.0
  0
LINE
  5
2A31
  8
0
 10
98.0
 20
46.0
 30
0.0
 11
77.5
 21
46.0
 31
0.0
  0
LINE
  5
2A32
  8
0
 10
98.0
 20
46.0
 30
0.0
 11
98.0
 21
34.0
 31
0.0
  0
LINE
  5
2A33
  8
0
 10
77.5
 20
46.0
 30
0.0
 11
77.5
 21
34.0
 31
0.0
  0
LINE
  5
2A34
  8
3
 10
76.426499999999976
 20
44.926499999999997
 30
0.0
 11
99.073499999999967
 21
44.926499999999997
 31
0.0
  0
LINE
  5
2A36
  8
3
 10
76.426499999999976
 20
35.073500000000003
 30
0.0
 11
99.073499999999967
 21
35.073500000000003
 31
0.0
  0
LINE
  5
2A5E
  8
2
 10
84.0
 20
85.0
 30
0.0
 11
76.0
 21
85.0
 31
0.0
  0
LINE
  5
2A5F
  8
2
 10
84.0
 20
79.0
 30
0.0
 11
76.0
 21
79.0
 31
0.0
  0
LINE
  5
2A60
  8
2
 10
84.0
 20
82.0
 30
0.0
 11
76.0
 21
82.0
 31
0.0
  0
LINE
  5
2A61
  8
2
 10
84.0
 20
85.0
 30
0.0
 11
84.0
 21
79.0
 31
0.0
  0
LINE
  5
2A62
  8
0
 10
100.2
 20
78.0
 30
0.0
 11
102.59
 21
78.0
 31
0.0
  0
LINE
  5
2A63
  8
0
 10
102.59
 20
86.0
 30
0.0
 11
100.2
 21
86.0
 31
0.0
  0
LINE
  5
2A64
  8
0
 10
103.0899999999999
 20
85.5
 30
0.0
 11
103.0899999999999
 21
78.5
 31
0.0
  0
LINE
  5
2A65
  8
0
 10
102.59
 20
86.0
 30
0.0
 11
102.59
 21
78.0
 31
0.0
  0
LINE
  5
2A66
  8
0
 10
103.0899999999999
 20
85.5
 30
0.0
 11
102.59
 21
86.0
 31
0.0
  0
LINE
  5
2A67
  8
0
 10
102.59
 20
78.0
 30
0.0
 11
103.0899999999999
 21
78.5
 31
0.0
  0
LINE
  5
2A6D
  8
0
 10
100.2
 20
86.799999999999983
 30
0.0
 11
100.2
 21
77.200000000000003
 31
0.0
  0
LINE
  5
2A6E
  8
0
 10
99.199999999999989
 20
77.200000000000003
 30
0.0
 11
100.2
 21
77.200000000000003
 31
0.0
  0
LINE
  5
2A6F
  8
0
 10
100.2
 20
86.799999999999983
 30
0.0
 11
99.199999999999989
 21
86.799999999999983
 31
0.0
  0
LINE
  5
2A70
  8
0
 10
99.199999999999989
 20
86.799999999999983
 30
0.0
 11
99.199999999999989
 21
77.200000000000003
 31
0.0
  0
LINE
  5
2A71
  8
0
 10
99.199999999999989
 20
86.799999999999983
 30
0.0
 11
98.0
 21
88.0
 31
0.0
  0
LINE
  5
2A72
  8
0
 10
98.0
 20
76.0
 30
0.0
 11
99.199999999999989
 21
77.200000000000003
 31
0.0
  0
LINE
  5
2A73
  8
0
 10
76.0
 20
86.5
 30
0.0
 11
76.0
 21
77.5
 31
0.0
  0
LINE
  5
2A74
  8
0
 10
76.0
 20
77.5
 30
0.0
 11
77.5
 21
76.0
 31
0.0
  0
LINE
  5
2A75
  8
0
 10
77.5
 20
88.0
 30
0.0
 11
76.0
 21
86.5
 31
0.0
  0
LINE
  5
2A76
  8
0
 10
98.0
 20
88.0
 30
0.0
 11
98.0
 21
76.0
 31
0.0
  0
LINE
  5
2A77
  8
0
 10
77.5
 20
88.0
 30
0.0
 11
77.5
 21
76.0
 31
0.0
  0
LINE
  5
2A78
  8
0
 10
77.5
 20
76.0
 30
0.0
 11
98.0
 21
76.0
 31
0.0
  0
LINE
  5
2A79
  8
0
 10
98.0
 20
88.0
 30
0.0
 11
77.5
 21
88.0
 31
0.0
  0
LINE
  5
2A7A
  8
3
 10
76.426499999999976
 20
77.073499999999996
 30
0.0
 11
99.073499999999967
 21
77.073499999999996
 31
0.0
  0
LINE
  5
2A7C
  8
3
 10
76.426499999999976
 20
86.926500000000004
 30
0.0
 11
99.073500000000024
 21
86.926500000000004
 31
0.0
  0
CIRCLE
  5
2A86
  8
0
 10
139.09
 20
40.0
 30
0.0
 40
6.0
  0
CIRCLE
  5
2A88
  8
0
 10
139.09
 20
40.0
 30
0.0
 40
4.7999999999999989
  0
CIRCLE
  5
2A89
  8
0
 10
139.09
 20
40.0
 30
0.0
 40
4.0
  0
LINE
  5
2AD2
  8
0
 10
43.0
 20
38.267949192431132
 30
0.0
 11
43.0
 21
41.732050807568868
 31
0.0
  0
LINE
  5
2AD3
  8
0
 10
43.0
 20
41.732050807568868
 30
0.0
 11
40.0
 21
43.46410161513775
 31
0.0
  0
LINE
  5
2AD4
  8
0
 10
37.0
 20
41.732050807568868
 30
0.0
 11
37.0
 21
38.267949192431132
 31
0.0
  0
LINE
  5
2AD5
  8
0
 10
37.0
 20
38.267949192431132
 30
0.0
 11
40.0
 21
36.53589838486225
 31
0.0
  0
LINE
  5
2AD6
  8
0
 10
40.0
 20
43.46410161513775
 30
0.0
 11
37.0
 21
41.732050807568868
 31
0.0
  0
LINE
  5
2AD7
  8
0
 10
40.0
 20
36.53589838486225
 30
0.0
 11
43.0
 21
38.267949192431132
 31
0.0
  0
CIRCLE
  5
2AD8
  8
0
 10
40.0
 20
40.0
 30
0.0
 40
6.0
  0
LINE
  5
2AE4
  8
2
 10
85.732050807568896
 20
82.000000000000057
 30
0.0
 11
84.0
 21
79.0
 31
0.0
  0
LINE
  5
2AE5
  8
2
 10
84.0
 20
85.0
 30
0.0
 11
85.732050807568825
 21
82.000000000000014
 31
0.0
  0
LINE
  5
2AE6
  8
1
 10
74.0
 20
82.0
 30
0.0
 11
105.0899999999999
 21
82.0
 31
0.0
  0
LINE
  5
2B0C
  8
2
 10
85.732050807568896
 20
40.000000000000057
 30
0.0
 11
84.0
 21
37.0
 31
0.0
  0
LINE
  5
2B0D
  8
2
 10
84.0
 20
43.0
 30
0.0
 11
85.732050807568825
 21
40.000000000000007
 31
0.0
  0
LINE
  5
2B0E
  8
1
 10
105.0899999999999
 20
40.0
 30
0.0
 11
74.0
 21
40.0
 31
0.0
  0
CIRCLE
  5
2B13
  8
3
 10
40.0
 20
40.0
 30
0.0
 40
4.9265000000000043
  0
LINE
  5
2B14
  8
1
 10
40.0
 20
48.0
 30
0.0
 11
40.0
 21
32.0
 31
0.0
  0
LINE
  5
2B15
  8
1
 10
48.0
 20
40.0
 30
0.0
 11
32.0
 21
40.0
 31
0.0
  0
CIRCLE
  5
2B1B
  8
3
 10
139.09
 20
40.0
 30
0.0
 40
4.9265000000000043
  0
LINE
  5
2B1C
  8
1
 10
139.09
 20
48.0
 30
0.0
 11
139.09
 21
32.0
 31
0.0
  0
LINE
  5
2B1D
  8
1
 10
147.09
 20
40.0
 30
0.0
 11
131.08999999999989
 21
40.0
 31
0.0
  0
ENDSEC
  0
EOF
