  0
SECTION
  2
HEADER
  9
$ACADVER
  1
AC1009
  9
$INSBASE
 10
0.0
 20
0.0
 30
0.0
  9
$EXTMIN
 10
0.0
 20
-1.4802182810368341
 30
0.0
  9
$EXTMAX
 10
44.877784868626968
 20
74.417710258548823
 30
0.0
  9
$LIMMIN
 10
0.0
 20
0.0
  9
$LIMMAX
 10
192.5
 20
135.0
  9
$ORTHOMODE
 70
     0
  9
$REGENMODE
 70
     1
  9
$FILLMODE
 70
     1
  9
$QTEXTMODE
 70
     0
  9
$MIRRTEXT
 70
     0
  9
$DRAGMODE
 70
     2
  9
$LTSCALE
 40
5.0
  9
$OSMODE
 70
  3071
  9
$ATTMODE
 70
     1
  9
$TEXTSIZE
 40
1.6000000000000489
  9
$TRACEWID
 40
0.05
  9
$TEXTSTYLE
  7
STANDARD
  9
$CLAYER
  8
0
  9
$CELTYPE
  6
BYLAYER
  9
$CECOLOR
 62
   256
  9
$DIMSCALE
 40
1.0
  9
$DIMASZ
 40
3.0
  9
$DIMEXO
 40
2.0
  9
$DIMDLI
 40
0.38
  9
$DIMRND
 40
0.0
  9
$DIMDLE
 40
0.0
  9
$DIMEXE
 40
2.0
  9
$DIMTP
 40
0.0
  9
$DIMTM
 40
0.0
  9
$DIMTXT
 40
3.0
  9
$DIMCEN
 40
0.0
  9
$DIMTSZ
 40
0.0
  9
$DIMTOL
 70
     0
  9
$DIMLIM
 70
     0
  9
$DIMTIH
 70
     0
  9
$DIMTOH
 70
     0
  9
$DIMSE1
 70
     0
  9
$DIMSE2
 70
     0
  9
$DIMTAD
 70
     1
  9
$DIMZIN
 70
     0
  9
$DIMBLK
  1

  9
$DIMASO
 70
     0
  9
$DIMSHO
 70
     0
  9
$DIMPOST
  1

  9
$DIMAPOST
  1

  9
$DIMALT
 70
     0
  9
$DIMALTD
 70
     2
  9
$DIMALTF
 40
25.399999999999999
  9
$DIMLFAC
 40
1.0
  9
$DIMTOFL
 70
     1
  9
$DIMTVP
 40
1.6000000000000001
  9
$DIMTIX
 70
     1
  9
$DIMSOXD
 70
     0
  9
$DIMSAH
 70
     0
  9
$DIMBLK1
  1

  9
$DIMBLK2
  1

  9
$DIMSTYLE
  2
STANDARD
  9
$DIMCLRD
 70
     0
  9
$DIMCLRE
 70
     0
  9
$DIMCLRT
 70
     0
  9
$DIMTFAC
 40
1.0
  9
$DIMGAP
 40
0.09
  9
$LUNITS
 70
     2
  9
$LUPREC
 70
     4
  9
$SKETCHINC
 40
0.1
  9
$FILLETRAD
 40
0.3
  9
$AUNITS
 70
     0
  9
$AUPREC
 70
     4
  9
$MENU
  1
E:\r13\win\SUPPORT\ACAD
  9
$ELEVATION
 40
0.0
  9
$PELEVATION
 40
0.0
  9
$THICKNESS
 40
0.0
  9
$LIMCHECK
 70
     0
  9
$BLIPMODE
 70
     0
  9
$CHAMFERA
 40
0.0
  9
$CHAMFERB
 40
0.0
  9
$SKPOLY
 70
     0
  9
$TDCREATE
 40
2448328.489641204
  9
$TDUPDATE
 40
2456602.6110660299
  9
$TDINDWG
 40
0.631771875
  9
$TDUSRTIMER
 40
2456598.4360383572
  9
$USRTIMER
 70
     1
  9
$ANGBASE
 50
0.0
  9
$ANGDIR
 70
     0
  9
$PDMODE
 70
    35
  9
$PDSIZE
 40
0.0
  9
$PLINEWID
 40
0.0
  9
$COORDS
 70
     1
  9
$SPLFRAME
 70
     0
  9
$SPLINETYPE
 70
     6
  9
$SPLINESEGS
 70
     8
  9
$ATTDIA
 70
     0
  9
$ATTREQ
 70
     1
  9
$HANDLING
 70
     1
  9
$HANDSEED
  5
F19
  9
$SURFTAB1
 70
     6
  9
$SURFTAB2
 70
     6
  9
$SURFTYPE
 70
     6
  9
$SURFU
 70
     6
  9
$SURFV
 70
     6
  9
$UCSNAME
  2

  9
$UCSORG
 10
0.0
 20
0.0
 30
0.0
  9
$UCSXDIR
 10
1.0
 20
0.0
 30
0.0
  9
$UCSYDIR
 10
0.0
 20
1.0
 30
0.0
  9
$PUCSNAME
  2

  9
$PUCSORG
 10
0.0
 20
0.0
 30
0.0
  9
$PUCSXDIR
 10
1.0
 20
0.0
 30
0.0
  9
$PUCSYDIR
 10
0.0
 20
1.0
 30
0.0
  9
$USERI1
 70
     3
  9
$USERI2
 70
     1
  9
$USERI3
 70
     1
  9
$USERI4
 70
     0
  9
$USERI5
 70
     0
  9
$USERR1
 40
0.5
  9
$USERR2
 40
3.0
  9
$USERR3
 40
3.0
  9
$USERR4
 40
3.0
  9
$USERR5
 40
10.0
  9
$WORLDVIEW
 70
     1
  9
$SHADEDGE
 70
     3
  9
$SHADEDIF
 70
    70
  9
$TILEMODE
 70
     1
  9
$MAXACTVP
 70
    16
  9
$PLIMCHECK
 70
     0
  9
$PEXTMIN
 10
1.0000000000000000E+020
 20
1.0000000000000000E+020
 30
1.0000000000000000E+020
  9
$PEXTMAX
 10
-1.0000000000000000E+020
 20
-1.0000000000000000E+020
 30
-1.0000000000000000E+020
  9
$PLIMMIN
 10
0.0
 20
0.0
  9
$PLIMMAX
 10
12.0
 20
9.0
  9
$UNITMODE
 70
     0
  9
$VISRETAIN
 70
     0
  9
$PLINEGEN
 70
     1
  9
$PSLTSCALE
 70
     0
  0
ENDSEC
  0
SECTION
  2
TABLES
  0
TABLE
  2
VPORT
 70
     1
  0
VPORT
  2
*ACTIVE
 70
     0
 10
0.0
 20
0.0
 11
1.0
 21
1.0
 12
96.247062907201553
 22
84.953159946678227
 13
0.0
 23
0.0
 14
2.5
 24
2.5
 15
5.0
 25
5.0
 16
0.0
 26
0.0
 36
1.0
 17
0.0
 27
0.0
 37
0.0
 40
174.44968684775969
 41
1.831871345029239
 42
50.0
 43
0.0
 44
0.0
 50
0.0
 51
0.0
 71
     0
 72
   500
 73
     1
 74
     0
 75
     0
 76
     0
 77
     0
 78
     2
  0
ENDTAB
  0
TABLE
  2
LTYPE
 70
     4
  0
LTYPE
  2
CONTINUOUS
 70
     0
  3
Solid Line
 72
    65
 73
     0
 40
0.0
  0
LTYPE
  2
CENTER
 70
     0
  3
____ _ ____ _ ____ _ ____ _ ____ _ ____ _ ____
 72
    65
 73
     4
 40
2.0
 49
1.25
 49
-0.25
 49
0.25
 49
-0.25
  0
LTYPE
  2
HIDDEN
 70
     0
  3
_ _ _ _ _ _ _ _ _ _ _ _ _ _ _ _ _ _ _ _ _ _ _
 72
    65
 73
     2
 40
0.375
 49
0.25
 49
-0.125
  0
LTYPE
  2
PHANTOM2
 70
     0
  3
___ _ _ ___ _ _ ___ _ _ ___ _ _
 72
    65
 73
     6
 40
1.25
 49
0.625
 49
-0.125
 49
0.125
 49
-0.125
 49
0.125
 49
-0.125
  0
ENDTAB
  0
TABLE
  2
LAYER
 70
     3
  0
LAYER
  2
0
 70
     0
 62
     7
  6
CONTINUOUS
  0
LAYER
  2
1
 70
     0
 62
     1
  6
CENTER
  0
LAYER
  2
2
 70
     0
 62
     2
  6
HIDDEN
  0
ENDTAB
  0
TABLE
  2
STYLE
 70
     2
  0
STYLE
  2
STANDARD
 70
     0
 40
0.0
 41
1.0
 50
0.0
 71
     0
 42
1.6000000000000489
  3
SIMPLEX
  4
BIGFONT
  0
STYLE
  2
STANDARD1
 70
     0
 40
0.0
 41
1.0
 50
0.0
 71
     0
 42
3.0
  3
txt
  4

  0
ENDTAB
  0
TABLE
  2
VIEW
 70
     1
  0
VIEW
  2
ALL
 70
     0
 40
87.5
 10
71.617647058823522
 20
43.75
 41
0.0
 11
0.0
 21
0.0
 31
1.0
 12
0.0
 22
0.0
 32
0.0
 42
0.0
 43
0.0
 44
0.0
 50
0.0
 71
     0
  0
ENDTAB
  0
TABLE
  2
UCS
 70
     0
  0
ENDTAB
  0
TABLE
  2
APPID
 70
     6
  0
APPID
  2
ACAD
 70
     0
  0
APPID
  2
ACAD_EXEMPT_FROM_CAD_STANDARDS
 70
     0
  0
APPID
  2
ACAD_DSTYLE_DIMJAG
 70
     0
  0
APPID
  2
ACAD_DSTYLE_DIMTALN
 70
     0
  0
APPID
  2
ACAD_MLEADERVER
 70
     0
  0
APPID
  2
ACAD_NAV_VCDISPLAY
 70
     0
  0
ENDTAB
  0
TABLE
  2
DIMSTYLE
 70
     1
  0
DIMSTYLE
  2
STANDARD
 70
     0
  3

  4

  5

  6

  7

 40
1.0
 41
0.18
 42
0.0625
 43
0.38
 44
0.18
 45
0.0
 46
0.0
 47
0.0
 48
0.0
140
0.18
141
0.09
142
0.0
143
25.399999999999999
144
1.0
145
0.0
146
1.0
147
0.09
 71
     0
 72
     0
 73
     1
 74
     1
 75
     0
 76
     0
 77
     0
 78
     0
170
     0
171
     2
172
     0
173
     0
174
     0
175
     0
176
     0
177
     0
178
     0
  0
ENDTAB
  0
ENDSEC
  0
SECTION
  2
BLOCKS
  0
BLOCK
  8
0
  2
$MODEL_SPACE
 70
     0
 10
0.0
 20
0.0
 30
0.0
  3
$MODEL_SPACE
  1

  0
ENDBLK
  5
BAB
  8
0
  0
BLOCK
 67
     1
  8
0
  2
$PAPER_SPACE
 70
     0
 10
0.0
 20
0.0
 30
0.0
  3
$PAPER_SPACE
  1

  0
ENDBLK
  5
BA9
 67
     1
  8
0
  0
ENDSEC
  0
SECTION
  2
ENTITIES
  0
CIRCLE
  5
DD9
  8
0
 10
24.377784868626971
 20
53.917710258548823
 30
0.0
 40
17.0
  0
CIRCLE
  5
DDA
  8
0
 10
24.377784868626971
 20
53.917710258548823
 30
0.0
 40
17.5
  0
CIRCLE
  5
DDB
  8
2
 10
24.377784868626971
 20
53.917710258548823
 30
0.0
 40
14.85
  0
CIRCLE
  5
DDC
  8
0
 10
24.377784868626971
 20
53.917710258548823
 30
0.0
 40
6.0
  0
LINE
  5
DDE
  8
1
 10
3.877784868626974
 20
53.917710258548823
 30
0.0
 11
44.877784868626968
 21
53.917710258548823
 31
0.0
  0
LINE
  5
DDF
  8
1
 10
24.377784868626971
 20
33.417710258548823
 30
0.0
 11
24.377784868626971
 21
74.417710258548823
 31
0.0
  0
LINE
  5
DFD
  8
0
 10
41.877784868626968
 20
25.917710258548819
 30
0.0
 11
41.377784868626968
 21
26.417710258548819
 31
0.0
  0
LINE
  5
DFE
  8
0
 10
7.377784868626974
 20
26.417710258548819
 30
0.0
 11
6.877784868626974
 21
25.917710258548819
 31
0.0
  0
LINE
  5
DFF
  8
0
 10
41.877784868626968
 20
20.417710258548819
 30
0.0
 11
41.877784868626968
 21
25.917710258548819
 31
0.0
  0
LINE
  5
E00
  8
0
 10
6.877784868626974
 20
25.917710258548819
 30
0.0
 11
6.877784868626974
 21
20.417710258548819
 31
0.0
  0
LINE
  5
E01
  8
0
 10
39.227784868626969
 20
19.917710258548819
 30
0.0
 11
39.227784868626969
 21
20.417710258548819
 31
0.0
  0
LINE
  5
E02
  8
0
 10
9.5277848686269806
 20
20.417710258548819
 30
0.0
 11
9.5277848686269806
 21
19.917710258548819
 31
0.0
  0
LINE
  5
E03
  8
0
 10
41.877784868626968
 20
18.917710258548819
 30
0.0
 11
41.877784868626968
 21
19.917710258548819
 31
0.0
  0
LINE
  5
E04
  8
0
 10
6.877784868626974
 20
19.917710258548819
 30
0.0
 11
6.877784868626974
 21
18.917710258548819
 31
0.0
  0
LINE
  5
E05
  8
0
 10
41.377784868626968
 20
18.417710258548819
 30
0.0
 11
41.877784868626968
 21
18.917710258548819
 31
0.0
  0
LINE
  5
E06
  8
0
 10
6.877784868626974
 20
18.917710258548819
 30
0.0
 11
7.377784868626974
 21
18.417710258548819
 31
0.0
  0
LINE
  5
E09
  8
2
 10
30.377784868626971
 20
18.417710258548819
 30
0.0
 11
30.377784868626978
 21
26.417710258548819
 31
0.0
  0
LINE
  5
E0A
  8
2
 10
18.377784868626971
 20
26.417710258548819
 30
0.0
 11
18.377784868626971
 21
18.417710258548819
 31
0.0
  0
LINE
  5
E0D
  8
0
 10
7.377784868626974
 20
26.417710258548819
 30
0.0
 11
41.377784868626968
 21
26.417710258548819
 31
0.0
  0
LINE
  5
E0E
  8
0
 10
6.877784868626974
 20
25.917710258548819
 30
0.0
 11
41.877784868626968
 21
25.917710258548819
 31
0.0
  0
LINE
  5
E0F
  8
0
 10
6.877784868626974
 20
20.417710258548819
 30
0.0
 11
41.877784868626968
 21
20.417710258548819
 31
0.0
  0
LINE
  5
E10
  8
0
 10
6.877784868626974
 20
19.917710258548819
 30
0.0
 11
41.877784868626968
 21
19.917710258548819
 31
0.0
  0
LINE
  5
E11
  8
0
 10
6.877784868626974
 20
18.917710258548819
 30
0.0
 11
41.877784868626968
 21
18.917710258548819
 31
0.0
  0
LINE
  5
E12
  8
0
 10
7.377784868626974
 20
18.417710258548819
 30
0.0
 11
41.377784868626968
 21
18.417710258548819
 31
0.0
  0
LINE
  5
E14
  8
1
 10
24.377784868626971
 20
29.417710258548819
 30
0.0
 11
24.377784868626971
 21
15.417710258548819
 31
0.0
  0
TEXT
  5
EAA
  8
0
 62
     3
 10
0.0
 20
0.0
 30
0.0
 40
5.0
  1
HTW3512
  7
STANDARD1
  0
ENDSEC
  0
EOF
