  0
SECTION
  2
HEADER
  9
$ACADVER
  1
AC1009
  9
$INSBASE
 10
0.0
 20
0.0
 30
0.0
  9
$EXTMIN
 10
0.0
 20
-2.960436562073669
 30
0.0
  9
$EXTMAX
 10
248.0
 20
292.0
 30
0.0
  9
$LIMMIN
 10
0.0
 20
0.0
  9
$LIMMAX
 10
187.5
 20
135.0
  9
$ORTHOMODE
 70
     1
  9
$REGENMODE
 70
     1
  9
$FILLMODE
 70
     1
  9
$QTEXTMODE
 70
     0
  9
$MIRRTEXT
 70
     0
  9
$DRAGMODE
 70
     2
  9
$LTSCALE
 40
7.0
  9
$OSMODE
 70
    37
  9
$ATTMODE
 70
     1
  9
$TEXTSIZE
 40
2.5
  9
$TRACEWID
 40
0.05
  9
$TEXTSTYLE
  7
STANDARD
  9
$CLAYER
  8
0
  9
$CELTYPE
  6
BYLAYER
  9
$CECOLOR
 62
   256
  9
$DIMSCALE
 40
1.0
  9
$DIMASZ
 40
3.0
  9
$DIMEXO
 40
2.0
  9
$DIMDLI
 40
10.0
  9
$DIMRND
 40
0.0
  9
$DIMDLE
 40
0.0
  9
$DIMEXE
 40
2.0
  9
$DIMTP
 40
0.0
  9
$DIMTM
 40
0.0
  9
$DIMTXT
 40
3.0
  9
$DIMCEN
 40
0.09
  9
$DIMTSZ
 40
0.0
  9
$DIMTOL
 70
     0
  9
$DIMLIM
 70
     0
  9
$DIMTIH
 70
     0
  9
$DIMTOH
 70
     0
  9
$DIMSE1
 70
     0
  9
$DIMSE2
 70
     0
  9
$DIMTAD
 70
     1
  9
$DIMZIN
 70
     0
  9
$DIMBLK
  1

  9
$DIMASO
 70
     0
  9
$DIMSHO
 70
     0
  9
$DIMPOST
  1

  9
$DIMAPOST
  1

  9
$DIMALT
 70
     0
  9
$DIMALTD
 70
     2
  9
$DIMALTF
 40
25.399999999999999
  9
$DIMLFAC
 40
1.0
  9
$DIMTOFL
 70
     1
  9
$DIMTVP
 40
1.6000000000000001
  9
$DIMTIX
 70
     1
  9
$DIMSOXD
 70
     0
  9
$DIMSAH
 70
     0
  9
$DIMBLK1
  1

  9
$DIMBLK2
  1

  9
$DIMSTYLE
  2
STANDARD
  9
$DIMCLRD
 70
     0
  9
$DIMCLRE
 70
     0
  9
$DIMCLRT
 70
     0
  9
$DIMTFAC
 40
1.0
  9
$DIMGAP
 40
0.09
  9
$LUNITS
 70
     2
  9
$LUPREC
 70
     1
  9
$SKETCHINC
 40
0.1
  9
$FILLETRAD
 40
0.0
  9
$AUNITS
 70
     0
  9
$AUPREC
 70
     1
  9
$MENU
  1
E:\r13\win\SUPPORT\ACAD
  9
$ELEVATION
 40
0.0
  9
$PELEVATION
 40
0.0
  9
$THICKNESS
 40
0.0
  9
$LIMCHECK
 70
     0
  9
$BLIPMODE
 70
     0
  9
$CHAMFERA
 40
3.2000000000000002
  9
$CHAMFERB
 40
3.2000000000000002
  9
$SKPOLY
 70
     0
  9
$TDCREATE
 40
2449840.5944097228
  9
$TDUPDATE
 40
2457893.652729989
  9
$TDINDWG
 40
0.485136794
  9
$TDUSRTIMER
 40
0.485136794
  9
$USRTIMER
 70
     1
  9
$ANGBASE
 50
0.0
  9
$ANGDIR
 70
     0
  9
$PDMODE
 70
     0
  9
$PDSIZE
 40
0.0
  9
$PLINEWID
 40
0.0
  9
$COORDS
 70
     1
  9
$SPLFRAME
 70
     0
  9
$SPLINETYPE
 70
     6
  9
$SPLINESEGS
 70
     8
  9
$ATTDIA
 70
     0
  9
$ATTREQ
 70
     1
  9
$HANDLING
 70
     1
  9
$HANDSEED
  5
565F
  9
$SURFTAB1
 70
     6
  9
$SURFTAB2
 70
     6
  9
$SURFTYPE
 70
     6
  9
$SURFU
 70
     6
  9
$SURFV
 70
     6
  9
$UCSNAME
  2

  9
$UCSORG
 10
0.0
 20
0.0
 30
0.0
  9
$UCSXDIR
 10
1.0
 20
0.0
 30
0.0
  9
$UCSYDIR
 10
0.0
 20
1.0
 30
0.0
  9
$PUCSNAME
  2

  9
$PUCSORG
 10
0.0
 20
0.0
 30
0.0
  9
$PUCSXDIR
 10
1.0
 20
0.0
 30
0.0
  9
$PUCSYDIR
 10
0.0
 20
1.0
 30
0.0
  9
$USERI1
 70
     0
  9
$USERI2
 70
     1
  9
$USERI3
 70
     1
  9
$USERI4
 70
     0
  9
$USERI5
 70
     0
  9
$USERR1
 40
0.0
  9
$USERR2
 40
0.0
  9
$USERR3
 40
0.0
  9
$USERR4
 40
0.0
  9
$USERR5
 40
0.0
  9
$WORLDVIEW
 70
     1
  9
$SHADEDGE
 70
     3
  9
$SHADEDIF
 70
    70
  9
$TILEMODE
 70
     1
  9
$MAXACTVP
 70
    16
  9
$PLIMCHECK
 70
     0
  9
$PEXTMIN
 10
1.0000000000000000E+020
 20
1.0000000000000000E+020
 30
1.0000000000000000E+020
  9
$PEXTMAX
 10
-1.0000000000000000E+020
 20
-1.0000000000000000E+020
 30
-1.0000000000000000E+020
  9
$PLIMMIN
 10
0.0
 20
0.0
  9
$PLIMMAX
 10
12.0
 20
9.0
  9
$UNITMODE
 70
     0
  9
$VISRETAIN
 70
     0
  9
$PLINEGEN
 70
     0
  9
$PSLTSCALE
 70
     0
  0
ENDSEC
  0
SECTION
  2
TABLES
  0
TABLE
  2
VPORT
 70
     1
  0
VPORT
  2
*ACTIVE
 70
     0
 10
0.0
 20
0.0
 11
1.0
 21
1.0
 12
345.08547008547009
 22
190.0
 13
0.0
 23
0.0
 14
5.0
 24
5.0
 15
5.0
 25
5.0
 16
0.0
 26
0.0
 36
1.0
 17
0.0
 27
0.0
 37
0.0
 40
380.0
 41
1.816239316239316
 42
50.0
 43
0.0
 44
0.0
 50
0.0
 51
0.0
 71
     0
 72
   100
 73
     1
 74
     0
 75
     0
 76
     0
 77
     0
 78
     0
  0
ENDTAB
  0
TABLE
  2
LTYPE
 70
     4
  0
LTYPE
  2
CONTINUOUS
 70
     0
  3
Solid Line
 72
    65
 73
     0
 40
0.0
  0
LTYPE
  2
CENTER
 70
     0
  3
____ _ ____ _ ____ _ ____ _ ____ _ ____ _ ____
 72
    65
 73
     4
 40
2.0
 49
1.25
 49
-0.25
 49
0.25
 49
-0.25
  0
LTYPE
  2
HIDDEN
 70
     0
  3
_ _ _ _ _ _ _ _ _ _ _ _ _ _ _ _ _ _ _ _ _ _ _
 72
    65
 73
     2
 40
0.375
 49
0.25
 49
-0.125
  0
LTYPE
  2
PHANTOM2
 70
     0
  3
___ _ _ ___ _ _ ___ _ _ ___ _ _
 72
    65
 73
     6
 40
1.25
 49
0.625
 49
-0.125
 49
0.125
 49
-0.125
 49
0.125
 49
-0.125
  0
ENDTAB
  0
TABLE
  2
LAYER
 70
     5
  0
LAYER
  2
0
 70
     0
 62
     7
  6
CONTINUOUS
  0
LAYER
  2
1
 70
     0
 62
     1
  6
CENTER
  0
LAYER
  2
2
 70
     0
 62
     2
  6
HIDDEN
  0
LAYER
  2
3
 70
     0
 62
     3
  6
CONTINUOUS
  0
LAYER
  2
DEFPOINTS
 70
     0
 62
     7
  6
CONTINUOUS
  0
ENDTAB
  0
TABLE
  2
STYLE
 70
     2
  0
STYLE
  2
STANDARD
 70
     0
 40
0.0
 41
1.0
 50
0.0
 71
     0
 42
2.5
  3
TXT
  4
BIGFONT
  0
STYLE
  2
STANDARD1
 70
     0
 40
0.0
 41
1.0
 50
0.0
 71
     0
 42
3.0
  3
txt
  4

  0
ENDTAB
  0
TABLE
  2
VIEW
 70
     1
  0
VIEW
  2
ALL
 70
     0
 40
135.0
 10
110.49579799999999
 20
67.5
 41
0.0
 11
0.0
 21
0.0
 31
1.0
 12
0.0
 22
0.0
 32
0.0
 42
0.0
 43
0.0
 44
0.0
 50
0.0
 71
     0
  0
ENDTAB
  0
TABLE
  2
UCS
 70
     0
  0
ENDTAB
  0
TABLE
  2
APPID
 70
    25
  0
APPID
  2
ACAD
 70
     0
  0
APPID
  2
DCO15
 70
     0
  0
APPID
  2
ACAD_MLEADERVER
 70
     0
  0
APPID
  2
ACAD_EXEMPT_FROM_CAD_STANDARDS
 70
     0
  0
APPID
  2
ACAD_NAV_VCDISPLAY
 70
     0
  0
APPID
  2
ACAD_DSTYLE_DIMRADIAL_EXTENSION
 70
     0
  0
APPID
  2
GENIUS_GENODEF_13
 70
     0
  0
APPID
  2
GENIUS_GENOBJ-N-FIL_13
 70
     0
  0
APPID
  2
GENIUS_GENCFG_13
 70
     0
  0
APPID
  2
GENIUS_GENCFG0_13
 70
     0
  0
APPID
  2
GENIUS_GENCFG1_13
 70
     0
  0
APPID
  2
GENIUS_GENCFG2_13
 70
     0
  0
APPID
  2
GENIUS_GENCFG3_13
 70
     0
  0
APPID
  2
GENIUS_GENCFG4_13
 70
     0
  0
APPID
  2
GENIUS_GEVCFG0_13
 70
     0
  0
APPID
  2
GENIUS_GENOENT_13
 70
     0
  0
APPID
  2
GENIUS_GENOBJ-N-HTC_13
 70
     0
  0
APPID
  2
GENIUS_GENHATCH_13
 70
     0
  0
APPID
  2
GENIUS_GENFIL_13
 70
     0
  0
APPID
  2
GENIUS_GENOBJ-N-CHA_13
 70
     0
  0
APPID
  2
GEV_VCCNULL_SWITCH_OFF
 70
     0
  0
APPID
  2
GENIUS_GENDTOL_13
 70
     0
  0
APPID
  2
GENIUS_GEFCFG0_13
 70
     0
  0
APPID
  2
ACAD_DSTYLE_DIMJAG
 70
     0
  0
APPID
  2
ACAD_DSTYLE_DIMTALN
 70
     0
  0
ENDTAB
  0
TABLE
  2
DIMSTYLE
 70
     1
  0
DIMSTYLE
  2
STANDARD
 70
     0
  3

  4

  5

  6

  7

 40
1.0
 41
0.18
 42
0.0625
 43
0.38
 44
0.18
 45
0.0
 46
0.0
 47
0.0
 48
0.0
140
0.18
141
0.09
142
0.0
143
25.399999999999999
144
1.0
145
0.0
146
1.0
147
0.09
 71
     0
 72
     0
 73
     1
 74
     1
 75
     0
 76
     0
 77
     0
 78
     0
170
     0
171
     2
172
     0
173
     0
174
     0
175
     0
176
     0
177
     0
178
     0
  0
ENDTAB
  0
ENDSEC
  0
SECTION
  2
BLOCKS
  0
BLOCK
  8
0
  2
$MODEL_SPACE
 70
     0
 10
0.0
 20
0.0
 30
0.0
  3
$MODEL_SPACE
  1

  0
ENDBLK
  5
15D
  8
0
  0
BLOCK
 67
     1
  8
0
  2
$PAPER_SPACE
 70
     0
 10
0.0
 20
0.0
 30
0.0
  3
$PAPER_SPACE
  1

  0
ENDBLK
  5
15B
 67
     1
  8
0
  0
ENDSEC
  0
SECTION
  2
ENTITIES
  0
TEXT
  5
3985
  8
0
 62
     3
 10
0.0
 20
0.0
 30
0.0
 40
10.0
  1
HVF-1
  7
STANDARD1
  0
LINE
  5
50DB
  8
2
 10
69.854500000000002
 20
69.0
 30
0.0
 11
69.854500000000002
 21
51.478999999999992
 31
0.0
  0
LINE
  5
50DC
  8
2
 10
100.1455
 20
51.478999999999992
 30
0.0
 11
100.1455
 21
69.0
 31
0.0
  0
LINE
  5
50DD
  8
2
 10
69.854500000000002
 20
162.52099999999999
 30
0.0
 11
69.854500000000002
 21
145.0
 31
0.0
  0
LINE
  5
50DE
  8
2
 10
100.1455
 20
145.0
 30
0.0
 11
100.1455
 21
162.52099999999999
 31
0.0
  0
LINE
  5
50DF
  8
2
 10
100.1455
 20
162.52099999999999
 30
0.0
 11
101.6245
 21
164.0
 31
0.0
  0
LINE
  5
50E0
  8
2
 10
68.375500000000002
 20
164.0
 30
0.0
 11
69.854500000000002
 21
162.52099999999999
 31
0.0
  0
LINE
  5
50E1
  8
2
 10
100.1455
 20
162.52099999999999
 30
0.0
 11
69.854500000000002
 21
162.52099999999999
 31
0.0
  0
LINE
  5
50E2
  8
2
 10
69.854500000000002
 20
51.478999999999992
 30
0.0
 11
68.375500000000002
 21
50.0
 31
0.0
  0
LINE
  5
50E3
  8
2
 10
101.6245
 20
50.0
 30
0.0
 11
100.1455
 21
51.478999999999992
 31
0.0
  0
LINE
  5
50E4
  8
2
 10
100.1455
 20
51.478999999999992
 30
0.0
 11
69.854500000000002
 21
51.478999999999992
 31
0.0
  0
LINE
  5
50F2
  8
2
 10
60.0
 20
130.0
 30
0.0
 11
60.0
 21
84.0
 31
0.0
  0
LINE
  5
50F3
  8
2
 10
110.0
 20
84.0
 30
0.0
 11
110.0
 21
130.0
 31
0.0
  0
LINE
  5
512D
  8
2
 10
68.375500000000002
 20
164.0
 30
0.0
 11
68.375500000000002
 21
145.0
 31
0.0
  0
LINE
  5
512F
  8
2
 10
101.6245
 20
164.0
 30
0.0
 11
101.6245
 21
145.0
 31
0.0
  0
LINE
  5
5131
  8
2
 10
68.375500000000002
 20
50.0
 30
0.0
 11
68.375500000000002
 21
69.0
 31
0.0
  0
LINE
  5
5133
  8
2
 10
101.6245
 20
50.0
 30
0.0
 11
101.6245
 21
69.0
 31
0.0
  0
LINE
  5
5135
  8
1
 10
84.999999999999986
 20
40.0
 30
0.0
 11
85.0
 21
173.99999999999989
 31
0.0
  0
LINE
  5
5136
  8
1
 10
110.0
 20
151.1999999999999
 30
0.0
 11
110.0
 21
62.800000000000011
 31
0.0
  0
LINE
  5
5137
  8
1
 10
60.000000000000007
 20
151.1999999999999
 30
0.0
 11
60.000000000000007
 21
62.800000000000011
 31
0.0
  0
LINE
  5
513A
  8
0
 10
71.720943808638594
 20
164.0
 30
0.0
 11
71.720943808638594
 21
145.0
 31
0.0
  0
LINE
  5
513B
  8
0
 10
58.44188761727721
 20
164.0
 30
0.0
 11
58.44188761727721
 21
146.19999999999999
 31
0.0
  0
LINE
  5
513C
  8
0
 10
111.5581123827228
 20
164.0
 30
0.0
 11
111.5581123827228
 21
146.19999999999999
 31
0.0
  0
LINE
  5
513D
  8
0
 10
58.44188761727721
 20
164.0
 30
0.0
 11
111.5581123827228
 21
164.0
 31
0.0
  0
LINE
  5
513E
  8
0
 10
98.279056191361391
 20
164.0
 30
0.0
 11
98.279056191361391
 21
145.0
 31
0.0
  0
LINE
  5
513F
  8
0
 10
111.5581123827228
 20
67.800000000000011
 30
0.0
 11
111.5581123827228
 21
50.0
 31
0.0
  0
LINE
  5
5140
  8
0
 10
98.279056191361391
 20
69.0
 30
0.0
 11
98.279056191361391
 21
50.0
 31
0.0
  0
LINE
  5
5141
  8
0
 10
58.44188761727721
 20
50.0
 30
0.0
 11
111.5581123827228
 21
50.0
 31
0.0
  0
LINE
  5
5142
  8
0
 10
71.720943808638594
 20
69.0
 30
0.0
 11
71.720943808638594
 21
50.0
 31
0.0
  0
LINE
  5
5143
  8
0
 10
58.44188761727721
 20
67.800000000000011
 30
0.0
 11
58.44188761727721
 21
50.0
 31
0.0
  0
LINE
  5
5144
  8
0
 10
54.475000000000001
 20
68.069999999999993
 30
0.0
 11
54.475000000000001
 21
67.800000000000011
 31
0.0
  0
LINE
  5
5145
  8
0
 10
65.525000000000006
 20
67.800000000000011
 30
0.0
 11
65.525000000000006
 21
68.069999999999993
 31
0.0
  0
LINE
  5
5146
  8
0
 10
65.525000000000006
 20
67.800000000000011
 30
0.0
 11
54.475000000000001
 21
67.800000000000011
 31
0.0
  0
LINE
  5
5147
  8
0
 10
104.47499999999999
 20
68.069999999999993
 30
0.0
 11
104.47499999999999
 21
67.800000000000011
 31
0.0
  0
LINE
  5
5148
  8
0
 10
115.52500000000001
 20
67.800000000000011
 30
0.0
 11
115.52500000000001
 21
68.069999999999993
 31
0.0
  0
LINE
  5
5149
  8
0
 10
115.52500000000001
 20
67.800000000000011
 30
0.0
 11
104.47499999999999
 21
67.800000000000011
 31
0.0
  0
LINE
  5
514A
  8
0
 10
54.0
 20
130.0
 30
0.0
 11
54.0
 21
84.0
 31
0.0
  0
LINE
  5
514B
  8
0
 10
116.0
 20
84.0
 30
0.0
 11
116.0
 21
130.0
 31
0.0
  0
LINE
  5
514C
  8
0
 10
103.59999999999999
 20
145.39999999999989
 30
0.0
 11
103.59999999999999
 21
145.0
 31
0.0
  0
LINE
  5
514D
  8
0
 10
116.40000000000001
 20
145.0
 30
0.0
 11
116.40000000000001
 21
145.39999999999989
 31
0.0
  0
LINE
  5
514E
  8
0
 10
115.52500000000001
 20
68.069999999999993
 30
0.0
 11
116.06193575034629
 21
69.0
 31
0.0
  0
LINE
  5
514F
  8
0
 10
103.93806424965361
 20
69.0
 30
0.0
 11
104.47499999999999
 21
68.069999999999993
 31
0.0
  0
LINE
  5
5150
  8
0
 10
115.52500000000001
 20
68.069999999999993
 30
0.0
 11
104.47499999999999
 21
68.069999999999993
 31
0.0
  0
LINE
  5
5151
  8
0
 10
65.525000000000006
 20
68.069999999999993
 30
0.0
 11
66.06193575034635
 21
69.0
 31
0.0
  0
LINE
  5
5152
  8
0
 10
53.93806424965365
 20
69.0
 30
0.0
 11
54.475000000000001
 21
68.069999999999993
 31
0.0
  0
LINE
  5
5153
  8
0
 10
65.525000000000006
 20
68.069999999999993
 30
0.0
 11
54.475000000000001
 21
68.069999999999993
 31
0.0
  0
LINE
  5
5154
  8
0
 10
53.600000000000001
 20
145.39999999999989
 30
0.0
 11
53.600000000000001
 21
145.0
 31
0.0
  0
LINE
  5
5155
  8
0
 10
66.400000000000006
 20
145.0
 30
0.0
 11
66.400000000000006
 21
145.39999999999989
 31
0.0
  0
LINE
  5
5156
  8
0
 10
65.599999991101285
 20
146.1999999999999
 30
0.0
 11
54.399999999999999
 21
146.1999999999999
 31
0.0
  0
ARC
  5
5157
  8
0
 10
54.399999999999991
 20
145.39999999999989
 30
0.0
 40
0.7999999999999901
 50
90.0
 51
180.0
  0
ARC
  5
5158
  8
0
 10
65.599999999999994
 20
145.39999999999989
 30
0.0
 40
0.7999999999999936
 50
0.0
 51
90.0
  0
LINE
  5
515A
  8
0
 10
115.5999999911013
 20
146.1999999999999
 30
0.0
 11
104.40000000000001
 21
146.1999999999999
 31
0.0
  0
ARC
  5
515B
  8
0
 10
104.40000000000001
 20
145.39999999999989
 30
0.0
 40
0.7999999999999901
 50
90.0
 51
180.0
  0
ARC
  5
515C
  8
0
 10
115.59999999999999
 20
145.39999999999989
 30
0.0
 40
0.7999999999999865
 50
0.0
 51
90.0
  0
LINE
  5
515E
  8
0
 10
50.0
 20
145.0
 30
0.0
 11
120.0
 21
145.0
 31
0.0
  0
LINE
  5
515F
  8
0
 10
50.0
 20
130.0
 30
0.0
 11
120.0
 21
130.0
 31
0.0
  0
LINE
  5
5160
  8
0
 10
120.0
 20
130.0
 30
0.0
 11
120.0
 21
145.0
 31
0.0
  0
LINE
  5
5161
  8
0
 10
50.0
 20
84.0
 30
0.0
 11
50.0
 21
69.0
 31
0.0
  0
LINE
  5
5162
  8
0
 10
65.999999999999986
 20
130.0
 30
0.0
 11
65.999999999999986
 21
84.0
 31
0.0
  0
LINE
  5
5163
  8
0
 10
50.0
 20
145.0
 30
0.0
 11
50.0
 21
130.0
 31
0.0
  0
LINE
  5
5164
  8
0
 10
50.0
 20
84.0
 30
0.0
 11
120.0
 21
84.0
 31
0.0
  0
LINE
  5
5165
  8
0
 10
104.0
 20
130.0
 30
0.0
 11
104.0
 21
84.0
 31
0.0
  0
LINE
  5
5166
  8
0
 10
50.0
 20
69.0
 30
0.0
 11
120.0
 21
69.0
 31
0.0
  0
LINE
  5
5167
  8
0
 10
120.0
 20
69.0
 30
0.0
 11
120.0
 21
84.0
 31
0.0
  0
LINE
  5
51EF
  8
2
 10
189.8545
 20
69.0
 30
0.0
 11
189.8545
 21
51.478999999999992
 31
0.0
  0
LINE
  5
51F0
  8
2
 10
220.1455
 20
51.478999999999992
 30
0.0
 11
220.1455
 21
69.0
 31
0.0
  0
LINE
  5
51F1
  8
2
 10
189.8545
 20
162.52099999999999
 30
0.0
 11
189.8545
 21
145.0
 31
0.0
  0
LINE
  5
51F2
  8
2
 10
220.1455
 20
145.0
 30
0.0
 11
220.1455
 21
162.52099999999999
 31
0.0
  0
LINE
  5
51F3
  8
2
 10
220.1455
 20
162.52099999999999
 30
0.0
 11
221.62450000000001
 21
164.0
 31
0.0
  0
LINE
  5
51F4
  8
2
 10
188.37549999999999
 20
164.0
 30
0.0
 11
189.8545
 21
162.52099999999999
 31
0.0
  0
LINE
  5
51F5
  8
2
 10
220.1455
 20
162.52099999999999
 30
0.0
 11
189.8545
 21
162.52099999999999
 31
0.0
  0
LINE
  5
51F6
  8
2
 10
189.8545
 20
51.478999999999992
 30
0.0
 11
188.37549999999999
 21
50.0
 31
0.0
  0
LINE
  5
51F7
  8
2
 10
221.62450000000001
 20
50.0
 30
0.0
 11
220.1455
 21
51.478999999999992
 31
0.0
  0
LINE
  5
51F8
  8
2
 10
220.1455
 20
51.478999999999992
 30
0.0
 11
189.8545
 21
51.478999999999992
 31
0.0
  0
LINE
  5
51F9
  8
2
 10
180.0
 20
130.0
 30
0.0
 11
180.0
 21
84.0
 31
0.0
  0
LINE
  5
51FA
  8
2
 10
230.0
 20
84.0
 30
0.0
 11
230.0
 21
130.0
 31
0.0
  0
LINE
  5
5239
  8
2
 10
221.62450000000001
 20
164.0
 30
0.0
 11
221.62450000000001
 21
145.0
 31
0.0
  0
LINE
  5
523B
  8
2
 10
188.37549999999999
 20
164.0
 30
0.0
 11
188.37549999999999
 21
145.0
 31
0.0
  0
LINE
  5
523D
  8
2
 10
221.62450000000001
 20
50.0
 30
0.0
 11
221.62450000000001
 21
69.0
 31
0.0
  0
LINE
  5
523F
  8
2
 10
188.37549999999999
 20
50.0
 30
0.0
 11
188.37549999999999
 21
69.0
 31
0.0
  0
LINE
  5
5241
  8
1
 10
205.00000000000011
 20
40.000000000000057
 30
0.0
 11
205.0
 21
174.0
 31
0.0
  0
LINE
  5
5242
  8
1
 10
180.0
 20
151.1999999999999
 30
0.0
 11
180.0
 21
62.800000000000011
 31
0.0
  0
LINE
  5
5243
  8
1
 10
230.0
 20
151.1999999999999
 30
0.0
 11
230.0
 21
62.800000000000011
 31
0.0
  0
LINE
  5
5246
  8
0
 10
182.0
 20
164.0
 30
0.0
 11
228.0
 21
164.0
 31
0.0
  0
LINE
  5
5247
  8
0
 10
182.0
 20
164.0
 30
0.0
 11
182.0
 21
146.19999999999999
 31
0.0
  0
LINE
  5
5248
  8
0
 10
182.0
 20
50.0
 30
0.0
 11
228.0
 21
50.0
 31
0.0
  0
LINE
  5
5249
  8
0
 10
182.0
 20
67.800000000000011
 30
0.0
 11
182.0
 21
50.0
 31
0.0
  0
LINE
  5
524A
  8
0
 10
228.0
 20
164.0
 30
0.0
 11
228.0
 21
146.19999999999999
 31
0.0
  0
LINE
  5
524B
  8
0
 10
205.0
 20
164.0
 30
0.0
 11
205.0
 21
145.0
 31
0.0
  0
LINE
  5
524C
  8
0
 10
228.0
 20
67.800000000000011
 30
0.0
 11
228.0
 21
50.0
 31
0.0
  0
LINE
  5
524D
  8
0
 10
205.0
 20
69.0
 30
0.0
 11
205.0
 21
50.0
 31
0.0
  0
LINE
  5
524E
  8
0
 10
174.47499999999999
 20
68.069999999999993
 30
0.0
 11
174.47499999999999
 21
67.800000000000011
 31
0.0
  0
LINE
  5
524F
  8
0
 10
185.52500000000001
 20
67.800000000000011
 30
0.0
 11
185.52500000000001
 21
68.069999999999993
 31
0.0
  0
LINE
  5
5250
  8
0
 10
185.52500000000001
 20
67.800000000000011
 30
0.0
 11
174.47499999999999
 21
67.800000000000011
 31
0.0
  0
LINE
  5
5251
  8
0
 10
224.47499999999999
 20
68.069999999999993
 30
0.0
 11
224.47499999999999
 21
67.800000000000011
 31
0.0
  0
LINE
  5
5252
  8
0
 10
235.52500000000001
 20
67.800000000000011
 30
0.0
 11
235.52500000000001
 21
68.069999999999993
 31
0.0
  0
LINE
  5
5253
  8
0
 10
235.52500000000001
 20
67.800000000000011
 30
0.0
 11
224.47499999999999
 21
67.800000000000011
 31
0.0
  0
LINE
  5
5254
  8
0
 10
174.0
 20
130.0
 30
0.0
 11
174.0
 21
84.0
 31
0.0
  0
LINE
  5
5255
  8
0
 10
236.0
 20
84.0
 30
0.0
 11
236.0
 21
130.0
 31
0.0
  0
LINE
  5
5256
  8
0
 10
235.52500000000001
 20
68.069999999999993
 30
0.0
 11
236.06193575034641
 21
69.0
 31
0.0
  0
LINE
  5
5257
  8
0
 10
223.93806424965359
 20
69.0
 30
0.0
 11
224.47499999999999
 21
68.069999999999993
 31
0.0
  0
LINE
  5
5258
  8
0
 10
235.52500000000001
 20
68.069999999999993
 30
0.0
 11
224.47499999999999
 21
68.069999999999993
 31
0.0
  0
LINE
  5
5259
  8
0
 10
185.52500000000001
 20
68.069999999999993
 30
0.0
 11
186.06193575034629
 21
69.0
 31
0.0
  0
LINE
  5
525A
  8
0
 10
173.93806424965359
 20
69.0
 30
0.0
 11
174.47499999999999
 21
68.069999999999993
 31
0.0
  0
LINE
  5
525B
  8
0
 10
185.52500000000001
 20
68.069999999999993
 30
0.0
 11
174.47499999999999
 21
68.069999999999993
 31
0.0
  0
LINE
  5
525C
  8
0
 10
235.59999999999999
 20
146.1999999999999
 30
0.0
 11
224.40000000000001
 21
146.1999999999999
 31
0.0
  0
ARC
  5
525D
  8
0
 10
224.40000000000001
 20
145.39999999999989
 30
0.0
 40
0.7999999999999901
 50
90.0
 51
180.0
  0
ARC
  5
525E
  8
0
 10
235.59999999999999
 20
145.39999999999989
 30
0.0
 40
0.7999999999999865
 50
0.0
 51
90.0
  0
LINE
  5
525F
  8
0
 10
223.59999999999999
 20
145.39999999999989
 30
0.0
 11
223.59999999999999
 21
145.0
 31
0.0
  0
LINE
  5
5260
  8
0
 10
236.40000000000001
 20
145.0
 30
0.0
 11
236.40000000000001
 21
145.39999999999989
 31
0.0
  0
LINE
  5
5262
  8
0
 10
185.59999999999999
 20
146.1999999999999
 30
0.0
 11
174.39999999999989
 21
146.1999999999999
 31
0.0
  0
ARC
  5
5263
  8
0
 10
174.39999999999989
 20
145.39999999999989
 30
0.0
 40
0.7999999999999901
 50
90.0
 51
180.0
  0
ARC
  5
5264
  8
0
 10
185.59999999999999
 20
145.39999999999989
 30
0.0
 40
0.7999999999999936
 50
0.0
 51
90.0
  0
LINE
  5
5265
  8
0
 10
173.59999999999999
 20
145.39999999999989
 30
0.0
 11
173.59999999999999
 21
145.0
 31
0.0
  0
LINE
  5
5266
  8
0
 10
186.40000000000001
 20
145.0
 30
0.0
 11
186.40000000000001
 21
145.39999999999989
 31
0.0
  0
LINE
  5
5268
  8
0
 10
170.0
 20
69.0
 30
0.0
 11
240.0
 21
69.0
 31
0.0
  0
LINE
  5
5269
  8
0
 10
170.0
 20
84.0
 30
0.0
 11
240.0
 21
84.0
 31
0.0
  0
LINE
  5
526A
  8
0
 10
224.0
 20
130.0
 30
0.0
 11
223.99999999999989
 21
84.0
 31
0.0
  0
LINE
  5
526B
  8
0
 10
240.0
 20
69.0
 30
0.0
 11
240.0
 21
84.0
 31
0.0
  0
LINE
  5
526C
  8
0
 10
170.0
 20
145.0
 30
0.0
 11
240.0
 21
145.0
 31
0.0
  0
LINE
  5
526D
  8
0
 10
170.0
 20
130.0
 30
0.0
 11
240.0
 21
130.0
 31
0.0
  0
LINE
  5
526E
  8
0
 10
240.0
 20
130.0
 30
0.0
 11
240.0
 21
145.0
 31
0.0
  0
LINE
  5
526F
  8
0
 10
186.0
 20
130.0
 30
0.0
 11
185.99999999999989
 21
84.0
 31
0.0
  0
LINE
  5
5270
  8
0
 10
170.0
 20
145.0
 30
0.0
 11
170.0
 21
130.0
 31
0.0
  0
LINE
  5
5271
  8
0
 10
170.0
 20
84.0
 30
0.0
 11
170.0
 21
69.0
 31
0.0
  0
CIRCLE
  5
52E3
  8
2
 10
205.0
 20
249.0
 30
0.0
 40
25.0
  0
LINE
  5
52E9
  8
1
 10
161.99999999999989
 20
249.0
 30
0.0
 11
248.0
 21
249.0
 31
0.0
  0
LINE
  5
52EA
  8
1
 10
204.99999999999989
 20
206.0
 30
0.0
 11
205.0
 21
292.0
 31
0.0
  0
LINE
  5
52EB
  8
1
 10
220.49444650053491
 20
224.0
 30
0.0
 11
239.50555349946509
 21
224.0
 31
0.0
  0
LINE
  5
52EC
  8
1
 10
230.0
 20
214.49444650053491
 30
0.0
 11
230.0
 21
233.50555349946509
 31
0.0
  0
LINE
  5
52ED
  8
1
 10
170.49444650053479
 20
224.0
 30
0.0
 11
189.50555349946509
 21
224.0
 31
0.0
  0
LINE
  5
52EE
  8
1
 10
180.0
 20
214.49444650053491
 30
0.0
 11
180.0
 21
233.50555349946509
 31
0.0
  0
LINE
  5
52EF
  8
1
 10
170.49444650053479
 20
274.0
 30
0.0
 11
189.50555349946509
 21
274.0
 31
0.0
  0
LINE
  5
52F0
  8
1
 10
180.0
 20
264.49444650053488
 30
0.0
 11
180.0
 21
283.50555349946512
 31
0.0
  0
LINE
  5
52F1
  8
1
 10
220.49444650053491
 20
274.0
 30
0.0
 11
239.50555349946509
 21
274.0
 31
0.0
  0
LINE
  5
52F2
  8
1
 10
230.0
 20
264.49444650053488
 30
0.0
 11
230.0
 21
283.50555349946512
 31
0.0
  0
LINE
  5
52F3
  8
0
 10
238.0
 20
230.0
 30
0.0
 11
238.0
 21
268.0
 31
0.0
  0
LINE
  5
52F4
  8
0
 10
186.5
 20
227.75277674973259
 30
0.0
 11
180.0
 21
231.50555349946509
 31
0.0
  0
ARC
  5
52F5
  8
0
 10
230.0
 20
274.0
 30
0.0
 40
10.0
 50
323.13010235415442
 51
126.8698976458429
  0
LINE
  5
52F6
  8
0
 10
224.0
 20
282.0
 30
0.0
 11
185.99999999999989
 21
282.0
 31
0.0
  0
LINE
  5
52F7
  8
0
 10
236.5
 20
227.75277674973259
 30
0.0
 11
230.0
 21
231.50555349946509
 31
0.0
  0
LINE
  5
52F8
  8
0
 10
230.0
 20
216.49444650053491
 30
0.0
 11
236.5
 21
220.2472232502675
 31
0.0
  0
ARC
  5
52F9
  8
0
 10
230.0
 20
224.0
 30
0.0
 40
10.0
 50
233.13010235415709
 51
36.86989764584564
  0
LINE
  5
52FA
  8
0
 10
180.0
 20
216.49444650053491
 30
0.0
 11
186.5
 21
220.2472232502675
 31
0.0
  0
LINE
  5
52FB
  8
0
 10
223.5
 20
277.75277674973262
 30
0.0
 11
223.5
 21
270.2472232502675
 31
0.0
  0
LINE
  5
52FC
  8
0
 10
236.5
 20
220.2472232502675
 30
0.0
 11
236.5
 21
227.75277674973259
 31
0.0
  0
LINE
  5
52FD
  8
0
 10
230.0
 20
266.49444650053488
 30
0.0
 11
236.5
 21
270.2472232502675
 31
0.0
  0
LINE
  5
52FE
  8
0
 10
236.5
 20
270.2472232502675
 30
0.0
 11
236.5
 21
277.75277674973262
 31
0.0
  0
LINE
  5
52FF
  8
0
 10
180.0
 20
281.50555349946512
 30
0.0
 11
173.49999999999989
 21
277.75277674973262
 31
0.0
  0
LINE
  5
5300
  8
0
 10
173.49999999999989
 20
220.2472232502675
 30
0.0
 11
180.0
 21
216.49444650053491
 31
0.0
  0
LINE
  5
5301
  8
0
 10
223.5
 20
227.75277674973259
 30
0.0
 11
223.5
 21
220.2472232502675
 31
0.0
  0
LINE
  5
5302
  8
0
 10
223.5
 20
270.2472232502675
 30
0.0
 11
230.0
 21
266.49444650053488
 31
0.0
  0
LINE
  5
5303
  8
0
 10
185.99999999999989
 20
216.0
 30
0.0
 11
224.0
 21
216.0
 31
0.0
  0
LINE
  5
5304
  8
0
 10
180.0
 20
231.50555349946509
 30
0.0
 11
173.49999999999989
 21
227.75277674973259
 31
0.0
  0
ARC
  5
5305
  8
0
 10
180.0
 20
274.0
 30
0.0
 40
9.9999999999999964
 50
53.130102354157053
 51
216.86989764584561
  0
LINE
  5
5306
  8
0
 10
230.0
 20
281.50555349946512
 30
0.0
 11
223.5
 21
277.75277674973262
 31
0.0
  0
LINE
  5
5307
  8
0
 10
223.5
 20
220.2472232502675
 30
0.0
 11
230.0
 21
216.49444650053491
 31
0.0
  0
ARC
  5
5308
  8
0
 10
180.0
 20
224.0
 30
0.0
 40
10.0
 50
143.1301023541543
 51
306.86989764584303
  0
LINE
  5
5309
  8
0
 10
186.5
 20
277.75277674973262
 30
0.0
 11
180.0
 21
281.50555349946512
 31
0.0
  0
LINE
  5
530A
  8
0
 10
186.5
 20
270.2472232502675
 30
0.0
 11
186.5
 21
277.75277674973262
 31
0.0
  0
LINE
  5
530B
  8
0
 10
171.99999999999989
 20
268.0
 30
0.0
 11
171.99999999999989
 21
230.0
 31
0.0
  0
LINE
  5
530C
  8
0
 10
230.0
 20
231.50555349946509
 30
0.0
 11
223.5
 21
227.75277674973259
 31
0.0
  0
LINE
  5
530D
  8
0
 10
173.49999999999989
 20
227.75277674973259
 30
0.0
 11
173.49999999999989
 21
220.2472232502675
 31
0.0
  0
LINE
  5
530E
  8
0
 10
180.0
 20
266.49444650053488
 30
0.0
 11
186.5
 21
270.2472232502675
 31
0.0
  0
LINE
  5
530F
  8
0
 10
236.5
 20
277.75277674973262
 30
0.0
 11
230.0
 21
281.50555349946512
 31
0.0
  0
LINE
  5
5310
  8
0
 10
173.49999999999989
 20
277.75277674973262
 30
0.0
 11
173.49999999999989
 21
270.2472232502675
 31
0.0
  0
LINE
  5
5311
  8
0
 10
173.49999999999989
 20
270.2472232502675
 30
0.0
 11
180.0
 21
266.49444650053488
 31
0.0
  0
LINE
  5
5312
  8
0
 10
186.5
 20
220.2472232502675
 30
0.0
 11
186.5
 21
227.75277674973259
 31
0.0
  0
LINE
  5
5313
  8
0
 10
180.0
 20
227.46410161513779
 30
0.0
 11
177.0
 21
225.7320508075689
 31
0.0
  0
LINE
  5
5315
  8
0
 10
177.0
 20
225.7320508075689
 30
0.0
 11
177.0
 21
222.26794919243119
 31
0.0
  0
LINE
  5
5316
  8
0
 10
183.0
 20
225.7320508075689
 30
0.0
 11
180.0
 21
227.46410161513779
 31
0.0
  0
LINE
  5
5317
  8
0
 10
183.0
 20
222.26794919243119
 30
0.0
 11
183.0
 21
225.7320508075689
 31
0.0
  0
LINE
  5
5318
  8
0
 10
180.0
 20
220.53589838486221
 30
0.0
 11
183.0
 21
222.26794919243119
 31
0.0
  0
LINE
  5
5319
  8
0
 10
177.0
 20
222.26794919243119
 30
0.0
 11
180.0
 21
220.53589838486221
 31
0.0
  0
LINE
  5
531A
  8
0
 10
227.0
 20
225.7320508075689
 30
0.0
 11
227.0
 21
222.26794919243119
 31
0.0
  0
LINE
  5
531C
  8
0
 10
230.0
 20
227.46410161513779
 30
0.0
 11
227.0
 21
225.7320508075689
 31
0.0
  0
LINE
  5
531D
  8
0
 10
233.0
 20
225.7320508075689
 30
0.0
 11
230.0
 21
227.46410161513779
 31
0.0
  0
LINE
  5
531E
  8
0
 10
233.0
 20
222.26794919243119
 30
0.0
 11
233.0
 21
225.7320508075689
 31
0.0
  0
LINE
  5
531F
  8
0
 10
230.0
 20
220.53589838486221
 30
0.0
 11
233.0
 21
222.26794919243119
 31
0.0
  0
LINE
  5
5320
  8
0
 10
227.0
 20
222.26794919243119
 30
0.0
 11
230.0
 21
220.53589838486221
 31
0.0
  0
LINE
  5
5322
  8
0
 10
177.0
 20
275.7320508075689
 30
0.0
 11
177.0
 21
272.26794919243122
 31
0.0
  0
LINE
  5
5323
  8
0
 10
180.0
 20
277.46410161513779
 30
0.0
 11
177.0
 21
275.7320508075689
 31
0.0
  0
LINE
  5
5324
  8
0
 10
183.0
 20
275.7320508075689
 30
0.0
 11
180.0
 21
277.46410161513779
 31
0.0
  0
LINE
  5
5325
  8
0
 10
183.0
 20
272.26794919243122
 30
0.0
 11
183.0
 21
275.7320508075689
 31
0.0
  0
LINE
  5
5326
  8
0
 10
180.0
 20
270.53589838486221
 30
0.0
 11
183.0
 21
272.26794919243122
 31
0.0
  0
LINE
  5
5327
  8
0
 10
177.0
 20
272.26794919243122
 30
0.0
 11
180.0
 21
270.53589838486221
 31
0.0
  0
LINE
  5
5329
  8
0
 10
227.0
 20
275.7320508075689
 30
0.0
 11
227.0
 21
272.26794919243122
 31
0.0
  0
LINE
  5
532A
  8
0
 10
230.0
 20
277.46410161513779
 30
0.0
 11
227.0
 21
275.7320508075689
 31
0.0
  0
LINE
  5
532B
  8
0
 10
233.0
 20
275.7320508075689
 30
0.0
 11
230.0
 21
277.46410161513779
 31
0.0
  0
LINE
  5
532C
  8
0
 10
233.0
 20
272.26794919243122
 30
0.0
 11
233.0
 21
275.7320508075689
 31
0.0
  0
LINE
  5
532D
  8
0
 10
230.0
 20
270.53589838486221
 30
0.0
 11
233.0
 21
272.26794919243122
 31
0.0
  0
LINE
  5
532E
  8
0
 10
227.0
 20
272.26794919243122
 30
0.0
 11
230.0
 21
270.53589838486221
 31
0.0
  0
LINE
  5
532F
  8
0
 10
228.0
 20
262.27905619136141
 30
0.0
 11
205.0
 21
275.55811238272281
 31
0.0
  0
LINE
  5
5330
  8
0
 10
205.0
 20
275.55811238272281
 30
0.0
 11
182.0
 21
262.27905619136141
 31
0.0
  0
LINE
  5
5331
  8
0
 10
182.0
 20
262.27905619136141
 30
0.0
 11
182.0
 21
235.72094380863859
 31
0.0
  0
LINE
  5
5332
  8
0
 10
182.0
 20
235.72094380863859
 30
0.0
 11
205.0
 21
222.44188761727719
 31
0.0
  0
LINE
  5
5333
  8
0
 10
205.0
 20
222.44188761727719
 30
0.0
 11
228.0
 21
235.72094380863859
 31
0.0
  0
LINE
  5
5334
  8
0
 10
228.0
 20
235.72094380863859
 30
0.0
 11
228.0
 21
262.27905619136141
 31
0.0
  0
CIRCLE
  5
5335
  8
0
 10
205.0
 20
249.0
 30
0.0
 40
15.1455
  0
CIRCLE
  5
533C
  8
0
 10
230.0
 20
224.0
 30
0.0
 40
6.3999999999999977
  0
CIRCLE
  5
533D
  8
0
 10
180.0
 20
224.0
 30
0.0
 40
6.3999999999999977
  0
CIRCLE
  5
533E
  8
0
 10
230.0
 20
274.0
 30
0.0
 40
6.3999999999999977
  0
CIRCLE
  5
533F
  8
0
 10
180.0
 20
274.0
 30
0.0
 40
6.3999999999999977
  0
CIRCLE
  5
5455
  8
3
 10
205.0
 20
249.0
 30
0.0
 40
16.624500000000008
  0
ENDSEC
  0
EOF
