  0
SECTION
  2
HEADER
  9
$ACADVER
  1
AC1009
  9
$INSBASE
 10
0.0
 20
0.0
 30
0.0
  9
$EXTMIN
 10
0.0
 20
0.0
 30
0.0
  9
$EXTMAX
 10
263.536069751688899
 20
104.9999941651671946
 30
0.0
  9
$LIMMIN
 10
0.0
 20
0.0
  9
$LIMMAX
 10
420.0
 20
297.0
  9
$ORTHOMODE
 70
     1
  9
$REGENMODE
 70
     1
  9
$FILLMODE
 70
     1
  9
$QTEXTMODE
 70
     0
  9
$MIRRTEXT
 70
     1
  9
$DRAGMODE
 70
     2
  9
$LTSCALE
 40
1.0
  9
$OSMODE
 70
    37
  9
$ATTMODE
 70
     1
  9
$TEXTSIZE
 40
3.5
  9
$TRACEWID
 40
1.0
  9
$TEXTSTYLE
  7
STANDARD
  9
$CLAYER
  8
0
  9
$CELTYPE
  6
BYLAYER
  9
$CECOLOR
 62
   256
  9
$DIMSCALE
 40
1.0
  9
$DIMASZ
 40
3.3019999999999992
  9
$DIMEXO
 40
1.0
  9
$DIMDLI
 40
3.75
  9
$DIMRND
 40
0.0
  9
$DIMDLE
 40
0.0
  9
$DIMEXE
 40
1.0
  9
$DIMTP
 40
0.0
  9
$DIMTM
 40
0.0
  9
$DIMTXT
 40
3.5
  9
$DIMCEN
 40
2.5
  9
$DIMTSZ
 40
0.0
  9
$DIMTOL
 70
     0
  9
$DIMLIM
 70
     0
  9
$DIMTIH
 70
     1
  9
$DIMTOH
 70
     1
  9
$DIMSE1
 70
     0
  9
$DIMSE2
 70
     0
  9
$DIMTAD
 70
     1
  9
$DIMZIN
 70
     0
  9
$DIMBLK
  1

  9
$DIMASO
 70
     1
  9
$DIMSHO
 70
     1
  9
$DIMPOST
  1

  9
$DIMAPOST
  1

  9
$DIMALT
 70
     0
  9
$DIMALTD
 70
     3
  9
$DIMALTF
 40
0.0393700787401575
  9
$DIMLFAC
 40
1.0
  9
$DIMTOFL
 70
     1
  9
$DIMTVP
 40
0.0
  9
$DIMTIX
 70
     0
  9
$DIMSOXD
 70
     0
  9
$DIMSAH
 70
     0
  9
$DIMBLK1
  1

  9
$DIMBLK2
  1

  9
$DIMSTYLE
  2
ISO-25
  9
$DIMCLRD
 70
     0
  9
$DIMCLRE
 70
     0
  9
$DIMCLRT
 70
     0
  9
$DIMTFAC
 40
1.0
  9
$DIMGAP
 40
1.524
  9
$LUNITS
 70
     2
  9
$LUPREC
 70
     3
  9
$SKETCHINC
 40
1.0
  9
$FILLETRAD
 40
0.0
  9
$AUNITS
 70
     0
  9
$AUPREC
 70
     2
  9
$MENU
  1
.
  9
$ELEVATION
 40
0.0
  9
$PELEVATION
 40
0.0
  9
$THICKNESS
 40
0.0
  9
$LIMCHECK
 70
     0
  9
$BLIPMODE
 70
     0
  9
$CHAMFERA
 40
0.0
  9
$CHAMFERB
 40
0.0
  9
$SKPOLY
 70
     0
  9
$TDCREATE
 40
2460599.6216898150742054
  9
$TDUPDATE
 40
2460745.6379629629664123
  9
$TDINDWG
 40
0.0352430671
  9
$TDUSRTIMER
 40
0.0352430671
  9
$USRTIMER
 70
     1
  9
$ANGBASE
 50
0.0
  9
$ANGDIR
 70
     0
  9
$PDMODE
 70
     0
  9
$PDSIZE
 40
-1.0
  9
$PLINEWID
 40
0.0
  9
$COORDS
 70
     1
  9
$SPLFRAME
 70
     0
  9
$SPLINETYPE
 70
     6
  9
$SPLINESEGS
 70
     8
  9
$ATTDIA
 70
     1
  9
$ATTREQ
 70
     1
  9
$HANDLING
 70
     1
  9
$HANDSEED
  5
1137
  9
$SURFTAB1
 70
     6
  9
$SURFTAB2
 70
     6
  9
$SURFTYPE
 70
     6
  9
$SURFU
 70
     6
  9
$SURFV
 70
     6
  9
$UCSNAME
  2

  9
$UCSORG
 10
0.0
 20
0.0
 30
0.0
  9
$UCSXDIR
 10
1.0
 20
0.0
 30
0.0
  9
$UCSYDIR
 10
0.0
 20
1.0
 30
0.0
  9
$PUCSNAME
  2

  9
$PUCSORG
 10
0.0
 20
0.0
 30
0.0
  9
$PUCSXDIR
 10
1.0
 20
0.0
 30
0.0
  9
$PUCSYDIR
 10
0.0
 20
1.0
 30
0.0
  9
$USERI1
 70
     0
  9
$USERI2
 70
     0
  9
$USERI3
 70
     0
  9
$USERI4
 70
     0
  9
$USERI5
 70
     0
  9
$USERR1
 40
0.0
  9
$USERR2
 40
0.0
  9
$USERR3
 40
0.0
  9
$USERR4
 40
0.0
  9
$USERR5
 40
0.0
  9
$WORLDVIEW
 70
     1
  9
$SHADEDGE
 70
     3
  9
$SHADEDIF
 70
    70
  9
$TILEMODE
 70
     1
  9
$MAXACTVP
 70
    64
  9
$PLIMCHECK
 70
     0
  9
$PEXTMIN
 10
1.0000000000000000E+20
 20
1.0000000000000000E+20
 30
1.0000000000000000E+20
  9
$PEXTMAX
 10
-1.0000000000000000E+20
 20
-1.0000000000000000E+20
 30
-1.0000000000000000E+20
  9
$PLIMMIN
 10
0.0
 20
0.0
  9
$PLIMMAX
 10
420.0
 20
297.0
  9
$UNITMODE
 70
     0
  9
$VISRETAIN
 70
     1
  9
$PLINEGEN
 70
     0
  9
$PSLTSCALE
 70
     1
  0
ENDSEC
  0
SECTION
  2
TABLES
  0
TABLE
  2
VPORT
 70
     1
  0
VPORT
  2
*ACTIVE
 70
     0
 10
0.0
 20
0.0
 11
1.0
 21
1.0
 12
134.2428785607195891
 22
57.3627724959823269
 13
0.0
 23
0.0
 14
10.0
 24
10.0
 15
10.0
 25
10.0
 16
0.0
 26
0.0
 36
1.0
 17
0.0
 27
0.0
 37
0.0
 40
114.7255449919646964
 41
2.340243902439024
 42
50.0
 43
0.0
 44
0.0
 50
0.0
 51
0.0
 71
     0
 72
  2000
 73
     1
 74
     3
 75
     0
 76
     0
 77
     0
 78
     0
  0
ENDTAB
  0
TABLE
  2
LTYPE
 70
     4
  0
LTYPE
  2
CONTINUOUS
 70
     0
  3
Solid line
 72
    65
 73
     0
 40
0.0
  0
LTYPE
  2
HIDDEN
 70
     0
  3
Hidden __ __ __ __ __ __ __ __ __ __ __ __ __ __
 72
    65
 73
     2
 40
1.905
 49
1.27
 49
-0.635
  0
LTYPE
  2
CENTER
 70
     0
  3
Center ____ _ ____ _ ____ _ ____ _ ____ _ ____
 72
    65
 73
     4
 40
10.1600000000000001
 49
6.3499999999999979
 49
-1.27
 49
1.27
 49
-1.27
  0
LTYPE
  2
PHANTOM2
 70
     0
  3
Phantom (.5x) ___ _ _ ___ _ _ ___ _ _ ___ _ _
 72
    65
 73
     6
 40
31.75
 49
15.875
 49
-3.174999999999998
 49
3.174999999999998
 49
-3.174999999999998
 49
3.174999999999998
 49
-3.174999999999998
  0
ENDTAB
  0
TABLE
  2
LAYER
 70
     5
  0
LAYER
  2
0
 70
     0
 62
     7
  6
CONTINUOUS
  0
LAYER
  2
1
 70
     0
 62
     1
  6
CENTER
  0
LAYER
  2
2
 70
     0
 62
     2
  6
HIDDEN
  0
LAYER
  2
DEFPOINTS
 70
     0
 62
     7
  6
CONTINUOUS
  0
LAYER
  2
3
 70
     0
 62
     3
  6
CONTINUOUS
  0
ENDTAB
  0
TABLE
  2
STYLE
 70
     3
  0
STYLE
  2
STANDARD
 70
     0
 40
0.0
 41
1.0
 50
0.0
 71
     0
 42
3.5
  3
txt
  4
bigfont
  0
STYLE
  2
ANNOTATIVE
 70
     0
 40
0.0
 41
1.0
 50
0.0
 71
     0
 42
0.2
  3
txt
  4

  0
STYLE
  2
STANDARD1
 70
     0
 40
0.0
 41
1.0
 50
0.0
 71
     0
 42
3.0
  3
txt
  4

  0
ENDTAB
  0
TABLE
  2
VIEW
 70
     0
  0
ENDTAB
  0
TABLE
  2
UCS
 70
     0
  0
ENDTAB
  0
TABLE
  2
APPID
 70
   133
  0
APPID
  2
ACAD
 70
     0
  0
APPID
  2
ACADANNOTATIVE
 70
     0
  0
APPID
  2
ACAD_NAV_VCDISPLAY
 70
     0
  0
APPID
  2
ACAD_EXEMPT_FROM_CAD_STANDARDS
 70
     0
  0
APPID
  2
_FTCNV
 70
     0
  0
APPID
  2
GENIUS_GENODEF_13
 70
     0
  0
APPID
  2
GENIUS_GENOENT_13
 70
     0
  0
APPID
  2
GENIUS_GENOBJ-N-CEN_13
 70
     0
  0
APPID
  2
GENIUS_GENOLIS_13
 70
     0
  0
APPID
  2
GENIUS_GENOREF_13
 70
     0
  0
APPID
  2
GENIUS_GENOBJ-N-CRS_13
 70
     0
  0
APPID
  2
GENIUS_GENOBJ-N-FIL_13
 70
     0
  0
APPID
  2
GENIUS_GENOBJ-N-REC_13
 70
     0
  0
APPID
  2
GENIUS_GENFIL_13
 70
     0
  0
APPID
  2
GENIUS_GENOBJ-N-CHA_13
 70
     0
  0
APPID
  2
ASM_BASE
 70
     0
  0
APPID
  2
_PHO
 70
     0
  0
APPID
  2
_CLP
 70
     0
  0
APPID
  2
MOJIGUMI_PARTS
 70
     0
  0
APPID
  2
_DBL
 70
     0
  0
APPID
  2
_PWH
 70
     0
  0
APPID
  2
_G9P
 70
     0
  0
APPID
  2
AME_SOL
 70
     0
  0
APPID
  2
HAKO_DEF
 70
     0
  0
APPID
  2
HAKO_TXT
 70
     0
  0
APPID
  2
HAKO_OVR
 70
     0
  0
APPID
  2
ASM_EXPLO_VER_2_00
 70
     0
  0
APPID
  2
ASM_CADM_VER_12_00
 70
     0
  0
APPID
  2
ASM_BASEFORO
 70
     0
  0
APPID
  2
ASM_BASETRAVI
 70
     0
  0
APPID
  2
ASM_BASETRAVI1
 70
     0
  0
APPID
  2
ASM_GRUPPI
 70
     0
  0
APPID
  2
ASM_CADM_ALBERO
 70
     0
  0
APPID
  2
ASM_GOLE
 70
     0
  0
APPID
  2
GENIUS_GENCFG_13
 70
     0
  0
APPID
  2
GENIUS_GENCFG0_13
 70
     0
  0
APPID
  2
GENIUS_GENCFG1_13
 70
     0
  0
APPID
  2
GENIUS_GENCFG2_13
 70
     0
  0
APPID
  2
GENIUS_GENCFG3_13
 70
     0
  0
APPID
  2
GENIUS_GENCFG4_13
 70
     0
  0
APPID
  2
GENIUS_GEVCFG0_13
 70
     0
  0
APPID
  2
GENIUS_GENHATCH_13
 70
     0
  0
APPID
  2
GENIUS_GEFCFG0_13
 70
     0
  0
APPID
  2
GENIUS_GENOBJ-N-HTC_13
 70
     0
  0
APPID
  2
DCO15
 70
     0
  0
APPID
  2
AVE_RENDER
 70
     0
  0
APPID
  2
AVE_ENTITY_MATERIAL
 70
     0
  0
APPID
  2
AVE_FINISH
 70
     0
  0
APPID
  2
AVE_MATERIAL
 70
     0
  0
APPID
  2
AVE_GLOBAL
 70
     0
  0
APPID
  2
_NUM
 70
     0
  0
APPID
  2
HAKO_FNM
 70
     0
  0
APPID
  2
_CALL_MAC$
 70
     0
  0
APPID
  2
ACA_CADIMENU
 70
     0
  0
APPID
  2
AUTOCAD_POSTSCRIPT_FIGURE
 70
     0
  0
APPID
  2
GEV_VCCNULL_SWITCH_OFF
 70
     0
  0
APPID
  2
GENIUS_GENDTOL_13
 70
     0
  0
APPID
  2
GENIUS_GEFWELD_13
 70
     0
  0
APPID
  2
GENIUS_GENOBJ-F-WELS_13
 70
     0
  0
APPID
  2
GEVID961514679
 70
     0
  0
APPID
  2
GEVDC
 70
     0
  0
APPID
  2
GEVPT
 70
     0
  0
APPID
  2
GEVIT
 70
     0
  0
APPID
  2
VCC
 70
     0
  0
APPID
  2
GENBH
 70
     0
  0
APPID
  2
GEVMK
 70
     0
  0
APPID
  2
GENIUS_GENBH_13
 70
     0
  0
APPID
  2
GENIUS_GENOBJ-NBEHI-BHF_13
 70
     0
  0
APPID
  2
GENIUS_GENOBJ-NBEHI-BHB_13
 70
     0
  0
APPID
  2
GENIUS_GENOBJ-F-DESC_13
 70
     0
  0
APPID
  2
GENIUS_GEFDESC_14
 70
     0
  0
APPID
  2
GENIUS_GENOBJ-F-PART_13
 70
     0
  0
APPID
  2
GENIUS_GEFSTDP_13
 70
     0
  0
APPID
  2
GENIUS_GEFPARTINS_13
 70
     0
  0
APPID
  2
GEVID961514680
 70
     0
  0
APPID
  2
GENIUS_GENTRA_14
 70
     0
  0
APPID
  2
GENIUS_GENINF13_13
 70
     0
  0
APPID
  2
GENIUS_GENOBJ-N-INFOPT_13
 70
     0
  0
APPID
  2
GENIUS_GENOBJ-N-RSSYM_13
 70
     0
  0
APPID
  2
GENIUS_GENSYMENT_13
 70
     0
  0
APPID
  2
GENIUS_GENSCSYM_13
 70
     0
  0
APPID
  2
GENIUS_GEFINFNAM_13
 70
     0
  0
APPID
  2
GENIUS_GENREC_14
 70
     0
  0
APPID
  2
GEVID962097543
 70
     0
  0
APPID
  2
GEVID962097544
 70
     0
  0
APPID
  2
GEVID962097545
 70
     0
  0
APPID
  2
GENIUS_DUMCFG0_13
 70
     0
  0
APPID
  2
GEVID962352965
 70
     0
  0
APPID
  2
GEVID962352966
 70
     0
  0
APPID
  2
GEVID962352968
 70
     0
  0
APPID
  2
GEVRADREF
 70
     0
  0
APPID
  2
GEVID963230099
 70
     0
  0
APPID
  2
GENIUS_GENOBJ-F-FEAT_13
 70
     0
  0
APPID
  2
GENIUS_GEFFEAT_14
 70
     0
  0
APPID
  2
GEVID963230100
 70
     0
  0
APPID
  2
GEVID963230101
 70
     0
  0
APPID
  2
GENIUS_GENHINW_13
 70
     0
  0
APPID
  2
GENIUS_FIRSTVISTXT_14
 70
     0
  0
APPID
  2
GENIUS_GENOBJ-N-LEADER_13
 70
     0
  0
APPID
  2
GEVID971698136
 70
     0
  0
APPID
  2
GEVID972029070
 70
     0
  0
APPID
  2
MCAD_NO_VIS
 70
     0
  0
APPID
  2
ACAD_TEMP_GRAPHIC
 70
     0
  0
APPID
  2
ACATTRIBSERVICES
 70
     0
  0
APPID
  2
GENIUS_GENDIMSH_14
 70
     0
  0
APPID
  2
CONTENTTABDATA
 70
     0
  0
APPID
  2
CONTENTCURRENTTAB
 70
     0
  0
APPID
  2
GENIUS_GENBLKED_14
 70
     0
  0
APPID
  2
GENIUS_GENOBJ_13
 70
     0
  0
APPID
  2
GENIUS_GENOBJ-N-TIT_13
 70
     0
  0
APPID
  2
GENIUS_GENTITLE_13
 70
     0
  0
APPID
  2
GENIUS_GENZVEED_13
 70
     0
  0
APPID
  2
GENIUS_GEFINERT_13
 70
     0
  0
APPID
  2
GENIUS_GENOBJ-F-INER_13
 70
     0
  0
APPID
  2
GENIUS_GENOBJ-N-ZOO_13
 70
     0
  0
APPID
  2
GENIUS_GENZOO_13
 70
     0
  0
APPID
  2
GENIUS_GENOBJ-F-TOL_13
 70
     0
  0
APPID
  2
GENIUS_GENOBJ-N-REV_13
 70
     0
  0
APPID
  2
GENIUS_GENREC_13
 70
     0
  0
APPID
  2
_KTH
 70
     0
  0
APPID
  2
GENIUS_GENOBJ-N-SEC_13
 70
     0
  0
APPID
  2
ACAD_MLEADERVER
 70
     0
  0
APPID
  2
ACAD_PSEXT
 70
     0
  0
APPID
  2
ACAD_DSTYLE_DIMJAG
 70
     0
  0
APPID
  2
ACAD_DSTYLE_DIMTALN
 70
     0
  0
APPID
  2
ACAD_DSTYLE_DIMBREAK
 70
     0
  0
APPID
  2
ACAECLAYERSTANDARD
 70
     0
  0
APPID
  2
ACCMTRANSPARENCY
 70
     0
  0
APPID
  2
ACAD_DSTYLE_DIM_LINETYPE
 70
     0
  0
APPID
  2
GRADIENTCOLOR1ACI
 70
     0
  0
APPID
  2
GRADIENTCOLOR2ACI
 70
     0
  0
APPID
  2
ACAD_DSTYLE_DIMRADIAL_EXTENSION
 70
     0
  0
APPID
  2
ACAD_TC
 70
     0
  0
ENDTAB
  0
TABLE
  2
DIMSTYLE
 70
     3
  0
DIMSTYLE
  2
STANDARD
 70
     0
  3

  4

  5

  6

  7

 40
1.0
 41
0.18
 42
0.0625
 43
0.38
 44
0.18
 45
0.0
 46
0.0
 47
0.0
 48
0.0
140
0.18
141
0.09
142
0.0
143
25.3999999999999986
144
1.0
145
0.0
146
1.0
147
0.09
 71
     0
 72
     0
 73
     1
 74
     1
 75
     0
 76
     0
 77
     0
 78
     0
170
     0
171
     2
172
     0
173
     0
174
     0
175
     0
176
     0
177
     0
178
     0
  0
DIMSTYLE
  2
ANNOTATIVE
 70
     0
  3

  4

  5

  6

  7

 40
1.0
 41
0.18
 42
0.0625
 43
0.38
 44
0.18
 45
0.0
 46
0.0
 47
0.0
 48
0.0
140
0.18
141
0.09
142
0.0
143
25.3999999999999986
144
1.0
145
0.0
146
1.0
147
0.09
 71
     0
 72
     0
 73
     1
 74
     1
 75
     0
 76
     0
 77
     0
 78
     0
170
     0
171
     2
172
     0
173
     0
174
     0
175
     0
176
     0
177
     0
178
     0
  0
DIMSTYLE
  2
ISO-25
 70
     0
  3

  4

  5

  6

  7

 40
1.0
 41
2.5
 42
0.625
 43
3.75
 44
1.25
 45
0.0
 46
0.0
 47
0.0
 48
0.0
140
2.5
141
2.5
142
0.0
143
0.03937007874016
144
1.0
145
0.0
146
1.0
147
0.625
 71
     0
 72
     0
 73
     0
 74
     0
 75
     0
 76
     0
 77
     1
 78
     8
170
     0
171
     3
172
     1
173
     0
174
     0
175
     0
176
     0
177
     0
178
     0
  0
ENDTAB
  0
ENDSEC
  0
SECTION
  2
BLOCKS
  0
BLOCK
  8
0
  2
$MODEL_SPACE
 70
     0
 10
0.0
 20
0.0
 30
0.0
  3
$MODEL_SPACE
  1

  0
ENDBLK
  5
DF8
  8
0
  0
BLOCK
 67
     1
  8
0
  2
$PAPER_SPACE
 70
     0
 10
0.0
 20
0.0
 30
0.0
  3
$PAPER_SPACE
  1

  0
ENDBLK
  5
DF4
 67
     1
  8
0
  0
ENDSEC
  0
SECTION
  2
ENTITIES
  0
LINE
  5
75
  8
0
 10
250.536069751688899
 20
102.5499843786163012
 30
0.0
 11
226.2702137694128055
 21
102.5499843786162018
 31
0.0
  0
LINE
  5
76
  8
0
 10
226.2702137694128055
 20
97.4499843786163069
 30
0.0
 11
250.536069751688899
 21
97.4499843786163495
 31
0.0
  0
LINE
  5
77
  8
0
 10
258.536069751688899
 20
99.9833617449235135
 30
0.0
 11
250.536069751688899
 21
99.9833617449235135
 31
0.0
  0
LINE
  5
78
  8
0
 10
250.536069751688899
 20
98.983361744923485
 30
0.0
 11
258.536069751688899
 21
98.9833617449235135
 31
0.0
  0
LINE
  5
79
  8
0
 10
258.536069751688899
 20
101.0166070123091941
 30
0.0
 11
250.536069751688899
 21
101.0166070123091941
 31
0.0
  0
LINE
  5
7A
  8
0
 10
250.536069751688899
 20
100.0166070123091941
 30
0.0
 11
258.536069751688899
 21
100.0166070123091941
 31
0.0
  0
LINE
  5
7B
  8
0
 10
260.536069751688899
 20
100.7277075123092942
 30
0.0
 11
258.536069751688899
 21
100.7277075123091947
 31
0.0
  0
LINE
  5
7C
  8
0
 10
258.536069751688899
 20
100.3055065123091936
 30
0.0
 11
260.536069751688899
 21
100.3055065123091936
 31
0.0
  0
LINE
  5
7D
  8
0
 10
260.536069751688899
 20
99.694462244923514
 30
0.0
 11
258.536069751688899
 21
99.694462244923514
 31
0.0
  0
LINE
  5
7E
  8
0
 10
258.536069751688899
 20
99.2722612449235271
 30
0.0
 11
260.536069751688899
 21
99.2722612449235271
 31
0.0
  0
LINE
  5
7F
  8
0
 10
258.536069751688899
 20
101.7472217475066003
 30
0.0
 11
250.536069751688899
 21
101.7472217475066003
 31
0.0
  0
LINE
  5
80
  8
0
 10
250.536069751688899
 20
98.2527470097261073
 30
0.0
 11
258.536069751688899
 21
98.2527470097261499
 31
0.0
  0
LINE
  5
81
  8
0
 10
260.536069751688899
 20
100.7999843786164007
 30
0.0
 11
258.536069751688899
 21
100.7999843786164007
 31
0.0
  0
LINE
  5
82
  8
0
 10
258.536069751688899
 20
99.1999843786163922
 30
0.0
 11
260.536069751688899
 21
99.1999843786163922
 31
0.0
  0
LINE
  5
83
  8
0
 10
260.536069751688899
 20
98.9638475097261505
 30
0.0
 11
258.536069751688899
 21
98.9638475097261505
 31
0.0
  0
LINE
  5
84
  8
0
 10
258.536069751688899
 20
98.5416465097261636
 30
0.0
 11
260.536069751688899
 21
98.5416465097261636
 31
0.0
  0
LINE
  5
85
  8
0
 10
260.536069751688899
 20
101.4583222475066009
 30
0.0
 11
258.536069751688899
 21
101.4583222475066009
 31
0.0
  0
LINE
  5
86
  8
0
 10
258.536069751688899
 20
101.0361212475065997
 30
0.0
 11
260.536069751688899
 21
101.0361212475065997
 31
0.0
  0
LINE
  5
A9
  8
0
 10
250.536069751688899
 20
99.9999843786163467
 30
0.0
 11
250.536069751688899
 21
102.5499843786163012
 31
0.0
  0
LINE
  5
AA
  8
0
 10
250.536069751688899
 20
97.4499843786163495
 30
0.0
 11
250.536069751688899
 21
99.9999843786163467
 31
0.0
  0
LINE
  5
AB
  8
0
 10
258.536069751688899
 20
99.4833617449235135
 30
0.0
 11
258.536069751688899
 21
99.9833617449235135
 31
0.0
  0
LINE
  5
AC
  8
0
 10
258.536069751688899
 20
98.9833617449235135
 30
0.0
 11
258.536069751688899
 21
99.4833617449235135
 31
0.0
  0
LINE
  5
AD
  8
0
 10
258.536069751688899
 20
100.5166070123091941
 30
0.0
 11
258.536069751688899
 21
101.0166070123091941
 31
0.0
  0
LINE
  5
AE
  8
0
 10
258.536069751688899
 20
100.0166070123091941
 30
0.0
 11
258.536069751688899
 21
100.5166070123091941
 31
0.0
  0
LINE
  5
B3
  8
0
 10
258.536069751688899
 20
101.2472217475065008
 30
0.0
 11
258.536069751688899
 21
101.7472217475066003
 31
0.0
  0
LINE
  5
B4
  8
0
 10
258.536069751688899
 20
101.0166070123091941
 30
0.0
 11
258.536069751688899
 21
101.2472217475065008
 31
0.0
  0
LINE
  5
B5
  8
0
 10
258.536069751688899
 20
98.7527470097261642
 30
0.0
 11
258.536069751688899
 21
98.9833617449235135
 31
0.0
  0
LINE
  5
B6
  8
0
 10
258.536069751688899
 20
98.2527470097261499
 30
0.0
 11
258.536069751688899
 21
98.7527470097261642
 31
0.0
  0
LINE
  5
B9
  8
0
 10
260.536069751688899
 20
99.1999843786163922
 30
0.0
 11
260.536069751688899
 21
100.7999843786164007
 31
0.0
  0
LINE
  5
BB
  8
0
 10
260.536069751688899
 20
98.7527470097261642
 30
0.0
 11
260.536069751688899
 21
98.9638475097261505
 31
0.0
  0
LINE
  5
BC
  8
0
 10
260.536069751688899
 20
98.5416465097261636
 30
0.0
 11
260.536069751688899
 21
98.7527470097261642
 31
0.0
  0
LINE
  5
BD
  8
0
 10
260.536069751688899
 20
101.2472217475065008
 30
0.0
 11
260.536069751688899
 21
101.4583222475066009
 31
0.0
  0
LINE
  5
BE
  8
0
 10
260.536069751688899
 20
101.0361212475065997
 30
0.0
 11
260.536069751688899
 21
101.2472217475065008
 31
0.0
  0
LINE
  5
114
  8
0
 10
250.536069751688899
 20
34.5226158763023108
 30
0.0
 11
226.2702137694128055
 21
34.5226158763022113
 31
0.0
  0
LINE
  5
115
  8
0
 10
226.2702137694128055
 20
29.4226158763021992
 30
0.0
 11
250.536069751688899
 21
29.42261587630232
 31
0.0
  0
LINE
  5
116
  8
0
 10
258.536069751688899
 20
32.9892385099951895
 30
0.0
 11
250.536069751688899
 21
32.9892385099951611
 31
0.0
  0
LINE
  5
117
  8
0
 10
250.536069751688899
 20
31.9892385099951611
 30
0.0
 11
258.536069751688899
 21
31.9892385099951895
 31
0.0
  0
LINE
  5
118
  8
0
 10
258.536069751688899
 20
31.9559932426094413
 30
0.0
 11
250.536069751688899
 21
31.9559932426094093
 31
0.0
  0
LINE
  5
119
  8
0
 10
250.536069751688899
 20
30.9559932426094093
 30
0.0
 11
258.536069751688899
 21
30.9559932426094413
 31
0.0
  0
LINE
  5
11A
  8
0
 10
260.536069751688899
 20
31.667093742609449
 30
0.0
 11
258.536069751688899
 21
31.6670937426094383
 31
0.0
  0
LINE
  5
11B
  8
0
 10
258.536069751688899
 20
31.2448927426094514
 30
0.0
 11
260.536069751688899
 21
31.2448927426094514
 31
0.0
  0
LINE
  5
11C
  8
0
 10
260.536069751688899
 20
32.7003390099951901
 30
0.0
 11
258.536069751688899
 21
32.7003390099951901
 31
0.0
  0
LINE
  5
11D
  8
0
 10
258.536069751688899
 20
32.2781380099951889
 30
0.0
 11
260.536069751688899
 21
32.2781380099952031
 31
0.0
  0
LINE
  5
11E
  8
0
 10
258.536069751688899
 20
33.7198532451925388
 30
0.0
 11
250.536069751688899
 21
33.7198532451925104
 31
0.0
  0
LINE
  5
11F
  8
0
 10
250.536069751688899
 20
30.22537850741206
 30
0.0
 11
258.536069751688899
 21
30.2253785074120884
 31
0.0
  0
LINE
  5
120
  8
0
 10
260.536069751688899
 20
32.7726158763023392
 30
0.0
 11
258.536069751688899
 21
32.7726158763023392
 31
0.0
  0
LINE
  5
121
  8
0
 10
258.536069751688899
 20
31.1726158763023484
 30
0.0
 11
260.536069751688899
 21
31.1726158763023591
 31
0.0
  0
LINE
  5
122
  8
0
 10
260.536069751688899
 20
33.4309537451925465
 30
0.0
 11
258.536069751688899
 21
33.4309537451925394
 31
0.0
  0
LINE
  5
123
  8
0
 10
258.536069751688899
 20
33.0087527451925524
 30
0.0
 11
260.536069751688899
 21
33.0087527451925524
 31
0.0
  0
LINE
  5
124
  8
0
 10
260.536069751688899
 20
30.936479007412089
 30
0.0
 11
258.536069751688899
 21
30.936479007412089
 31
0.0
  0
LINE
  5
125
  8
0
 10
258.536069751688899
 20
30.5142780074120914
 30
0.0
 11
260.536069751688899
 21
30.5142780074121092
 31
0.0
  0
LINE
  5
141
  8
0
 10
250.536069751688899
 20
29.42261587630232
 30
0.0
 11
250.536069751688899
 21
34.5226158763023108
 31
0.0
  0
LINE
  5
142
  8
0
 10
258.536069751688899
 20
31.9892385099952001
 30
0.0
 11
258.536069751688899
 21
32.9892385099951966
 31
0.0
  0
LINE
  5
143
  8
0
 10
258.536069751688899
 20
30.9559932426094484
 30
0.0
 11
258.536069751688899
 21
31.9559932426094484
 31
0.0
  0
LINE
  5
146
  8
0
 10
258.536069751688899
 20
32.9892385099951895
 30
0.0
 11
258.536069751688899
 21
33.719853245192553
 31
0.0
  0
LINE
  5
147
  8
0
 10
258.536069751688899
 20
30.22537850741206
 30
0.0
 11
258.536069751688899
 21
30.9559932426094413
 31
0.0
  0
LINE
  5
148
  8
0
 10
260.536069751688899
 20
31.1726158763023591
 30
0.0
 11
260.536069751688899
 21
32.7726158763023392
 31
0.0
  0
LINE
  5
14B
  8
0
 10
260.536069751688899
 20
33.0087527451925524
 30
0.0
 11
260.536069751688899
 21
33.4309537451925678
 31
0.0
  0
LINE
  5
14C
  8
0
 10
260.536069751688899
 20
30.5142780074121092
 30
0.0
 11
260.536069751688899
 21
30.9364790074120997
 31
0.0
  0
TEXT
  5
437
  8
0
 62
     3
 10
0.0
 20
0.0
 30
0.0
 40
10.0
  1
IMR-I/O-C-5
  7
STANDARD1
  0
LINE
  5
438
  8
0
 10
120.7702137694258937
 20
36.9726158763029389
 30
0.0
 11
106.1588475383044994
 21
36.9726158763029389
 31
0.0
  0
LINE
  5
439
  8
0
 10
96.9945563310596839
 20
26.972615876303049
 30
0.0
 11
120.7702137694257942
 21
26.9726158763029389
 31
0.0
  0
LINE
  5
43A
  8
0
 10
120.7702137694258937
 20
26.9726158763072483
 30
0.0
 11
124.270213769286002
 21
27.4023618394529684
 31
0.0
  0
LINE
  5
43B
  8
0
 10
124.270213769286002
 20
36.5428699131532682
 30
0.0
 11
120.7702137694258937
 21
36.9726158762990735
 31
0.0
  0
LINE
  5
442
  8
0
 10
105.9266132992704996
 20
39.6270662394471174
 30
0.0
 11
105.5692747540052068
 21
43.711464501621883
 31
0.0
  0
LINE
  5
443
  8
0
 10
95.6073277730876612
 20
42.8399070741448824
 30
0.0
 11
95.9646663183529967
 21
38.7555088119701168
 31
0.0
  0
LINE
  5
44A
  8
0
 10
105.6136514622009059
 20
39.1884367699359402
 30
0.0
 11
105.5779451549383054
 21
39.5965617294854084
 31
0.0
  0
LINE
  5
44B
  8
0
 10
96.313334462685134
 20
38.7860133219318115
 30
0.0
 11
96.3490407699477203
 21
38.3778883623825777
 31
0.0
  0
LINE
  5
44C
  8
0
 10
96.349040770047722
 20
38.3778883623611975
 30
0.0
 11
98.0607641021497329
 21
38.3181136664683208
 31
0.0
  0
LINE
  5
44D
  8
0
 10
103.9383128206527971
 20
38.8323325486585489
 30
0.0
 11
105.6136514621064038
 21
39.1884367698972866
 31
0.0
  0
LINE
  5
44E
  8
0
 10
105.2206066096728989
 20
43.6809599916599609
 30
0.0
 11
105.1508820154748065
 21
44.4779157501330786
 31
0.0
  0
LINE
  5
44F
  8
0
 10
95.886271323221635
 20
43.6673673425797233
 30
0.0
 11
95.955995917419699
 21
42.8704115841065914
 31
0.0
  0
LINE
  5
452
  8
0
 10
104.5033554617151026
 20
44.421264517347133
 30
0.0
 11
104.2157415106478027
 21
47.7087070210486672
 31
0.0
  0
LINE
  5
453
  8
0
 10
96.2461839259138827
 20
47.0114610790670824
 30
0.0
 11
96.53379787698114
 21
43.7240185753656689
 31
0.0
  0
LINE
  5
458
  8
0
 10
96.6938619056257949
 20
48.2050206403738386
 30
0.0
 11
96.9917832768285137
 21
47.9550349276413499
 31
0.0
  0
LINE
  5
459
  8
0
 10
103.3176196099273056
 20
48.5084738941085334
 30
0.0
 11
103.5676053226169984
 21
48.8063952653470707
 31
0.0
  0
LINE
  5
45A
  8
0
 10
103.5676053225469957
 20
48.8063952653431983
 30
0.0
 11
103.1660340982126058
 21
50.5279470512167705
 31
0.0
  0
LINE
  5
45B
  8
0
 10
96.7903880304309041
 20
49.9701502976323582
 30
0.0
 11
96.693861905695826
 21
48.2050206403829407
 31
0.0
  0
LINE
  5
45E
  8
0
 10
96.9917832769366441
 20
47.9550349276536068
 30
0.0
 11
97.0680445518398756
 21
47.0833645668341205
 31
0.0
  0
LINE
  5
45F
  8
0
 10
103.3938808847224067
 20
47.6368035332817499
 30
0.0
 11
103.3176196098192037
 21
48.5084738941014777
 31
0.0
  0
LINE
  5
462
  8
0
 10
104.0262215326862929
 20
37.827531373617731
 30
0.0
 11
103.9383128207709035
 21
38.8323325486795881
 31
0.0
  0
LINE
  5
463
  8
0
 10
98.0607641020296228
 20
38.3181136664683208
 30
0.0
 11
98.1486728139450548
 21
37.3133124914064709
 31
0.0
  0
LINE
  5
464
  8
0
 10
224.2702137694128055
 20
34.5226158763022113
 30
0.0
 11
124.2702137694128055
 21
34.5226158763022113
 31
0.0
  0
LINE
  5
465
  8
0
 10
124.2702137694128055
 20
29.4226158763021886
 30
0.0
 11
224.2702137694128055
 21
29.4226158763021886
 31
0.0
  0
LINE
  5
466
  8
0
 10
96.1064736828569721
 20
37.1346432187749471
 30
0.0
 11
96.9955358869474367
 21
26.9726157256121688
 31
0.0
  0
LINE
  5
469
  8
0
 10
106.158847616971002
 20
36.9726158416357222
 30
0.0
 11
106.0684206637745035
 21
38.0062006462513935
 31
0.0
  0
LINE
  5
46A
  8
0
 10
111.0102137694202042
 20
36.9603509856069792
 30
0.0
 11
111.0102137693939
 21
26.9848810706472513
 31
0.0
  0
LINE
  5
46B
  8
0
 10
120.7702137694258937
 20
36.9726158762995283
 30
0.0
 11
120.7702137694257942
 21
26.9726158763029389
 31
0.0
  0
LINE
  5
46E
  8
0
 10
110.7102137693623973
 20
36.2258508076321277
 30
0.0
 11
110.7102137693995019
 21
27.7193826803348884
 31
0.0
  0
LINE
  5
473
  8
0
 10
124.270213769286002
 20
36.5428699131532682
 30
0.0
 11
124.270213769286002
 21
27.4023618394529684
 31
0.0
  0
LINE
  5
480
  8
0
 10
101.3202137694128027
 20
32.8726179587464529
 30
0.0
 11
101.3202137694128027
 21
31.0726179587467186
 31
0.0
  0
LINE
  5
481
  8
0
 10
109.7702137694138003
 20
33.3726179587469005
 30
0.0
 11
101.8202137694131011
 21
33.3726179587471279
 31
0.0
  0
LINE
  5
482
  8
0
 10
110.2702137694136013
 20
31.072617918188481
 30
0.0
 11
110.2702137694136013
 21
32.8726179587467868
 31
0.0
  0
LINE
  5
483
  8
0
 10
101.8202137694135985
 20
30.572617958746271
 30
0.0
 11
109.7702137694138003
 21
30.5726179587461502
 31
0.0
  0
POLYLINE
  5
490
  8
0
 66
     1
 10
0.0
 20
0.0
 30
0.0
 70
   128
  0
VERTEX
  5
EB0
  8
0
 10
103.1050236453488935
 20
30.5726178228006802
 30
0.0
  0
VERTEX
  5
EB1
  8
0
 10
103.8868099689971984
 20
29.8562425171611494
 30
0.0
  0
VERTEX
  5
EB2
  8
0
 10
104.6061399057050068
 20
29.1970978966581889
 30
0.0
  0
VERTEX
  5
EB3
  8
0
 10
105.2435614315944008
 20
28.6130084619036289
 30
0.0
  0
VERTEX
  5
EB4
  8
0
 10
105.7818374790705036
 20
28.1197690812217616
 30
0.0
  0
VERTEX
  5
EB5
  8
0
 10
106.2064120592965963
 20
27.7307178679328707
 30
0.0
  0
SEQEND
  5
EB6
  8
0
  0
POLYLINE
  5
491
  8
0
 66
     1
 10
0.0
 20
0.0
 30
0.0
 70
     8
  0
VERTEX
  5
C84
  8
0
 10
106.2060000000000031
 20
27.7306999999999988
 30
0.0
 70
    32
  0
VERTEX
  5
C85
  8
0
 10
106.1680000000000064
 20
27.7506999999999984
 30
0.0
 70
    32
  0
VERTEX
  5
C86
  8
0
 10
106.1290000000000049
 20
27.7704999999999984
 30
0.0
 70
    32
  0
VERTEX
  5
C87
  8
0
 10
106.0879999999999939
 20
27.7900999999999989
 30
0.0
 70
    32
  0
VERTEX
  5
C88
  8
0
 10
106.0460000000000065
 20
27.8094999999999999
 30
0.0
 70
    32
  0
VERTEX
  5
C89
  8
0
 10
106.0019999999999953
 20
27.8287000000000013
 30
0.0
 70
    32
  0
VERTEX
  5
C8A
  8
0
 10
105.9579999999999984
 20
27.8476999999999997
 30
0.0
 70
    32
  0
VERTEX
  5
C8B
  8
0
 10
105.9120000000000061
 20
27.8664999999999985
 30
0.0
 70
    32
  0
VERTEX
  5
C8C
  8
0
 10
105.8649999999999949
 20
27.8851000000000013
 30
0.0
 70
    32
  0
VERTEX
  5
C8D
  8
0
 10
105.8169999999999931
 20
27.9035000000000011
 30
0.0
 70
    32
  0
VERTEX
  5
C8E
  8
0
 10
105.7669999999999959
 20
27.9217000000000013
 30
0.0
 70
    32
  0
VERTEX
  5
C8F
  8
0
 10
105.7169999999999987
 20
27.9395999999999987
 30
0.0
 70
    32
  0
VERTEX
  5
C90
  8
0
 10
105.6650000000000063
 20
27.9573
 30
0.0
 70
    32
  0
VERTEX
  5
C91
  8
0
 10
105.6119999999999948
 20
27.9747999999999983
 30
0.0
 70
    32
  0
VERTEX
  5
C92
  8
0
 10
105.5580000000000069
 20
27.9920000000000009
 30
0.0
 70
    32
  0
VERTEX
  5
C93
  8
0
 10
105.5030000000000001
 20
28.0090000000000003
 30
0.0
 70
    32
  0
VERTEX
  5
C94
  8
0
 10
105.4470000000000027
 20
28.0257000000000005
 30
0.0
 70
    32
  0
VERTEX
  5
C95
  8
0
 10
105.3889999999999958
 20
28.0421000000000014
 30
0.0
 70
    32
  0
VERTEX
  5
C96
  8
0
 10
105.3310000000000031
 20
28.0582999999999991
 30
0.0
 70
    32
  0
VERTEX
  5
C97
  8
0
 10
105.2720000000000056
 20
28.0743000000000009
 30
0.0
 70
    32
  0
VERTEX
  5
C98
  8
0
 10
105.2109999999999985
 20
28.0899000000000001
 30
0.0
 70
    32
  0
VERTEX
  5
C99
  8
0
 10
105.1500000000000057
 20
28.1052999999999997
 30
0.0
 70
    32
  0
VERTEX
  5
C9A
  8
0
 10
105.0879999999999939
 20
28.1203000000000003
 30
0.0
 70
    32
  0
VERTEX
  5
C9B
  8
0
 10
105.0240000000000009
 20
28.1351000000000013
 30
0.0
 70
    32
  0
VERTEX
  5
C9C
  8
0
 10
104.9599999999999937
 20
28.1495999999999995
 30
0.0
 70
    32
  0
VERTEX
  5
C9D
  8
0
 10
104.894999999999996
 20
28.1637999999999984
 30
0.0
 70
    32
  0
VERTEX
  5
C9E
  8
0
 10
104.8289999999999935
 20
28.1777000000000015
 30
0.0
 70
    32
  0
VERTEX
  5
C9F
  8
0
 10
104.7620000000000005
 20
28.1912999999999982
 30
0.0
 70
    32
  0
VERTEX
  5
CA0
  8
0
 10
104.6940000000000026
 20
28.2045999999999992
 30
0.0
 70
    32
  0
VERTEX
  5
CA1
  8
0
 10
104.625
 20
28.2175000000000011
 30
0.0
 70
    32
  0
VERTEX
  5
CA2
  8
0
 10
104.5559999999999974
 20
28.2302
 30
0.0
 70
    32
  0
VERTEX
  5
CA3
  8
0
 10
104.4849999999999994
 20
28.2424999999999997
 30
0.0
 70
    32
  0
VERTEX
  5
CA4
  8
0
 10
104.4140000000000015
 20
28.2545000000000002
 30
0.0
 70
    32
  0
VERTEX
  5
CA5
  8
0
 10
104.3419999999999987
 20
28.2661000000000016
 30
0.0
 70
    32
  0
VERTEX
  5
CA6
  8
0
 10
104.269999999999996
 20
28.2774000000000001
 30
0.0
 70
    32
  0
VERTEX
  5
CA7
  8
0
 10
104.1970000000000027
 20
28.2883999999999993
 30
0.0
 70
    32
  0
VERTEX
  5
CA8
  8
0
 10
104.1230000000000047
 20
28.2990999999999993
 30
0.0
 70
    32
  0
VERTEX
  5
CA9
  8
0
 10
104.0480000000000018
 20
28.3094000000000001
 30
0.0
 70
    32
  0
VERTEX
  5
CAA
  8
0
 10
103.972999999999999
 20
28.3192999999999984
 30
0.0
 70
    32
  0
VERTEX
  5
CAB
  8
0
 10
103.8970000000000056
 20
28.3289000000000009
 30
0.0
 70
    32
  0
VERTEX
  5
CAC
  8
0
 10
103.8199999999999932
 20
28.3381000000000007
 30
0.0
 70
    32
  0
VERTEX
  5
CAD
  8
0
 10
103.742999999999995
 20
28.3470000000000013
 30
0.0
 70
    32
  0
VERTEX
  5
CAE
  8
0
 10
103.6659999999999968
 20
28.3554999999999993
 30
0.0
 70
    32
  0
VERTEX
  5
CAF
  8
0
 10
103.5879999999999939
 20
28.3637000000000015
 30
0.0
 70
    32
  0
VERTEX
  5
CB0
  8
0
 10
103.5090000000000003
 20
28.3715000000000011
 30
0.0
 70
    32
  0
VERTEX
  5
CB1
  8
0
 10
103.4300000000000068
 20
28.3789000000000016
 30
0.0
 70
    32
  0
VERTEX
  5
CB2
  8
0
 10
103.3509999999999991
 20
28.3859999999999992
 30
0.0
 70
    32
  0
VERTEX
  5
CB3
  8
0
 10
103.2710000000000008
 20
28.3927000000000014
 30
0.0
 70
    32
  0
VERTEX
  5
CB4
  8
0
 10
103.1899999999999977
 20
28.3990000000000009
 30
0.0
 70
    32
  0
VERTEX
  5
CB5
  8
0
 10
103.1099999999999994
 20
28.4049000000000014
 30
0.0
 70
    32
  0
VERTEX
  5
CB6
  8
0
 10
103.0289999999999964
 20
28.410499999999999
 30
0.0
 70
    32
  0
VERTEX
  5
CB7
  8
0
 10
102.9470000000000027
 20
28.4156000000000013
 30
0.0
 70
    32
  0
VERTEX
  5
CB8
  8
0
 10
102.8659999999999997
 20
28.4204000000000008
 30
0.0
 70
    32
  0
VERTEX
  5
CB9
  8
0
 10
102.784000000000006
 20
28.4248000000000012
 30
0.0
 70
    32
  0
VERTEX
  5
CBA
  8
0
 10
102.7019999999999982
 20
28.4288999999999987
 30
0.0
 70
    32
  0
VERTEX
  5
CBB
  8
0
 10
102.6189999999999998
 20
28.432500000000001
 30
0.0
 70
    32
  0
VERTEX
  5
CBC
  8
0
 10
102.5370000000000061
 20
28.4358000000000004
 30
0.0
 70
    32
  0
VERTEX
  5
CBD
  8
0
 10
102.4539999999999935
 20
28.438600000000001
 30
0.0
 70
    32
  0
VERTEX
  5
CBE
  8
0
 10
102.3709999999999951
 20
28.4410999999999987
 30
0.0
 70
    32
  0
VERTEX
  5
CBF
  8
0
 10
102.2879999999999967
 20
28.4432000000000009
 30
0.0
 70
    32
  0
VERTEX
  5
CC0
  8
0
 10
102.2049999999999983
 20
28.4449000000000005
 30
0.0
 70
    32
  0
VERTEX
  5
CC1
  8
0
 10
102.1219999999999999
 20
28.446200000000001
 30
0.0
 70
    32
  0
VERTEX
  5
CC2
  8
0
 10
102.0390000000000015
 20
28.4470999999999989
 30
0.0
 70
    32
  0
VERTEX
  5
CC3
  8
0
 10
101.9549999999999983
 20
28.4476000000000013
 30
0.0
 70
    32
  0
VERTEX
  5
CC4
  8
0
 10
101.8719999999999999
 20
28.4478000000000009
 30
0.0
 70
    32
  0
VERTEX
  5
CC5
  8
0
 10
101.7890000000000015
 20
28.4475000000000016
 30
0.0
 70
    32
  0
VERTEX
  5
CC6
  8
0
 10
101.7060000000000031
 20
28.4468999999999994
 30
0.0
 70
    32
  0
VERTEX
  5
CC7
  8
0
 10
101.6230000000000047
 20
28.4457999999999984
 30
0.0
 70
    32
  0
VERTEX
  5
CC8
  8
0
 10
101.5400000000000063
 20
28.4444000000000017
 30
0.0
 70
    32
  0
VERTEX
  5
CC9
  8
0
 10
101.4569999999999936
 20
28.4425999999999988
 30
0.0
 70
    32
  0
VERTEX
  5
CCA
  8
0
 10
101.375
 20
28.4403000000000006
 30
0.0
 70
    32
  0
VERTEX
  5
CCB
  8
0
 10
101.2920000000000016
 20
28.4376999999999995
 30
0.0
 70
    32
  0
VERTEX
  5
CCC
  8
0
 10
101.2099999999999937
 20
28.4347999999999992
 30
0.0
 70
    32
  0
VERTEX
  5
CCD
  8
0
 10
101.1280000000000001
 20
28.4314
 30
0.0
 70
    32
  0
VERTEX
  5
CCE
  8
0
 10
101.046999999999997
 20
28.4276000000000018
 30
0.0
 70
    32
  0
VERTEX
  5
CCF
  8
0
 10
100.9650000000000034
 20
28.4235000000000007
 30
0.0
 70
    32
  0
VERTEX
  5
CD0
  8
0
 10
100.8840000000000003
 20
28.4189000000000007
 30
0.0
 70
    32
  0
VERTEX
  5
CD1
  8
0
 10
100.804000000000002
 20
28.4140000000000015
 30
0.0
 70
    32
  0
VERTEX
  5
CD2
  8
0
 10
100.722999999999999
 20
28.4086999999999996
 30
0.0
 70
    32
  0
VERTEX
  5
CD3
  8
0
 10
100.6430000000000007
 20
28.4029999999999987
 30
0.0
 70
    32
  0
VERTEX
  5
CD4
  8
0
 10
100.563999999999993
 20
28.3969999999999985
 30
0.0
 70
    32
  0
VERTEX
  5
CD5
  8
0
 10
100.4849999999999994
 20
28.3905999999999992
 30
0.0
 70
    32
  0
VERTEX
  5
CD6
  8
0
 10
100.4060000000000059
 20
28.3838000000000008
 30
0.0
 70
    32
  0
VERTEX
  5
CD7
  8
0
 10
100.328000000000003
 20
28.3765999999999998
 30
0.0
 70
    32
  0
VERTEX
  5
CD8
  8
0
 10
100.2510000000000048
 20
28.3689999999999998
 30
0.0
 70
    32
  0
VERTEX
  5
CD9
  8
0
 10
100.1740000000000066
 20
28.3611000000000004
 30
0.0
 70
    32
  0
VERTEX
  5
CDA
  8
0
 10
100.0969999999999942
 20
28.3529000000000018
 30
0.0
 70
    32
  0
VERTEX
  5
CDB
  8
0
 10
100.0210000000000008
 20
28.3442000000000007
 30
0.0
 70
    32
  0
VERTEX
  5
CDC
  8
0
 10
99.9458999999999946
 20
28.3352000000000004
 30
0.0
 70
    32
  0
VERTEX
  5
CDD
  8
0
 10
99.8713000000000051
 20
28.3259000000000007
 30
0.0
 70
    32
  0
VERTEX
  5
CDE
  8
0
 10
99.797300000000007
 20
28.3161999999999985
 30
0.0
 70
    32
  0
VERTEX
  5
CDF
  8
0
 10
99.7240000000000038
 20
28.3061000000000007
 30
0.0
 70
    32
  0
VERTEX
  5
CE0
  8
0
 10
99.6515000000000128
 20
28.2957000000000001
 30
0.0
 70
    32
  0
VERTEX
  5
CE1
  8
0
 10
99.579599999999985
 20
28.2850000000000001
 30
0.0
 70
    32
  0
VERTEX
  5
CE2
  8
0
 10
99.508499999999998
 20
28.2739000000000011
 30
0.0
 70
    32
  0
VERTEX
  5
CE3
  8
0
 10
99.4381999999999948
 20
28.2623999999999995
 30
0.0
 70
    32
  0
VERTEX
  5
CE4
  8
0
 10
99.368700000000004
 20
28.2506999999999984
 30
0.0
 70
    32
  0
VERTEX
  5
CE5
  8
0
 10
99.2998999999999938
 20
28.2386000000000017
 30
0.0
 70
    32
  0
VERTEX
  5
CE6
  8
0
 10
99.2321000000000026
 20
28.2261999999999986
 30
0.0
 70
    32
  0
VERTEX
  5
CE7
  8
0
 10
99.1650999999999954
 20
28.2134
 30
0.0
 70
    32
  0
VERTEX
  5
CE8
  8
0
 10
99.0989000000000004
 20
28.2003999999999984
 30
0.0
 70
    32
  0
VERTEX
  5
CE9
  8
0
 10
99.0336999999999961
 20
28.1870000000000012
 30
0.0
 70
    32
  0
VERTEX
  5
CEA
  8
0
 10
98.9693999999999932
 20
28.1733000000000011
 30
0.0
 70
    32
  0
VERTEX
  5
CEB
  8
0
 10
98.9060000000000059
 20
28.1593000000000018
 30
0.0
 70
    32
  0
VERTEX
  5
CEC
  8
0
 10
98.843599999999995
 20
28.1449999999999996
 30
0.0
 70
    32
  0
VERTEX
  5
CED
  8
0
 10
98.7822000000000031
 20
28.1304000000000016
 30
0.0
 70
    32
  0
VERTEX
  5
CEE
  8
0
 10
98.7216999999999985
 20
28.1156000000000006
 30
0.0
 70
    32
  0
VERTEX
  5
CEF
  8
0
 10
98.6623000000000161
 20
28.1004000000000005
 30
0.0
 70
    32
  0
VERTEX
  5
CF0
  8
0
 10
98.6038999999999959
 20
28.0849000000000011
 30
0.0
 70
    32
  0
VERTEX
  5
CF1
  8
0
 10
98.546599999999998
 20
28.0691999999999986
 30
0.0
 70
    32
  0
VERTEX
  5
CF2
  8
0
 10
98.490399999999994
 20
28.0532000000000004
 30
0.0
 70
    32
  0
VERTEX
  5
CF3
  8
0
 10
98.4351999999999947
 20
28.0368999999999993
 30
0.0
 70
    32
  0
VERTEX
  5
CF4
  8
0
 10
98.3811000000000035
 20
28.0203999999999986
 30
0.0
 70
    32
  0
VERTEX
  5
CF5
  8
0
 10
98.3281999999999954
 20
28.0035999999999987
 30
0.0
 70
    32
  0
VERTEX
  5
CF6
  8
0
 10
98.2763999999999953
 20
27.9864999999999995
 30
0.0
 70
    32
  0
VERTEX
  5
CF7
  8
0
 10
98.2258000000000209
 20
27.9692000000000007
 30
0.0
 70
    32
  0
VERTEX
  5
CF8
  8
0
 10
98.1763000000000119
 20
27.9516999999999989
 30
0.0
 70
    32
  0
VERTEX
  5
CF9
  8
0
 10
98.1280000000000143
 20
27.9339000000000013
 30
0.0
 70
    32
  0
VERTEX
  5
CFA
  8
0
 10
98.0810000000000031
 20
27.9159000000000006
 30
0.0
 70
    32
  0
VERTEX
  5
CFB
  8
0
 10
98.0351000000000141
 20
27.8977000000000004
 30
0.0
 70
    32
  0
VERTEX
  5
CFC
  8
0
 10
97.9905000000000115
 20
27.8792000000000009
 30
0.0
 70
    32
  0
VERTEX
  5
CFD
  8
0
 10
97.9471000000000203
 20
27.8604999999999983
 30
0.0
 70
    32
  0
VERTEX
  5
CFE
  8
0
 10
97.9050000000000153
 20
27.8415999999999997
 30
0.0
 70
    32
  0
VERTEX
  5
CFF
  8
0
 10
97.8640999999999934
 20
27.8226000000000013
 30
0.0
 70
    32
  0
VERTEX
  5
D00
  8
0
 10
97.8246000000000038
 20
27.8033000000000001
 30
0.0
 70
    32
  0
VERTEX
  5
D01
  8
0
 10
97.7862999999999829
 20
27.7837999999999994
 30
0.0
 70
    32
  0
VERTEX
  5
D02
  8
0
 10
97.7493000000000052
 20
27.7641999999999989
 30
0.0
 70
    32
  0
VERTEX
  5
D03
  8
0
 10
97.7137000000000029
 20
27.7442999999999991
 30
0.0
 70
    32
  0
VERTEX
  5
D04
  8
0
 10
97.6794000000000153
 20
27.7242999999999995
 30
0.0
 70
    32
  0
SEQEND
  5
D05
  8
0
  0
LINE
  5
492
  8
0
 10
96.8503979493976317
 20
37.199729026302407
 30
0.0
 11
97.6798207809559216
 21
27.7193826803710195
 31
0.0
  0
LINE
  5
493
  8
0
 10
105.3244963972438057
 20
37.9411165740931295
 30
0.0
 11
105.4745627067458003
 21
36.2258508076153021
 31
0.0
  0
LINE
  5
497
  8
0
 10
110.7102137693623973
 20
36.2258508076321277
 30
0.0
 11
105.4745627067458003
 21
36.2258508076153021
 31
0.0
  0
LINE
  5
498
  8
0
 10
97.6798207809559216
 20
27.7193826803710195
 30
0.0
 11
110.7102137693995019
 21
27.7193826803348884
 31
0.0
  0
LINE
  5
4A4
  8
0
 10
111.0102137693951931
 20
27.4993628946981197
 30
0.0
 11
97.4782097924715032
 21
27.4993628947185016
 31
0.0
  0
LINE
  5
4A5
  8
0
 10
97.4782097924715032
 20
27.4993628947185016
 30
0.0
 11
96.6312154054623988
 21
37.180553038465078
 31
0.0
  0
LINE
  5
4A8
  8
0
 10
105.6761736952292949
 20
36.4458705932561315
 30
0.0
 11
105.543678939477104
 21
37.9602925617813227
 31
0.0
  0
LINE
  5
4A9
  8
0
 10
105.6761736952292949
 20
36.4458705932561315
 30
0.0
 11
111.0102137694188968
 21
36.4458705932796505
 31
0.0
  0
POLYLINE
  5
4AB
  8
0
 66
     1
 10
0.0
 20
0.0
 30
0.0
 70
   128
  0
VERTEX
  5
EB7
  8
0
 10
97.0986377775524119
 20
27.0851320122293409
 30
0.0
  0
VERTEX
  5
EB8
  8
0
 10
97.1661211137956116
 20
27.1587773958091283
 30
0.0
  0
VERTEX
  5
EB9
  8
0
 10
97.2932176656462673
 20
27.2974791829934702
 30
0.0
  0
VERTEX
  5
EBA
  8
0
 10
97.4782097924716027
 20
27.4993628947186117
 30
0.0
  0
SEQEND
  5
EBB
  8
0
  0
LINE
  5
4B8
  8
0
 10
101.3202137694126037
 20
32.8726179139064314
 30
0.0
 11
101.3202137694128027
 21
32.8726179587464529
 31
0.0
  0
POLYLINE
  5
4C2
  8
0
 66
     1
 10
0.0
 20
0.0
 30
0.0
 70
   128
  0
VERTEX
  5
EBC
  8
0
 10
96.9955356698274613
 20
26.972615876303049
 30
0.0
  0
VERTEX
  5
EBD
  8
0
 10
97.166121113795711
 20
27.1587766020053287
 30
0.0
  0
VERTEX
  5
EBE
  8
0
 10
97.2932176656465941
 20
27.2974779098036606
 30
0.0
  0
VERTEX
  5
EBF
  8
0
 10
97.4782097924721711
 20
27.4993611593494087
 30
0.0
  0
SEQEND
  5
EC0
  8
0
  0
POLYLINE
  5
4C5
  8
0
 66
     1
 10
0.0
 20
0.0
 30
0.0
 70
   128
  0
VERTEX
  5
EC1
  8
0
 10
105.676173695231796
 20
36.4458688578890815
 30
0.0
  0
VERTEX
  5
EC2
  8
0
 10
105.8611658214181972
 20
36.6477525689172126
 30
0.0
  0
VERTEX
  5
EC3
  8
0
 10
105.9882623731108993
 20
36.7864543559291093
 30
0.0
  0
VERTEX
  5
EC4
  8
0
 10
106.1588474100036024
 20
36.9726158763029389
 30
0.0
  0
SEQEND
  5
EC5
  8
0
  0
POLYLINE
  5
4D1
  8
0
 66
     1
 10
0.0
 20
0.0
 30
0.0
 70
     8
  0
VERTEX
  5
D06
  8
0
 10
106.2049999999999983
 20
27.7319999999999993
 30
0.0
 70
    32
  0
VERTEX
  5
D07
  8
0
 10
106.1670000000000016
 20
27.7518999999999991
 30
0.0
 70
    32
  0
VERTEX
  5
D08
  8
0
 10
106.1269999999999953
 20
27.7716999999999992
 30
0.0
 70
    32
  0
VERTEX
  5
D09
  8
0
 10
106.0859999999999985
 20
27.7912999999999997
 30
0.0
 70
    32
  0
VERTEX
  5
D0A
  8
0
 10
106.0439999999999969
 20
27.8107000000000006
 30
0.0
 70
    32
  0
VERTEX
  5
D0B
  8
0
 10
106.0010000000000048
 20
27.8298999999999985
 30
0.0
 70
    32
  0
VERTEX
  5
D0C
  8
0
 10
105.9560000000000031
 20
27.8489000000000004
 30
0.0
 70
    32
  0
VERTEX
  5
D0D
  8
0
 10
105.9099999999999966
 20
27.8676999999999992
 30
0.0
 70
    32
  0
VERTEX
  5
D0E
  8
0
 10
105.8629999999999995
 20
27.8862999999999985
 30
0.0
 70
    32
  0
VERTEX
  5
D0F
  8
0
 10
105.8149999999999977
 20
27.9045999999999985
 30
0.0
 70
    32
  0
VERTEX
  5
D10
  8
0
 10
105.7660000000000053
 20
27.9227999999999987
 30
0.0
 70
    32
  0
VERTEX
  5
D11
  8
0
 10
105.7150000000000034
 20
27.9406999999999996
 30
0.0
 70
    32
  0
VERTEX
  5
D12
  8
0
 10
105.6629999999999967
 20
27.958400000000001
 30
0.0
 70
    32
  0
VERTEX
  5
D13
  8
0
 10
105.6099999999999994
 20
27.9758999999999993
 30
0.0
 70
    32
  0
VERTEX
  5
D14
  8
0
 10
105.5559999999999974
 20
27.9930999999999983
 30
0.0
 70
    32
  0
VERTEX
  5
D15
  8
0
 10
105.5010000000000048
 20
28.0100000000000016
 30
0.0
 70
    32
  0
VERTEX
  5
D16
  8
0
 10
105.4449999999999932
 20
28.0267000000000017
 30
0.0
 70
    32
  0
VERTEX
  5
D17
  8
0
 10
105.3880000000000052
 20
28.0431999999999988
 30
0.0
 70
    32
  0
VERTEX
  5
D18
  8
0
 10
105.3289999999999935
 20
28.0594000000000001
 30
0.0
 70
    32
  0
VERTEX
  5
D19
  8
0
 10
105.269999999999996
 20
28.0752999999999986
 30
0.0
 70
    32
  0
VERTEX
  5
D1A
  8
0
 10
105.2090000000000032
 20
28.0909000000000013
 30
0.0
 70
    32
  0
VERTEX
  5
D1B
  8
0
 10
105.1479999999999961
 20
28.1062000000000012
 30
0.0
 70
    32
  0
VERTEX
  5
D1C
  8
0
 10
105.0859999999999985
 20
28.1213000000000015
 30
0.0
 70
    32
  0
VERTEX
  5
D1D
  8
0
 10
105.0220000000000056
 20
28.136099999999999
 30
0.0
 70
    32
  0
VERTEX
  5
D1E
  8
0
 10
104.9579999999999984
 20
28.1506000000000007
 30
0.0
 70
    32
  0
VERTEX
  5
D1F
  8
0
 10
104.8930000000000007
 20
28.1647999999999996
 30
0.0
 70
    32
  0
VERTEX
  5
D20
  8
0
 10
104.8269999999999982
 20
28.1785999999999994
 30
0.0
 70
    32
  0
VERTEX
  5
D21
  8
0
 10
104.7600000000000051
 20
28.1921999999999997
 30
0.0
 70
    32
  0
VERTEX
  5
D22
  8
0
 10
104.6919999999999931
 20
28.2055000000000007
 30
0.0
 70
    32
  0
VERTEX
  5
D23
  8
0
 10
104.6230000000000047
 20
28.218399999999999
 30
0.0
 70
    32
  0
VERTEX
  5
D24
  8
0
 10
104.554000000000002
 20
28.2310000000000016
 30
0.0
 70
    32
  0
VERTEX
  5
D25
  8
0
 10
104.4830000000000041
 20
28.2433000000000014
 30
0.0
 70
    32
  0
VERTEX
  5
D26
  8
0
 10
104.4120000000000061
 20
28.2552999999999983
 30
0.0
 70
    32
  0
VERTEX
  5
D27
  8
0
 10
104.3400000000000034
 20
28.2669999999999995
 30
0.0
 70
    32
  0
VERTEX
  5
D28
  8
0
 10
104.2680000000000007
 20
28.2783000000000015
 30
0.0
 70
    32
  0
VERTEX
  5
D29
  8
0
 10
104.1949999999999932
 20
28.289200000000001
 30
0.0
 70
    32
  0
VERTEX
  5
D2A
  8
0
 10
104.1209999999999951
 20
28.2999000000000009
 30
0.0
 70
    32
  0
VERTEX
  5
D2B
  8
0
 10
104.0460000000000065
 20
28.3100999999999985
 30
0.0
 70
    32
  0
VERTEX
  5
D2C
  8
0
 10
103.9710000000000036
 20
28.3201000000000001
 30
0.0
 70
    32
  0
VERTEX
  5
D2D
  8
0
 10
103.894999999999996
 20
28.329699999999999
 30
0.0
 70
    32
  0
VERTEX
  5
D2E
  8
0
 10
103.8190000000000026
 20
28.3388999999999989
 30
0.0
 70
    32
  0
VERTEX
  5
D2F
  8
0
 10
103.7420000000000044
 20
28.3477999999999994
 30
0.0
 70
    32
  0
VERTEX
  5
D30
  8
0
 10
103.6640000000000015
 20
28.3563000000000009
 30
0.0
 70
    32
  0
VERTEX
  5
D31
  8
0
 10
103.5859999999999985
 20
28.3643999999999998
 30
0.0
 70
    32
  0
VERTEX
  5
D32
  8
0
 10
103.507000000000005
 20
28.3721999999999994
 30
0.0
 70
    32
  0
VERTEX
  5
D33
  8
0
 10
103.4279999999999973
 20
28.3795999999999999
 30
0.0
 70
    32
  0
VERTEX
  5
D34
  8
0
 10
103.3490000000000038
 20
28.3867000000000012
 30
0.0
 70
    32
  0
VERTEX
  5
D35
  8
0
 10
103.2690000000000055
 20
28.3933
 30
0.0
 70
    32
  0
VERTEX
  5
D36
  8
0
 10
103.188999999999993
 20
28.3995999999999995
 30
0.0
 70
    32
  0
VERTEX
  5
D37
  8
0
 10
103.1080000000000041
 20
28.4055999999999997
 30
0.0
 70
    32
  0
VERTEX
  5
D38
  8
0
 10
103.027000000000001
 20
28.4111000000000011
 30
0.0
 70
    32
  0
VERTEX
  5
D39
  8
0
 10
102.945999999999998
 20
28.4162999999999997
 30
0.0
 70
    32
  0
VERTEX
  5
D3A
  8
0
 10
102.8640000000000043
 20
28.4210999999999991
 30
0.0
 70
    32
  0
VERTEX
  5
D3B
  8
0
 10
102.7819999999999965
 20
28.4254999999999995
 30
0.0
 70
    32
  0
VERTEX
  5
D3C
  8
0
 10
102.7000000000000028
 20
28.4295000000000009
 30
0.0
 70
    32
  0
VERTEX
  5
D3D
  8
0
 10
102.617999999999995
 20
28.4330999999999996
 30
0.0
 70
    32
  0
VERTEX
  5
D3E
  8
0
 10
102.5349999999999966
 20
28.436399999999999
 30
0.0
 70
    32
  0
VERTEX
  5
D3F
  8
0
 10
102.4519999999999982
 20
28.4391999999999996
 30
0.0
 70
    32
  0
VERTEX
  5
D40
  8
0
 10
102.3700000000000045
 20
28.4417000000000009
 30
0.0
 70
    32
  0
VERTEX
  5
D41
  8
0
 10
102.2870000000000061
 20
28.4437999999999995
 30
0.0
 70
    32
  0
VERTEX
  5
D42
  8
0
 10
102.203000000000003
 20
28.4453999999999994
 30
0.0
 70
    32
  0
VERTEX
  5
D43
  8
0
 10
102.1200000000000045
 20
28.4466999999999999
 30
0.0
 70
    32
  0
VERTEX
  5
D44
  8
0
 10
102.0370000000000061
 20
28.4477000000000011
 30
0.0
 70
    32
  0
VERTEX
  5
D45
  8
0
 10
101.9539999999999935
 20
28.4481999999999999
 30
0.0
 70
    32
  0
VERTEX
  5
D46
  8
0
 10
101.8709999999999951
 20
28.4482999999999997
 30
0.0
 70
    32
  0
VERTEX
  5
D47
  8
0
 10
101.7879999999999967
 20
28.4480000000000004
 30
0.0
 70
    32
  0
VERTEX
  5
D48
  8
0
 10
101.7049999999999983
 20
28.4473999999999982
 30
0.0
 70
    32
  0
VERTEX
  5
D49
  8
0
 10
101.6219999999999999
 20
28.4463000000000008
 30
0.0
 70
    32
  0
VERTEX
  5
D4A
  8
0
 10
101.5390000000000015
 20
28.4449000000000005
 30
0.0
 70
    32
  0
VERTEX
  5
D4B
  8
0
 10
101.4560000000000031
 20
28.4431000000000012
 30
0.0
 70
    32
  0
VERTEX
  5
D4C
  8
0
 10
101.3730000000000047
 20
28.4407999999999994
 30
0.0
 70
    32
  0
VERTEX
  5
D4D
  8
0
 10
101.2909999999999968
 20
28.4381999999999984
 30
0.0
 70
    32
  0
VERTEX
  5
D4E
  8
0
 10
101.2090000000000032
 20
28.4351999999999983
 30
0.0
 70
    32
  0
VERTEX
  5
D4F
  8
0
 10
101.1269999999999953
 20
28.4318999999999988
 30
0.0
 70
    32
  0
VERTEX
  5
D50
  8
0
 10
101.0450000000000017
 20
28.4281000000000006
 30
0.0
 70
    32
  0
VERTEX
  5
D51
  8
0
 10
100.9639999999999986
 20
28.4238999999999997
 30
0.0
 70
    32
  0
VERTEX
  5
D52
  8
0
 10
100.8829999999999956
 20
28.4193999999999996
 30
0.0
 70
    32
  0
VERTEX
  5
D53
  8
0
 10
100.8020000000000067
 20
28.4145000000000003
 30
0.0
 70
    32
  0
VERTEX
  5
D54
  8
0
 10
100.7219999999999942
 20
28.4091999999999985
 30
0.0
 70
    32
  0
VERTEX
  5
D55
  8
0
 10
100.6419999999999959
 20
28.4035000000000011
 30
0.0
 70
    32
  0
VERTEX
  5
D56
  8
0
 10
100.5630000000000024
 20
28.3975000000000009
 30
0.0
 70
    32
  0
VERTEX
  5
D57
  8
0
 10
100.4839999999999947
 20
28.3909999999999982
 30
0.0
 70
    32
  0
VERTEX
  5
D58
  8
0
 10
100.4050000000000011
 20
28.3841999999999999
 30
0.0
 70
    32
  0
VERTEX
  5
D59
  8
0
 10
100.3269999999999982
 20
28.3769999999999989
 30
0.0
 70
    32
  0
VERTEX
  5
D5A
  8
0
 10
100.25
 20
28.3694999999999986
 30
0.0
 70
    32
  0
VERTEX
  5
D5B
  8
0
 10
100.1730000000000018
 20
28.3615999999999993
 30
0.0
 70
    32
  0
VERTEX
  5
D5C
  8
0
 10
100.0960000000000036
 20
28.3533000000000008
 30
0.0
 70
    32
  0
VERTEX
  5
D5D
  8
0
 10
100.019999999999996
 20
28.3446999999999996
 30
0.0
 70
    32
  0
VERTEX
  5
D5E
  8
0
 10
99.9450999999999965
 20
28.3356999999999992
 30
0.0
 70
    32
  0
VERTEX
  5
D5F
  8
0
 10
99.8705000000000069
 20
28.3262999999999998
 30
0.0
 70
    32
  0
VERTEX
  5
D60
  8
0
 10
99.7964999999999947
 20
28.3166000000000011
 30
0.0
 70
    32
  0
VERTEX
  5
D61
  8
0
 10
99.7232999999999947
 20
28.3064999999999998
 30
0.0
 70
    32
  0
VERTEX
  5
D62
  8
0
 10
99.6507000000000005
 20
28.2960999999999991
 30
0.0
 70
    32
  0
VERTEX
  5
D63
  8
0
 10
99.5789000000000044
 20
28.2853999999999992
 30
0.0
 70
    32
  0
VERTEX
  5
D64
  8
0
 10
99.5078000000000031
 20
28.2743000000000002
 30
0.0
 70
    32
  0
VERTEX
  5
D65
  8
0
 10
99.4375000000000142
 20
28.2628999999999984
 30
0.0
 70
    32
  0
VERTEX
  5
D66
  8
0
 10
99.367999999999995
 20
28.251100000000001
 30
0.0
 70
    32
  0
VERTEX
  5
D67
  8
0
 10
99.2993000000000023
 20
28.2390000000000008
 30
0.0
 70
    32
  0
VERTEX
  5
D68
  8
0
 10
99.2314999999999969
 20
28.2266000000000012
 30
0.0
 70
    32
  0
VERTEX
  5
D69
  8
0
 10
99.1645000000000039
 20
28.2138999999999989
 30
0.0
 70
    32
  0
VERTEX
  5
D6A
  8
0
 10
99.098399999999998
 20
28.200800000000001
 30
0.0
 70
    32
  0
VERTEX
  5
D6B
  8
0
 10
99.0331999999999937
 20
28.1874000000000002
 30
0.0
 70
    32
  0
VERTEX
  5
D6C
  8
0
 10
98.968900000000005
 20
28.1738
 30
0.0
 70
    32
  0
VERTEX
  5
D6D
  8
0
 10
98.9055000000000035
 20
28.1598000000000006
 30
0.0
 70
    32
  0
VERTEX
  5
D6E
  8
0
 10
98.8431000000000068
 20
28.1454999999999984
 30
0.0
 70
    32
  0
VERTEX
  5
D6F
  8
0
 10
98.7817000000000007
 20
28.1309000000000005
 30
0.0
 70
    32
  0
VERTEX
  5
D70
  8
0
 10
98.7212999999999994
 20
28.1159999999999997
 30
0.0
 70
    32
  0
VERTEX
  5
D71
  8
0
 10
98.661900000000017
 20
28.1007999999999996
 30
0.0
 70
    32
  0
VERTEX
  5
D72
  8
0
 10
98.6036000000000001
 20
28.0853999999999999
 30
0.0
 70
    32
  0
VERTEX
  5
D73
  8
0
 10
98.5463000000000022
 20
28.069700000000001
 30
0.0
 70
    32
  0
VERTEX
  5
D74
  8
0
 10
98.4899999999999949
 20
28.0536999999999992
 30
0.0
 70
    32
  0
VERTEX
  5
D75
  8
0
 10
98.434899999999999
 20
28.0374000000000017
 30
0.0
 70
    32
  0
VERTEX
  5
D76
  8
0
 10
98.3809000000000111
 20
28.0208000000000013
 30
0.0
 70
    32
  0
VERTEX
  5
D77
  8
0
 10
98.328000000000003
 20
28.0041000000000011
 30
0.0
 70
    32
  0
VERTEX
  5
D78
  8
0
 10
98.2762000000000171
 20
27.9869999999999983
 30
0.0
 70
    32
  0
VERTEX
  5
D79
  8
0
 10
98.2256000000000142
 20
27.9696999999999996
 30
0.0
 70
    32
  0
VERTEX
  5
D7A
  8
0
 10
98.1761000000000053
 20
27.9522000000000013
 30
0.0
 70
    32
  0
VERTEX
  5
D7B
  8
0
 10
98.1278999999999968
 20
27.9344000000000001
 30
0.0
 70
    32
  0
VERTEX
  5
D7C
  8
0
 10
98.0807999999999964
 20
27.9163999999999994
 30
0.0
 70
    32
  0
VERTEX
  5
D7D
  8
0
 10
98.0349999999999966
 20
27.8981999999999992
 30
0.0
 70
    32
  0
VERTEX
  5
D7E
  8
0
 10
97.9903000000000048
 20
27.8796999999999997
 30
0.0
 70
    32
  0
VERTEX
  5
D7F
  8
0
 10
97.9470000000000027
 20
27.8610000000000007
 30
0.0
 70
    32
  0
VERTEX
  5
D80
  8
0
 10
97.9048999999999978
 20
27.8421999999999983
 30
0.0
 70
    32
  0
VERTEX
  5
D81
  8
0
 10
97.8640000000000043
 20
27.8231000000000002
 30
0.0
 70
    32
  0
VERTEX
  5
D82
  8
0
 10
97.8245000000000005
 20
27.803799999999999
 30
0.0
 70
    32
  0
VERTEX
  5
D83
  8
0
 10
97.7861999999999938
 20
27.7843000000000018
 30
0.0
 70
    32
  0
VERTEX
  5
D84
  8
0
 10
97.7493000000000052
 20
27.7647000000000013
 30
0.0
 70
    32
  0
VERTEX
  5
D85
  8
0
 10
97.7136000000000138
 20
27.7449000000000012
 30
0.0
 70
    32
  0
VERTEX
  5
D86
  8
0
 10
97.6792999999999836
 20
27.7247999999999983
 30
0.0
 70
    32
  0
SEQEND
  5
D87
  8
0
  0
POLYLINE
  5
4D2
  8
0
 66
     1
 10
0.0
 20
0.0
 30
0.0
 70
   128
  0
VERTEX
  5
EC6
  8
0
 10
106.2050640634143974
 20
27.7319513213257096
 30
0.0
  0
VERTEX
  5
EC7
  8
0
 10
105.7804036637872969
 20
28.1210805944493814
 30
0.0
  0
VERTEX
  5
EC8
  8
0
 10
105.2422485644845978
 20
28.6142086305260399
 30
0.0
  0
VERTEX
  5
EC9
  8
0
 10
104.6051299746243046
 20
29.1980200366084617
 30
0.0
  0
VERTEX
  5
ECA
  8
0
 10
103.8862513054045991
 20
29.8567507966382699
 30
0.0
  0
VERTEX
  5
ECB
  8
0
 10
103.1050236453507978
 20
30.5726139298020492
 30
0.0
  0
SEQEND
  5
ECC
  8
0
  0
LINE
  5
4D5
  8
2
 10
103.2531446676126023
 20
45.5164690508973919
 30
0.0
 11
102.8173659538744005
 21
50.4974425413537205
 31
0.0
  0
LINE
  5
4D6
  8
2
 10
97.1390561747515449
 20
50.000654807692051
 30
0.0
 11
97.5748348884897041
 21
45.0196813172355021
 31
0.0
  0
LINE
  5
4D9
  8
0
 10
100.4140145723430066
 20
102.4999901376170044
 30
0.0
 11
100.0000247942124929
 21
102.4999942434372997
 31
0.0
  0
LINE
  5
4DA
  8
0
 10
99.9999752057865692
 20
97.4999942436832043
 30
0.0
 11
100.4139649839169977
 21
97.499990137862909
 31
0.0
  0
LINE
  5
4EB
  8
0
 10
100.5186163400888972
 20
103.9999948567231058
 30
0.0
 11
100.2310023890216968
 21
103.9999977091876957
 31
0.0
  0
LINE
  5
4EC
  8
0
 10
100.2309230475401023
 20
95.999997709581038
 30
0.0
 11
100.5185369986073027
 21
95.9999948571164765
 31
0.0
  0
LINE
  5
4F3
  8
0
 10
100.9456893972377998
 20
104.9999906211961047
 30
0.0
 11
100.5883508519723932
 21
104.9999941651671946
 31
0.0
  0
LINE
  5
4F4
  8
0
 10
100.5882516751205031
 20
94.9999941656590039
 30
0.0
 11
100.9455902203858955
 21
94.9999906216878145
 31
0.0
  0
LINE
  5
4F7
  8
0
 10
120.7702137694255953
 20
104.999984378610705
 30
0.0
 11
111.0102137693722995
 21
104.9999843786099945
 31
0.0
  0
LINE
  5
4F8
  8
0
 10
111.0102137694206021
 20
94.9999843786100655
 30
0.0
 11
120.7702137694262063
 21
94.9999843786106908
 31
0.0
  0
LINE
  5
4FD
  8
0
 10
120.7702137694262063
 20
94.999984378614954
 30
0.0
 11
124.270213769286201
 21
95.4297303417609442
 31
0.0
  0
LINE
  5
4FE
  8
0
 10
124.2702137692859026
 20
104.5702384154612048
 30
0.0
 11
120.7702137694257942
 21
104.999984378606797
 31
0.0
  0
LINE
  5
4FF
  8
0
 10
110.7102137693503039
 20
95.2999843785953971
 30
0.0
 11
111.0102137692788062
 21
94.9999843786099518
 31
0.0
  0
LINE
  5
502
  8
0
 10
111.0102137693151008
 20
104.9999843786469
 30
0.0
 11
110.7102137693537003
 21
104.6999843786284998
 31
0.0
  0
LINE
  5
504
  8
0
 10
110.2702137694137008
 20
95.2999843786101053
 30
0.0
 11
110.7102137693623973
 21
95.2999843786101053
 31
0.0
  0
LINE
  5
505
  8
0
 10
110.7102137693657937
 20
104.6999843786099973
 30
0.0
 11
110.2702137694131039
 21
104.6999843786098978
 31
0.0
  0
LINE
  5
507
  8
0
 10
224.2702137694128055
 20
102.5499843786163012
 30
0.0
 11
124.270213769412706
 21
102.5499843786101053
 31
0.0
  0
LINE
  5
508
  8
0
 10
124.2702137694130045
 20
97.4499843786099831
 30
0.0
 11
224.2702137694128055
 21
97.4499843786161648
 31
0.0
  0
CIRCLE
  5
50C
  8
0
 10
99.9857604963624311
 20
99.998258156531719
 30
0.0
 40
2.8467048546432929
  0
CIRCLE
  5
50D
  8
0
 10
99.9871924916059243
 20
99.998177780964852
 30
0.0
 40
3.196804980642113
  0
CIRCLE
  5
50E
  8
0
 10
100.1398612844780018
 20
99.998039429482219
 30
0.0
 40
3.4459999357023121
  0
ARC
  5
50F
  8
0
 10
100.4166625474389036
 20
99.9879949607440039
 30
0.0
 40
2.838177079228255
 50
210.1579321969709895
 51
265.5423312744225086
  0
ARC
  5
510
  8
0
 10
100.4166629787466007
 20
100.0119963391475011
 30
0.0
 40
2.838177528379493
 50
94.4565354492528684
 51
149.8425180573406976
  0
ARC
  5
516
  8
0
 10
99.993245063662485
 20
99.9999944207143017
 30
0.0
 40
2.4973364431821721
 50
7.153323944682846
 51
352.8465776994573275
  0
LINE
  5
517
  8
0
 10
102.8004119312746951
 20
99.6890061683470208
 30
0.0
 11
102.4711428921540062
 21
99.6890094339337054
 31
0.0
  0
ARC
  5
518
  8
0
 10
100.4131106949866989
 20
100.0136908130021993
 30
0.0
 40
2.4862994889142169
 50
39.6205027775113479
 51
89.9791705065745333
  0
ARC
  5
519
  8
0
 10
100.4131104112605044
 20
99.9862893772531152
 30
0.0
 40
2.486299386253719
 50
270.0196932870387059
 51
320.3768488445481921
  0
LINE
  5
51A
  8
0
 10
102.471143425997596
 20
100.3109751538517003
 30
0.0
 11
102.8004144250043055
 21
100.3109718882456036
 31
0.0
  0
ARC
  5
51B
  8
0
 10
102.5666379010395985
 20
99.9999922119279603
 30
0.0
 40
0.3253145937874213
 50
107.0703101771972996
 51
252.9295914669422132
  0
ARC
  5
51C
  8
0
 10
102.9809371739986972
 20
99.9999880989239642
 30
0.0
 40
0.3255836196177583
 50
122.8629097860172976
 51
237.1366229711597953
  0
CIRCLE
  5
51D
  8
0
 10
100.3494750533349986
 20
101.8496744729128949
 30
0.0
 40
0.3295512440866839
  0
CIRCLE
  5
51E
  8
0
 10
101.6445280561461999
 20
99.0996745215377928
 30
0.0
 40
0.3295512440866128
  0
CIRCLE
  5
51F
  8
0
 10
100.000806838562994
 20
99.9996744598227991
 30
0.0
 40
0.3295512440866839
  0
CIRCLE
  5
520
  8
0
 10
98.8053731456431166
 20
98.5496744149407959
 30
0.0
 40
0.329551244086556
  0
CIRCLE
  5
521
  8
0
 10
98.1578466470932653
 20
99.9996743906280017
 30
0.0
 40
0.3295512440866839
  0
CIRCLE
  5
522
  8
0
 10
100.349474912455193
 20
98.1496744729149526
 30
0.0
 40
0.3295512440866839
  0
CIRCLE
  5
523
  8
0
 10
101.6445281246821963
 20
100.8996745215370936
 30
0.0
 40
0.3295512440866982
  0
CIRCLE
  5
524
  8
0
 10
98.8053732560625804
 20
101.4496744149392953
 30
0.0
 40
0.3295512440865987
  0
ARC
  5
525
  8
0
 10
102.0593058744778006
 20
99.0997738816654277
 30
0.0
 40
0.3303392000403014
 50
179.9624806947959996
 51
230.8429023098086077
  0
ARC
  5
526
  8
0
 10
102.0593059098215036
 20
99.1002064653606425
 30
0.0
 40
0.3303392353500059
 50
129.1559631660821879
 51
180.0375103021376049
  0
ARC
  5
527
  8
0
 10
102.0593059430141949
 20
100.8997738816645011
 30
0.0
 40
0.3303392000404474
 50
179.9624806948204139
 51
230.8429023097135939
  0
ARC
  5
528
  8
0
 10
102.0593059783573011
 20
100.9002064653598012
 30
0.0
 40
0.3303392353495993
 50
129.1559631660115031
 51
180.0375103021767984
  0
ARC
  5
52E
  8
0
 10
100.7642527307870068
 20
98.1497738330422038
 30
0.0
 40
0.3303392000405287
 50
179.9624806948204139
 51
230.8429023097286006
  0
ARC
  5
52F
  8
0
 10
100.7642527661302978
 20
98.1502064167374328
 30
0.0
 40
0.33033923534986
 50
129.1559631660045966
 51
180.0375103021522989
  0
ARC
  5
530
  8
0
 10
100.7642528716667982
 20
101.8497738330407003
 30
0.0
 40
0.3303392000404043
 50
179.9624806948154969
 51
230.8429023097785944
  0
ARC
  5
531
  8
0
 10
100.7642529070103024
 20
101.8502064167359009
 30
0.0
 40
0.3303392353499447
 50
129.1559631660994114
 51
180.0375103021474104
  0
ARC
  5
532
  8
0
 10
100.4155846568944952
 20
99.999773819950633
 30
0.0
 40
0.3303392000403447
 50
179.9624806948204139
 51
230.842902309814491
  0
ARC
  5
533
  8
0
 10
100.4155846922380988
 20
100.0002064036458052
 30
0.0
 40
0.3303392353498834
 50
129.1559631660718139
 51
180.0375103021571874
  0
ARC
  5
53C
  8
0
 10
99.2201509639745467
 20
98.5497737750680045
 30
0.0
 40
0.3303392000400329
 50
179.9624806947959996
 51
230.8429023097473021
  0
ARC
  5
53D
  8
0
 10
99.2201509993180792
 20
98.5502063587633614
 30
0.0
 40
0.3303392353496135
 50
129.1559631660138052
 51
180.0375103021669929
  0
ARC
  5
53E
  8
0
 10
99.2201510743940531
 20
101.4497737750666033
 30
0.0
 40
0.3303392000402141
 50
179.9624806948154969
 51
230.8429023097623087
  0
ARC
  5
53F
  8
0
 10
99.2201511097380262
 20
101.4502063587617045
 30
0.0
 40
0.3303392353501986
 50
129.1559631660300909
 51
180.0375103021326879
  0
ARC
  5
545
  8
0
 10
98.5726244654248518
 20
99.9997737507557645
 30
0.0
 40
0.3303392000404206
 50
179.9624806948253024
 51
230.8429023098038897
  0
ARC
  5
546
  8
0
 10
98.5726245007683843
 20
100.000206334450894
 30
0.0
 40
0.3303392353499686
 50
129.1559631660821879
 51
180.0375103021522989
  0
CIRCLE
  5
54A
  8
0
 10
100.2415250530827961
 20
99.9978758832845216
 30
0.0
 40
3.9953416905931829
  0
ARC
  5
54B
  8
0
 10
100.5069797571050003
 20
99.9999949719343562
 30
0.0
 40
4.0000168110114673
 50
270.1655448248116045
 51
89.8333186921802564
  0
CIRCLE
  5
54F
  8
0
 10
100.5302820636560028
 20
99.9976975197526343
 30
0.0
 40
4.6440113086670891
  0
CIRCLE
  5
554
  8
0
 10
100.6014655540203933
 20
99.9976521103192226
 30
0.0
 40
4.9941383300989717
  0
ARC
  5
555
  8
0
 10
100.9309919519564005
 20
99.9999907667150012
 30
0.0
 40
5.0000214559250811
 50
270.1672833536619009
 51
89.8315801633305284
  0
LINE
  5
55E
  8
0
 10
105.5436789411780012
 20
101.9999869763158955
 30
0.0
 11
105.5107791552111962
 21
101.9999869763131954
 31
0.0
  0
LINE
  5
563
  8
0
 10
105.5107756806304025
 20
97.9999869679981117
 30
0.0
 11
105.543678939477104
 21
97.9999869725043027
 31
0.0
  0
LINE
  5
56F
  8
0
 10
110.9102137693784016
 20
99.6499865073840425
 30
0.0
 11
111.0102137694203037
 21
99.649986550878566
 31
0.0
  0
LINE
  5
570
  8
0
 10
106.0557457101491963
 20
99.6499865073849236
 30
0.0
 11
110.9102137693784016
 21
99.6499865073840425
 31
0.0
  0
LINE
  5
572
  8
0
 10
105.9187481216792008
 20
99.6499865508781113
 30
0.0
 11
111.0102137694203037
 21
99.649986550878566
 31
0.0
  0
LINE
  5
577
  8
0
 10
105.6761736952292949
 20
97.9999863192965677
 30
0.0
 11
105.543678939477104
 21
97.9999869725043027
 31
0.0
  0
LINE
  5
57E
  8
0
 10
105.676173695231796
 20
101.9999863192930007
 30
0.0
 11
105.5436789411780012
 21
101.9999869763158955
 31
0.0
  0
LINE
  5
583
  8
0
 10
110.7102137693623973
 20
97.999986223846264
 30
0.0
 11
105.5107753570921005
 21
97.9999862238491062
 31
0.0
  0
LINE
  5
584
  8
0
 10
105.6761736952292949
 20
97.9999863192965677
 30
0.0
 11
111.0102137694204032
 21
97.999986319296994
 31
0.0
  0
LINE
  5
585
  8
0
 10
111.0102137694264997
 20
104.9999843786099945
 30
0.0
 11
111.0102137694201048
 21
100.3499865425032027
 31
0.0
  0
LINE
  5
586
  8
0
 10
111.0102137694203037
 20
99.649986550878566
 30
0.0
 11
111.0102137694206021
 21
94.9999843786100655
 31
0.0
  0
LINE
  5
587
  8
0
 10
120.7702137694255953
 20
104.9999843786073939
 30
0.0
 11
120.7702137694262063
 21
94.9999843786163467
 31
0.0
  0
LINE
  5
588
  8
0
 10
111.0102137694201048
 20
100.3499865425032027
 30
0.0
 11
105.9187487139328994
 21
100.3499865425027053
 31
0.0
  0
LINE
  5
58E
  8
0
 10
124.2702137692859026
 20
104.5702384154610058
 30
0.0
 11
124.270213769286201
 21
95.4297303417607736
 31
0.0
  0
LINE
  5
58F
  8
0
 10
110.7102137693623973
 20
97.999986223846264
 30
0.0
 11
110.7102137694167965
 21
95.2999843785288334
 31
0.0
  0
LINE
  5
596
  8
0
 10
110.7102137694162991
 20
104.6999843786912976
 30
0.0
 11
110.7102137694007951
 21
101.9999862238436066
 31
0.0
  0
LINE
  5
598
  8
0
 10
111.0102137694224069
 20
101.9999863192926028
 30
0.0
 11
105.676173695231796
 21
101.9999863192930007
 31
0.0
  0
LINE
  5
59C
  8
0
 10
103.1440381366745953
 20
95.513338131154967
 30
0.0
 11
109.7702137694135018
 21
95.5133381311554359
 31
0.0
  0
LINE
  5
59D
  8
0
 10
109.7702137694131039
 20
104.4866318408241028
 30
0.0
 11
103.1440616402964991
 21
104.4866318408236054
 31
0.0
  0
LINE
  5
5A3
  8
0
 10
110.2702137694131039
 20
104.6130098069366028
 30
0.0
 11
110.2702137694131039
 21
104.7999847690870041
 31
0.0
  0
POLYLINE
  5
5A4
  8
0
 66
     1
 10
0.0
 20
0.0
 30
0.0
 70
   128
  0
VERTEX
  5
ECD
  8
0
 10
109.7702137694131039
 20
104.7999849860080985
 30
0.0
  0
VERTEX
  5
ECE
  8
0
 10
109.8677589304213029
 20
104.7999849818400975
 30
0.0
  0
VERTEX
  5
ECF
  8
0
 10
109.9615554855957953
 20
104.7999849694959948
 30
0.0
  0
VERTEX
  5
ED0
  8
0
 10
110.0479988859232066
 20
104.7999849494503053
 30
0.0
  0
VERTEX
  5
ED1
  8
0
 10
110.1237671600066932
 20
104.7999849224733993
 30
0.0
  0
VERTEX
  5
ED2
  8
0
 10
110.1859485755647938
 20
104.7999848896019017
 30
0.0
  0
VERTEX
  5
ED3
  8
0
 10
110.2321535356690987
 20
104.7999848520991009
 30
0.0
  0
VERTEX
  5
ED4
  8
0
 10
110.2606064096149936
 20
104.7999848114062047
 30
0.0
  0
VERTEX
  5
ED5
  8
0
 10
110.2702137694131039
 20
104.7999847690870041
 30
0.0
  0
SEQEND
  5
ED6
  8
0
  0
LINE
  5
5A5
  8
0
 10
110.2702137694137008
 20
95.1999847690502605
 30
0.0
 11
110.2702137694137008
 21
95.386959735156978
 31
0.0
  0
POLYLINE
  5
5A6
  8
0
 66
     1
 10
0.0
 20
0.0
 30
0.0
 70
   128
  0
VERTEX
  5
ED7
  8
0
 10
109.7702137694138003
 20
95.1999849859710139
 30
0.0
  0
VERTEX
  5
ED8
  8
0
 10
109.8677589304218003
 20
95.1999849818028991
 30
0.0
  0
VERTEX
  5
ED9
  8
0
 10
109.9615554855963069
 20
95.1999849694588391
 30
0.0
  0
VERTEX
  5
EDA
  8
0
 10
110.0479988859236045
 20
95.1999849494131922
 30
0.0
  0
VERTEX
  5
EDB
  8
0
 10
110.1237671600071053
 20
95.1999849224362862
 30
0.0
  0
VERTEX
  5
EDC
  8
0
 10
110.1859485755651065
 20
95.1999848895647887
 30
0.0
  0
VERTEX
  5
EDD
  8
0
 10
110.2321535356693971
 20
95.1999848520619878
 30
0.0
  0
VERTEX
  5
EDE
  8
0
 10
110.2606064096154057
 20
95.1999848113690632
 30
0.0
  0
VERTEX
  5
EDF
  8
0
 10
110.2702137694137008
 20
95.1999847690502605
 30
0.0
  0
SEQEND
  5
EE0
  8
0
  0
LINE
  5
5A9
  8
0
 10
109.7702137694138003
 20
95.1999849859710139
 30
0.0
 11
102.3402927762864039
 21
95.1999849859710139
 31
0.0
  0
LINE
  5
5AA
  8
0
 10
110.2702137694137008
 20
95.1999839881336953
 30
0.0
 11
110.2702137694137008
 21
95.1999847690502605
 31
0.0
  0
POLYLINE
  5
5AB
  8
0
 66
     1
 10
0.0
 20
0.0
 30
0.0
 70
   128
  0
VERTEX
  5
EE1
  8
0
 10
110.2702137694137008
 20
95.1999839881336953
 30
0.0
  0
VERTEX
  5
EE2
  8
0
 10
110.2606064026918062
 20
95.1999839458144237
 30
0.0
  0
VERTEX
  5
EE3
  8
0
 10
110.2321535240285044
 20
95.1999839051214849
 30
0.0
  0
VERTEX
  5
EE4
  8
0
 10
110.1859485614817942
 20
95.199983867618684
 30
0.0
  0
VERTEX
  5
EE5
  8
0
 10
110.1237671456674008
 20
95.1999838347471581
 30
0.0
  0
VERTEX
  5
EE6
  8
0
 10
110.0479988732773933
 20
95.1999838077702094
 30
0.0
  0
VERTEX
  5
EE7
  8
0
 10
109.9615554762283978
 20
95.1999837877245199
 30
0.0
  0
VERTEX
  5
EE8
  8
0
 10
109.8677589254492943
 20
95.1999837753804741
 30
0.0
  0
VERTEX
  5
EE9
  8
0
 10
109.7702137694138003
 20
95.1999837712120041
 30
0.0
  0
SEQEND
  5
EEA
  8
0
  0
LINE
  5
5AC
  8
0
 10
102.340288627176804
 20
95.1999837712116488
 30
0.0
 11
109.7702137694138003
 21
95.1999837712120041
 31
0.0
  0
LINE
  5
5B1
  8
0
 10
102.3403319955675954
 20
104.7999849860077006
 30
0.0
 11
109.7702137694131039
 21
104.7999849860080985
 31
0.0
  0
LINE
  5
5B3
  8
0
 10
103.1660340982126058
 20
50.5279470512167705
 30
0.0
 11
96.7903880304309041
 21
49.9701502976323582
 31
0.0
  0
LINE
  5
5B4
  8
2
 10
97.5095132547701837
 20
49.7821106431357521
 30
0.0
 11
102.4711428921539067
 21
50.2161972588581804
 31
0.0
  0
LINE
  5
5B5
  8
2
 10
97.5748348884897041
 20
45.0196813172355021
 30
0.0
 11
103.2531446676126023
 21
45.5164690508973919
 31
0.0
  0
LINE
  5
5B6
  8
2
 10
97.5095132547616004
 20
49.7821106432340201
 30
0.0
 11
97.9235030328218414
 21
45.0501858271971969
 31
0.0
  0
LINE
  5
5B7
  8
2
 10
102.4711428921451954
 20
50.2161972589564627
 30
0.0
 11
102.8851326936339063
 21
45.484272175132439
 31
0.0
  0
LINE
  5
5B8
  8
0
 10
103.5676053225616045
 20
48.8063952652810329
 30
0.0
 11
96.6938619056257949
 21
48.2050206403738386
 31
0.0
  0
LINE
  5
5B9
  8
0
 10
103.317619609828796
 20
48.5084738939912015
 30
0.0
 11
96.9917832769463644
 21
47.9550349275424281
 31
0.0
  0
LINE
  5
5BA
  8
0
 10
104.2157415106478027
 20
47.7087070210486672
 30
0.0
 11
96.2461839259138827
 21
47.0114610790670824
 31
0.0
  0
LINE
  5
5BB
  8
0
 10
105.1508820154748065
 20
44.4779157501330786
 30
0.0
 11
95.886271323221635
 21
43.6673673425797233
 31
0.0
  0
LINE
  5
5BC
  8
0
 10
105.5692747540052068
 20
43.711464501621883
 30
0.0
 11
95.6073277730876612
 21
42.8399070741448824
 31
0.0
  0
LINE
  5
5BD
  8
0
 10
105.9266132992704996
 20
39.6270662394471174
 30
0.0
 11
95.9646663183529967
 21
38.7555088119701168
 31
0.0
  0
LINE
  5
5BE
  8
0
 10
103.9383128206527971
 20
38.8323325486585489
 30
0.0
 11
98.0607641021497329
 21
38.3181136664683208
 31
0.0
  0
LINE
  5
5BF
  8
0
 10
96.3490407699477203
 20
38.3778883623825777
 30
0.0
 11
105.6136514621064038
 21
39.1884367698972866
 31
0.0
  0
LINE
  5
5C0
  8
0
 10
106.0684206637745035
 20
38.0062006462513935
 30
0.0
 11
96.1064736828569721
 21
37.1346432187749471
 31
0.0
  0
LINE
  5
5C2
  8
0
 10
55.0000093785562285
 20
39.1912918641337527
 30
0.0
 11
55.0000058345850604
 21
43.2756901263085183
 31
0.0
  0
LINE
  5
5C3
  8
0
 10
45.0000058345886913
 20
43.2756814494582471
 30
0.0
 11
45.0000093785598523
 21
39.1912831872834886
 31
0.0
  0
LINE
  5
5C4
  8
0
 10
54.6500058345851585
 20
43.2756898226186308
 30
0.0
 11
54.6500051430786016
 21
44.0726455810917628
 31
0.0
  0
LINE
  5
5C5
  8
0
 10
45.3500051430820506
 20
44.0726375116210392
 30
0.0
 11
45.3500058345886714
 21
43.2756817531479072
 31
0.0
  0
LINE
  5
5C6
  8
0
 10
54.000005143078802
 20
44.0726450170964696
 30
0.0
 11
54.0000022906141268
 21
47.3600875207979328
 31
0.0
  0
LINE
  5
5C7
  8
0
 10
46.0000022906170827
 20
47.3600805793178097
 30
0.0
 11
46.0000051430816868
 21
44.0726380756163323
 31
0.0
  0
LINE
  5
5C8
  8
0
 10
54.6500097326800827
 20
38.7831666008945604
 30
0.0
 11
54.6500095175419531
 21
39.0311115698463027
 31
0.0
  0
LINE
  5
5C9
  8
0
 10
45.3500095175407267
 20
39.0311088765656677
 30
0.0
 11
45.3500097326835885
 21
38.7831585314238367
 31
0.0
  0
LINE
  5
5CA
  8
0
 10
46.5632302917380727
 20
48.4793982397234799
 30
0.0
 11
46.8371760442863518
 21
48.2075418487848424
 31
0.0
  0
LINE
  5
5CB
  8
0
 10
53.1628270662870506
 20
48.2075473374573633
 30
0.0
 11
53.4367723470635383
 21
48.4794042037927966
 31
0.0
  0
LINE
  5
5CC
  8
0
 10
53.449731821384141
 20
48.5094690505866311
 30
0.0
 11
53.1997498358900884
 21
50.2525372288347398
 31
0.0
  0
LINE
  5
5CD
  8
0
 10
46.8002497258692571
 20
50.2525316760844021
 30
0.0
 11
46.5502707652438374
 21
48.5094630640276065
 31
0.0
  0
LINE
  5
5CF
  8
0
 10
45.3000131928218792
 20
37.5704198934545275
 30
0.0
 11
45.3000171506057967
 21
28.4477656672672801
 31
0.0
  0
LINE
  5
5D0
  8
0
 10
54.7000171506185708
 20
28.4477697453876317
 30
0.0
 11
54.700013192823242
 21
37.5704239715730566
 31
0.0
  0
LINE
  5
5D2
  8
0
 10
46.8250015342813768
 20
48.2317516559775328
 30
0.0
 11
46.8250022906166805
 21
47.3600812951579968
 31
0.0
  0
LINE
  5
5D3
  8
0
 10
53.1750022906143087
 20
47.3600868049578523
 30
0.0
 11
53.1750015342789624
 21
48.2317571657774167
 31
0.0
  0
LINE
  5
5D4
  8
0
 10
47.0500100238880421
 20
38.4475486933236112
 30
0.0
 11
47.0500107849588929
 21
37.5704206429548506
 31
0.0
  0
LINE
  5
5D6
  8
0
 10
55.00001560067534
 20
39.1912875257102087
 30
0.0
 11
55.0000156006753969
 21
43.2756857878864523
 31
0.0
  0
LINE
  5
5D7
  8
0
 10
45.0000156006753969
 20
43.275685787886502
 30
0.0
 11
45.0000156006753187
 21
39.1912875257103224
 31
0.0
  0
LINE
  5
5D8
  8
0
 10
54.6500156006753812
 20
38.7831625661597172
 30
0.0
 11
54.6500156006753812
 21
39.0311129113026212
 31
0.0
  0
LINE
  5
5D9
  8
0
 10
45.3500156006753627
 20
39.0311129113026709
 30
0.0
 11
45.3500156006753627
 21
38.7831625661597812
 31
0.0
  0
LINE
  5
5DA
  8
0
 10
54.6500156006753812
 20
43.4358604022941108
 30
0.0
 11
54.6500156006753812
 21
44.0726415463599324
 31
0.0
  0
LINE
  5
5DB
  8
0
 10
54.0000156006753969
 20
44.2793035998299729
 30
0.0
 11
54.0000156006753969
 21
47.3600840500628095
 31
0.0
  0
LINE
  5
5DC
  8
0
 10
52.9500107849590904
 20
37.570423222069401
 30
0.0
 11
52.9500156006753926
 21
38.4475545507645009
 31
0.0
  0
LINE
  5
5DD
  8
0
 10
53.1750015448168796
 20
48.2196123006084392
 30
0.0
 11
53.1750156006754011
 21
48.2196262492883534
 31
0.0
  0
LINE
  5
5DE
  8
0
 10
53.4497461287288615
 20
48.509466057298809
 30
0.0
 11
53.1997656556752503
 21
50.2525344525172386
 31
0.0
  0
LINE
  5
5DF
  8
0
 10
53.1750156006754011
 20
47.572131930284911
 30
0.0
 11
53.1750156006754011
 21
48.2196429528833619
 31
0.0
  0
ARC
  5
5E0
  8
0
 10
51.1536635340973973
 20
56.5125635747064621
 30
0.0
 40
13.6908450076052297
 50
265.166244853874673
 51
265.1662502109115849
  0
ARC
  5
5E1
  8
0
 10
51.1536635340973973
 20
56.5125635747064621
 30
0.0
 40
13.6908450076052297
 50
276.4617222534718053
 51
284.7959918637379815
  0
ARC
  5
5E2
  8
0
 10
48.8463245797873284
 20
56.5125558682769906
 30
0.0
 40
13.69083931348991
 50
255.2041038010029865
 51
263.5383740438030031
  0
POLYLINE
  5
5E3
  8
0
 66
     1
 10
0.0
 20
0.0
 30
0.0
 70
   128
  0
VERTEX
  5
EEB
  8
0
 10
50.0000058345865313
 20
42.8399070741449535
 30
0.0
  0
VERTEX
  5
EEC
  8
0
 10
49.05374961278482
 20
42.8477813483918268
 30
0.0
  0
VERTEX
  5
EED
  8
0
 10
48.1416935562856025
 20
42.871121203976152
 30
0.0
  0
VERTEX
  5
EEE
  8
0
 10
47.2968017473095301
 20
42.9090830777055174
 30
0.0
  0
VERTEX
  5
EEF
  8
0
 10
46.5496107771772216
 20
42.9602949285548377
 30
0.0
  0
VERTEX
  5
EF0
  8
0
 10
45.9271260743363285
 20
43.0229058268030684
 30
0.0
  0
VERTEX
  5
EF1
  8
0
 10
45.4518458578156128
 20
43.0946528514566012
 30
0.0
  0
VERTEX
  5
EF2
  8
0
 10
45.1409479929706094
 20
43.1729428781092608
 30
0.0
  0
VERTEX
  5
EF3
  8
0
 10
45.0056691386733334
 20
43.2549463012152202
 30
0.0
  0
VERTEX
  5
EF4
  8
0
 10
45.0508986251837129
 20
43.3376993034055999
 30
0.0
  0
VERTEX
  5
EF5
  8
0
 10
45.2750017410149326
 20
43.4182109755703323
 30
0.0
  0
VERTEX
  5
EF6
  8
0
 10
45.3500156006753627
 20
43.4358585518295968
 30
0.0
  0
SEQEND
  5
EF7
  8
0
  0
POLYLINE
  5
5E4
  8
0
 66
     1
 10
0.0
 20
0.0
 30
0.0
 70
   128
  0
VERTEX
  5
EF8
  8
0
 10
54.6500156006753812
 20
43.4358622527350917
 30
0.0
  0
VERTEX
  5
EF9
  8
0
 10
54.725009928158201
 20
43.4182191129154873
 30
0.0
  0
VERTEX
  5
EFA
  8
0
 10
54.9491130439894278
 20
43.3377078266984199
 30
0.0
  0
VERTEX
  5
EFB
  8
0
 10
54.9943425304998001
 20
43.2549549024017779
 30
0.0
  0
VERTEX
  5
EFC
  8
0
 10
54.8590636762024815
 20
43.1729512463201672
 30
0.0
  0
VERTEX
  5
EFD
  8
0
 10
54.5481658113574781
 20
43.0946606842429603
 30
0.0
  0
VERTEX
  5
EFE
  8
0
 10
54.0728855948367269
 20
43.0229128410676367
 30
0.0
  0
VERTEX
  5
EFF
  8
0
 10
53.4504008919957982
 20
42.9603008707836622
 30
0.0
  0
VERTEX
  5
F00
  8
0
 10
52.7032099218634897
 20
42.9090877331310523
 30
0.0
  0
VERTEX
  5
F01
  8
0
 10
51.8583181128874386
 20
42.8711244043391773
 30
0.0
  0
VERTEX
  5
F02
  8
0
 10
50.9462620563882069
 20
42.8477829780228916
 30
0.0
  0
VERTEX
  5
F03
  8
0
 10
50.0000058345865313
 20
42.8399070741449535
 30
0.0
  0
SEQEND
  5
F04
  8
0
  0
POLYLINE
  5
5E5
  8
0
 66
     1
 10
0.0
 20
0.0
 30
0.0
 70
   128
  0
VERTEX
  5
F05
  8
0
 10
50.0000093785578628
 20
38.7555088119701807
 30
0.0
  0
VERTEX
  5
F06
  8
0
 10
49.0537531567561587
 20
38.7633830862170612
 30
0.0
  0
VERTEX
  5
F07
  8
0
 10
48.1416971002569198
 20
38.7867229418013721
 30
0.0
  0
VERTEX
  5
F08
  8
0
 10
47.2968052912808616
 20
38.8246848155307589
 30
0.0
  0
VERTEX
  5
F09
  8
0
 10
46.5496143211485602
 20
38.875896666380072
 30
0.0
  0
VERTEX
  5
F0A
  8
0
 10
45.9271296183076672
 20
38.9385075646283667
 30
0.0
  0
VERTEX
  5
F0B
  8
0
 10
45.4518494017869301
 20
39.0102545892818284
 30
0.0
  0
VERTEX
  5
F0C
  8
0
 10
45.140951536941941
 20
39.088544615934552
 30
0.0
  0
VERTEX
  5
F0D
  8
0
 10
45.005672682644672
 20
39.1705480390404617
 30
0.0
  0
VERTEX
  5
F0E
  8
0
 10
45.0000093785596817
 20
39.1912831872834886
 30
0.0
  0
SEQEND
  5
F0F
  8
0
  0
ARC
  5
5E6
  8
0
 10
51.3007461245894802
 20
52.7332660328404401
 30
0.0
 40
14.0381484893153399
 50
264.6835026052203261
 51
285.2787348619762042
  0
ARC
  5
5E7
  8
0
 10
51.0992855472069181
 20
54.2328272682370311
 30
0.0
 40
10.5661477157129404
 50
264.0282581078848239
 51
264.0282661555314121
  0
ARC
  5
5E8
  8
0
 10
51.0992855472069181
 20
54.2328272682370311
 30
0.0
 40
10.5661477157129404
 50
275.3171607299242964
 51
285.933979359312616
  0
ARC
  5
5E9
  8
0
 10
48.9007066512918982
 20
54.232822036406148
 30
0.0
 40
10.5661443940930706
 50
254.0661174991597875
 51
264.6829361234309772
  0
POLYLINE
  5
5EA
  8
0
 66
     1
 10
0.0
 20
0.0
 30
0.0
 70
   128
  0
VERTEX
  5
F10
  8
0
 10
50.0000051430801591
 20
43.6673673425797233
 30
0.0
  0
VERTEX
  5
F11
  8
0
 10
49.0928351457055214
 20
43.6751537916064621
 30
0.0
  0
VERTEX
  5
F12
  8
0
 10
48.2205271825831687
 20
43.6982154721344926
 30
0.0
  0
VERTEX
  5
F13
  8
0
 10
47.4166035595399578
 20
43.7356661367144071
 30
0.0
  0
VERTEX
  5
F14
  8
0
 10
46.7119586105639328
 20
43.7860665773088726
 30
0.0
  0
VERTEX
  5
F15
  8
0
 10
46.1336714458747679
 20
43.8474799332507104
 30
0.0
  0
VERTEX
  5
F16
  8
0
 10
45.7039653169042595
 20
43.9175461237120928
 30
0.0
  0
VERTEX
  5
F17
  8
0
 10
45.4393535892068527
 20
43.993572544287197
 30
0.0
  0
VERTEX
  5
F18
  8
0
 10
45.3500051430818871
 20
44.0726375422694332
 30
0.0
  0
VERTEX
  5
F19
  8
0
 10
45.4393535892068527
 20
44.1517026941264703
 30
0.0
  0
VERTEX
  5
F1A
  8
0
 10
45.7039653169043092
 20
44.2277295704127269
 30
0.0
  0
VERTEX
  5
F1B
  8
0
 10
46.0000156006753826
 20
44.2793016929797929
 30
0.0
  0
SEQEND
  5
F1C
  8
0
  0
POLYLINE
  5
5EB
  8
0
 66
     1
 10
0.0
 20
0.0
 30
0.0
 70
   128
  0
VERTEX
  5
F1D
  8
0
 10
54.0000156006753969
 20
44.2793055066752004
 30
0.0
  0
VERTEX
  5
F1E
  8
0
 10
54.2960449692560516
 20
44.2277369690007589
 30
0.0
  0
VERTEX
  5
F1F
  8
0
 10
54.5606566969535223
 20
44.151710548425612
 30
0.0
  0
VERTEX
  5
F20
  8
0
 10
54.650005143078431
 20
44.0726455504434398
 30
0.0
  0
VERTEX
  5
F21
  8
0
 10
54.5606566969534583
 20
43.9935803985864027
 30
0.0
  0
VERTEX
  5
F22
  8
0
 10
54.2960449692560019
 20
43.9175535223001674
 30
0.0
  0
VERTEX
  5
F23
  8
0
 10
53.8663388402854935
 20
43.8474865918039995
 30
0.0
  0
VERTEX
  5
F24
  8
0
 10
53.2880516755963072
 20
43.7860722399430031
 30
0.0
  0
VERTEX
  5
F25
  8
0
 10
52.5834067266202894
 20
43.7356705858175019
 30
0.0
  0
VERTEX
  5
F26
  8
0
 10
51.7794831035770926
 20
43.6982185367300531
 30
0.0
  0
VERTEX
  5
F27
  8
0
 10
50.9071751404547328
 20
43.675155353923671
 30
0.0
  0
VERTEX
  5
F28
  8
0
 10
50.0000051430801591
 20
43.6673673425797233
 30
0.0
  0
SEQEND
  5
F29
  8
0
  0
LINE
  5
5EC
  8
0
 10
50.3500177769026322
 20
26.9848810706886901
 30
0.0
 11
50.3500133730408805
 21
37.1357123395122315
 31
0.0
  0
LINE
  5
5EF
  8
0
 10
49.6500177936579234
 20
26.9848807669992006
 30
0.0
 11
49.6500133878995484
 21
37.1357120358254633
 31
0.0
  0
ARC
  5
5F0
  8
0
 10
49.9999885276022766
 20
94.4217392379527496
 30
0.0
 40
57.2870962364237286
 50
269.6499696355999163
 51
270.3500800785997171
  0
LINE
  5
5F1
  8
0
 10
48.0000133619655074
 20
37.1805513030976726
 30
0.0
 11
48.0000133536458975
 21
37.1997272909342769
 31
0.0
  0
POLYLINE
  5
5F2
  8
0
 66
     1
 10
0.0
 20
0.0
 30
0.0
 70
   128
  0
VERTEX
  5
F2A
  8
0
 10
48.0000133536458975
 20
37.1997272909342769
 30
0.0
  0
VERTEX
  5
F2B
  8
0
 10
47.1735138545315067
 20
37.2431407297843293
 30
0.0
  0
VERTEX
  5
F2C
  8
0
 10
46.4661677954325683
 20
37.3003509810479272
 30
0.0
  0
VERTEX
  5
F2D
  8
0
 10
45.9077939401751109
 20
37.3689462988068613
 30
0.0
  0
VERTEX
  5
F2E
  8
0
 10
45.521931004925591
 20
37.4460349901569884
 30
0.0
  0
VERTEX
  5
F2F
  8
0
 10
45.3248453639535427
 20
37.528367316937647
 30
0.0
  0
VERTEX
  5
F30
  8
0
 10
45.3248453270405207
 20
37.6124724911577601
 30
0.0
  0
VERTEX
  5
F31
  8
0
 10
45.521930895742571
 20
37.6948049889617778
 30
0.0
  0
VERTEX
  5
F32
  8
0
 10
45.9077937633247615
 20
37.7718940151488596
 30
0.0
  0
VERTEX
  5
F33
  8
0
 10
46.4661675583702731
 20
37.8404898174430926
 30
0.0
  0
VERTEX
  5
F34
  8
0
 10
47.0500156006753514
 20
37.8893143926423406
 30
0.0
  0
SEQEND
  5
F35
  8
0
  0
POLYLINE
  5
5F3
  8
0
 66
     1
 10
0.0
 20
0.0
 30
0.0
 70
   128
  0
VERTEX
  5
F36
  8
0
 10
52.9500156006753215
 20
37.8893165944714383
 30
0.0
  0
VERTEX
  5
F37
  8
0
 10
53.5338585907066289
 20
37.8404928839304375
 30
0.0
  0
VERTEX
  5
F38
  8
0
 10
54.0922324460221304
 20
37.7718975661352871
 30
0.0
  0
VERTEX
  5
F39
  8
0
 10
54.4780953811737234
 20
37.6948088747459522
 30
0.0
  0
VERTEX
  5
F3A
  8
0
 10
54.6751810218832901
 20
37.6124765479272583
 30
0.0
  0
VERTEX
  5
F3B
  8
0
 10
54.6751810583742213
 20
37.5283713736745312
 30
0.0
  0
VERTEX
  5
F3C
  8
0
 10
54.4780954891081635
 20
37.4460388758474778
 30
0.0
  0
VERTEX
  5
F3D
  8
0
 10
54.0922326208500976
 20
37.3689498496505124
 30
0.0
  0
VERTEX
  5
F3E
  8
0
 10
53.5338588250580187
 20
37.3003540473624824
 30
0.0
  0
VERTEX
  5
F3F
  8
0
 10
52.8265128154097781
 20
37.2431431823155208
 30
0.0
  0
VERTEX
  5
F40
  8
0
 10
52.0000133536698712
 20
37.1997290263023501
 30
0.0
  0
SEQEND
  5
F41
  8
0
  0
LINE
  5
5F4
  8
0
 10
52.0000133619788016
 20
37.180553038465078
 30
0.0
 11
52.0000133536698712
 21
37.1997290263023501
 31
0.0
  0
ARC
  5
5F5
  8
0
 10
50.0625267688741218
 20
88.0056440358209073
 30
0.0
 40
50.8620067357547612
 50
270.3238538497150216
 51
272.1830965118019776
  0
LINE
  5
5F6
  8
0
 10
50.3500133730408805
 20
37.1357123395122315
 30
0.0
 11
50.3500133711455575
 21
37.144449784786282
 31
0.0
  0
LINE
  5
5F7
  8
0
 10
49.6500133860046233
 20
37.1444494810936021
 30
0.0
 11
49.6500133878995484
 21
37.1357120358254633
 31
0.0
  0
ARC
  5
5F8
  8
0
 10
49.9374558558011401
 20
88.0056440298417328
 30
0.0
 40
50.8620067840332766
 50
267.8169532039451042
 51
269.6761958663847736
  0
ARC
  5
5F9
  8
0
 10
50.0000052370900079
 20
50.2617648858542765
 30
0.0
 40
13.0296847989266595
 50
256.9144499047047248
 51
283.0856001876284154
  0
LINE
  5
5FB
  8
0
 10
48.0000133619655074
 20
37.1805513030976726
 30
0.0
 11
48.0000175620772893
 21
27.4993611593494087
 31
0.0
  0
LINE
  5
5FC
  8
0
 10
52.0000175620750724
 20
27.4993628947185584
 30
0.0
 11
52.0000133619788016
 21
37.180553038465078
 31
0.0
  0
POLYLINE
  5
5FE
  8
0
 66
     1
 10
0.0
 20
0.0
 30
0.0
 70
   128
  0
VERTEX
  5
F42
  8
0
 10
50.0000022906156687
 20
47.0114610790672032
 30
0.0
  0
VERTEX
  5
F43
  8
0
 10
49.1401205297718775
 20
47.0196109499566433
 30
0.0
  0
VERTEX
  5
F44
  8
0
 10
48.3204458843751894
 20
47.0436809645981384
 30
0.0
  0
VERTEX
  5
F45
  8
0
 10
47.5793054298414972
 20
47.0825456358589776
 30
0.0
  0
VERTEX
  5
F46
  8
0
 10
46.9513540701062126
 20
47.1343876949059606
 30
0.0
  0
VERTEX
  5
F47
  8
0
 10
46.4659541128328826
 20
47.1967830646764099
 30
0.0
  0
VERTEX
  5
F48
  8
0
 10
46.1458023205402128
 20
47.2668142070272665
 30
0.0
  0
VERTEX
  5
F49
  8
0
 10
46.00586863521265
 20
47.3412065435762628
 30
0.0
  0
VERTEX
  5
F4A
  8
0
 10
46.0526962004510096
 20
47.4164815713474326
 30
0.0
  0
VERTEX
  5
F4B
  8
0
 10
46.2840954113498597
 20
47.4891195137045088
 30
0.0
  0
VERTEX
  5
F4C
  8
0
 10
46.6892462979893708
 20
47.5557239011940709
 30
0.0
  0
VERTEX
  5
F4D
  8
0
 10
46.8250156006754423
 20
47.5721307101558679
 30
0.0
  0
SEQEND
  5
F4E
  8
0
  0
POLYLINE
  5
5FF
  8
0
 66
     1
 10
0.0
 20
0.0
 30
0.0
 70
   128
  0
VERTEX
  5
F4F
  8
0
 10
53.1750156006754011
 20
47.5721331504098401
 30
0.0
  0
VERTEX
  5
F50
  8
0
 10
53.3107582832420803
 20
47.5557296029381718
 30
0.0
  0
VERTEX
  5
F51
  8
0
 10
53.7159091698815132
 20
47.4891259131945702
 30
0.0
  0
VERTEX
  5
F52
  8
0
 10
53.9473083807803775
 20
47.4164883693504819
 30
0.0
  0
VERTEX
  5
F53
  8
0
 10
53.9941359460187229
 20
47.3412134222251026
 30
0.0
  0
VERTEX
  5
F54
  8
0
 10
53.8542022606911814
 20
47.266820844684041
 30
0.0
  0
VERTEX
  5
F55
  8
0
 10
53.5340504683984904
 20
47.1967891509716466
 30
0.0
  0
VERTEX
  5
F56
  8
0
 10
53.0486505111250466
 20
47.1343929452512924
 30
0.0
  0
VERTEX
  5
F57
  8
0
 10
52.4206991513898402
 20
47.0825498047539668
 30
0.0
  0
VERTEX
  5
F58
  8
0
 10
51.6795586968560769
 20
47.0436838571099472
 30
0.0
  0
VERTEX
  5
F59
  8
0
 10
50.8598840514594031
 20
47.0196124308346199
 30
0.0
  0
VERTEX
  5
F5A
  8
0
 10
50.0000022906156687
 20
47.0114610790672032
 30
0.0
  0
SEQEND
  5
F5B
  8
0
  0
POLYLINE
  5
600
  8
0
 66
     1
 10
0.0
 20
0.0
 30
0.0
 70
   128
  0
VERTEX
  5
F5C
  8
0
 10
53.1750022906144721
 20
47.3600868049578523
 30
0.0
  0
VERTEX
  5
F5D
  8
0
 10
53.1518529658758325
 20
47.3267319162277929
 30
0.0
  0
VERTEX
  5
F5E
  8
0
 10
52.9686788611407522
 20
47.261960525276379
 30
0.0
  0
VERTEX
  5
F5F
  8
0
 10
52.6129760648270803
 20
47.2028917169207034
 30
0.0
  0
VERTEX
  5
F60
  8
0
 10
52.1054167305294413
 20
47.1529583555961693
 30
0.0
  0
VERTEX
  5
F61
  8
0
 10
51.4754983618540791
 20
47.1150623867624603
 30
0.0
  0
VERTEX
  5
F62
  8
0
 10
50.7598295247283886
 20
47.0914061863819597
 30
0.0
  0
VERTEX
  5
F63
  8
0
 10
50.0000022906156687
 20
47.0833645668339997
 30
0.0
  0
VERTEX
  5
F64
  8
0
 10
49.2401750565029488
 20
47.0914048778166716
 30
0.0
  0
VERTEX
  5
F65
  8
0
 10
48.5245062193772512
 20
47.1150598456808893
 30
0.0
  0
VERTEX
  5
F66
  8
0
 10
47.8945878507019529
 20
47.1529547296768072
 30
0.0
  0
VERTEX
  5
F67
  8
0
 10
47.3870285164042429
 20
47.2028872168888185
 30
0.0
  0
VERTEX
  5
F68
  8
0
 10
47.0313257200905923
 20
47.2619554126573505
 30
0.0
  0
VERTEX
  5
F69
  8
0
 10
46.8481516153555475
 20
47.3267264881485517
 30
0.0
  0
VERTEX
  5
F6A
  8
0
 10
46.8250022906168866
 20
47.3600812951579968
 30
0.0
  0
SEQEND
  5
F6B
  8
0
  0
ARC
  5
601
  8
0
 10
48.8463287408027895
 20
52.0200346623402083
 30
0.0
 40
13.6908413295856697
 50
255.2041048914628902
 51
274.8338557505276754
  0
ARC
  5
602
  8
0
 10
51.1536677536873725
 20
52.0200366643873622
 30
0.0
 40
13.6908413295893201
 50
265.1662436788540731
 51
284.795994537915476
  0
ARC
  5
603
  8
0
 10
49.9999889940926323
 20
62.6842196873616402
 30
0.0
 40
14.8181505929850807
 50
257.6758719727308744
 51
282.3242274566500214
  0
ARC
  5
604
  8
0
 10
48.9731049457102969
 20
56.2661409428793604
 30
0.0
 40
8.1262646512832006
 50
252.6535642030640076
 51
277.2597401728220916
  0
ARC
  5
605
  8
0
 10
50.7642897416473104
 20
59.2416221542641708
 30
0.0
 40
11.0630334630620197
 50
266.0385733500543211
 51
284.0483211328204902
  0
POLYLINE
  5
606
  8
0
 66
     1
 10
0.0
 20
0.0
 30
0.0
 70
   128
  0
VERTEX
  5
F6C
  8
0
 10
49.9999997839043999
 20
49.9701502976319603
 30
0.0
  0
VERTEX
  5
F6D
  8
0
 10
49.2341896581851302
 20
49.9782539181499033
 30
0.0
  0
VERTEX
  5
F6E
  8
0
 10
48.5128856333661318
 20
50.0020951456035618
 30
0.0
  0
VERTEX
  5
F6F
  8
0
 10
47.8780072775364189
 20
50.0402884145128084
 30
0.0
  0
VERTEX
  5
F70
  8
0
 10
47.3664514130478977
 20
50.0906140709153576
 30
0.0
  0
VERTEX
  5
F71
  8
0
 10
47.0079478073146788
 20
50.1501473705875469
 30
0.0
  0
VERTEX
  5
F72
  8
0
 10
46.8233313867945
 20
50.2154284545470091
 30
0.0
  0
VERTEX
  5
F73
  8
0
 10
46.8233313867945
 20
50.282663423481317
 30
0.0
  0
VERTEX
  5
F74
  8
0
 10
47.0079478073147285
 20
50.3479448253850776
 30
0.0
  0
VERTEX
  5
F75
  8
0
 10
47.3664514130478977
 20
50.4074787424677808
 30
0.0
  0
VERTEX
  5
F76
  8
0
 10
47.8780072775364189
 20
50.4578052798657311
 30
0.0
  0
VERTEX
  5
F77
  8
0
 10
48.5128856333661673
 20
50.495999642154743
 30
0.0
  0
VERTEX
  5
F78
  8
0
 10
49.234189658185187
 20
50.5198421118295187
 30
0.0
  0
VERTEX
  5
F79
  8
0
 10
49.9999997839044426
 20
50.5279470512164082
 30
0.0
  0
VERTEX
  5
F7A
  8
0
 10
50.7658099096237265
 20
50.5198434306985291
 30
0.0
  0
VERTEX
  5
F7B
  8
0
 10
51.487113934442732
 20
50.4960022032447426
 30
0.0
  0
VERTEX
  5
F7C
  8
0
 10
52.1219922902724377
 20
50.4578089343356169
 30
0.0
  0
VERTEX
  5
F7D
  8
0
 10
52.6335481547610016
 20
50.4074832779329967
 30
0.0
  0
VERTEX
  5
F7E
  8
0
 10
52.9920517604941779
 20
50.3479499782608926
 30
0.0
  0
VERTEX
  5
F7F
  8
0
 10
53.1766681810143425
 20
50.2826688943013025
 30
0.0
  0
VERTEX
  5
F80
  8
0
 10
53.1766681810143425
 20
50.2154339253670372
 30
0.0
  0
VERTEX
  5
F81
  8
0
 10
52.992051760494121
 20
50.1501525234633618
 30
0.0
  0
VERTEX
  5
F82
  8
0
 10
52.6335481547608808
 20
50.0906186063806302
 30
0.0
  0
VERTEX
  5
F83
  8
0
 10
52.1219922902723809
 20
50.0402920689827084
 30
0.0
  0
VERTEX
  5
F84
  8
0
 10
51.4871139344426183
 20
50.0020977066936325
 30
0.0
  0
VERTEX
  5
F85
  8
0
 10
50.7658099096236128
 20
49.9782552370188569
 30
0.0
  0
VERTEX
  5
F86
  8
0
 10
49.9999997839043999
 20
49.9701502976319603
 30
0.0
  0
SEQEND
  5
F87
  8
0
  0
POLYLINE
  5
607
  8
0
 66
     1
 10
0.0
 20
0.0
 30
0.0
 70
   128
  0
VERTEX
  5
F88
  8
0
 10
49.9999997839039523
 20
50.0006548076920012
 30
0.0
  0
VERTEX
  5
F89
  8
0
 10
49.2912336054844076
 20
50.0084579474685711
 30
0.0
  0
VERTEX
  5
F8A
  8
0
 10
48.6270018127146315
 20
50.0313782874567323
 30
0.0
  0
VERTEX
  5
F8B
  8
0
 10
48.0490405320079503
 20
50.0679756584000302
 30
0.0
  0
VERTEX
  5
F8C
  8
0
 10
47.5936651962241513
 20
50.1159505128862222
 30
0.0
  0
VERTEX
  5
F8D
  8
0
 10
47.2894887124638217
 20
50.172288414368893
 30
0.0
  0
VERTEX
  5
F8E
  8
0
 10
47.1556236078844719
 20
50.2334494453015097
 30
0.0
  0
VERTEX
  5
F8F
  8
0
 10
47.2004811193282805
 20
50.2955906331760616
 30
0.0
  0
VERTEX
  5
F90
  8
0
 10
47.4212426843767929
 20
50.3548074186190817
 30
0.0
  0
VERTEX
  5
F91
  8
0
 10
47.8040370419938512
 20
50.4073789932170371
 30
0.0
  0
VERTEX
  5
F92
  8
0
 10
48.3248118148711114
 20
50.4500020915933192
 30
0.0
  0
VERTEX
  5
F93
  8
0
 10
48.950844808753061
 20
50.479998547720129
 30
0.0
  0
VERTEX
  5
F94
  8
0
 10
49.6428000682458901
 20
50.4954835739396302
 30
0.0
  0
VERTEX
  5
F95
  8
0
 10
50.3571994995620997
 20
50.4954841891046726
 30
0.0
  0
VERTEX
  5
F96
  8
0
 10
51.0491547590549288
 20
50.4800003545621507
 30
0.0
  0
VERTEX
  5
F97
  8
0
 10
51.6751877529368926
 20
50.4500049765819085
 30
0.0
  0
VERTEX
  5
F98
  8
0
 10
52.1959625258141386
 20
50.4073827750776218
 30
0.0
  0
VERTEX
  5
F99
  8
0
 10
52.578756883431133
 20
50.3548118597234406
 30
0.0
  0
VERTEX
  5
F9A
  8
0
 10
52.7995184484796525
 20
50.295595454473407
 30
0.0
  0
VERTEX
  5
F9B
  8
0
 10
52.844375959923461
 20
50.2334543438519106
 30
0.0
  0
VERTEX
  5
F9C
  8
0
 10
52.7105108553440687
 20
50.1722930823784026
 30
0.0
  0
VERTEX
  5
F9D
  8
0
 10
52.4063343715837391
 20
50.1159546570467
 30
0.0
  0
VERTEX
  5
F9E
  8
0
 10
51.95095903579994
 20
50.0679790183185602
 30
0.0
  0
VERTEX
  5
F9F
  8
0
 10
51.3729977550933086
 20
50.0313806520173188
 30
0.0
  0
VERTEX
  5
FA0
  8
0
 10
50.7087659623234615
 20
50.0084591680971471
 30
0.0
  0
VERTEX
  5
FA1
  8
0
 10
49.9999997839039523
 20
50.0006548076920012
 30
0.0
  0
SEQEND
  5
FA2
  8
0
  0
LINE
  5
60B
  8
0
 10
45.3000171503820681
 20
28.4483077433563416
 30
0.0
 11
48.0000174642524797
 21
27.7248460951666402
 31
0.0
  0
LINE
  5
60F
  8
0
 10
52.0000174644879394
 20
27.7243057544488387
 30
0.0
 11
54.7000171506185708
 21
28.4477697453876317
 31
0.0
  0
ARC
  5
610
  8
0
 10
50.441333362739897
 20
36.7055129974305032
 30
0.0
 40
13.5113129804853802
 50
82.3307957148946059
 51
90.5527373978623302
  0
ARC
  5
611
  8
0
 10
49.55871292714113
 20
36.7052326917963683
 30
0.0
 40
13.5115924823006992
 50
89.4474049790015471
 51
97.6691038029108256
  0
POLYLINE
  5
612
  8
0
 66
     1
 10
0.0
 20
0.0
 30
0.0
 70
   128
  0
VERTEX
  5
FA3
  8
0
 10
50.9000056947248325
 20
50.1150463583503409
 30
0.0
  0
VERTEX
  5
FA4
  8
0
 10
50.7737201620443486
 20
50.1172355804477974
 30
0.0
  0
VERTEX
  5
FA5
  8
0
 10
50.6666604569333003
 20
50.1234701750086131
 30
0.0
  0
VERTEX
  5
FA6
  8
0
 10
50.5951254489961499
 20
50.1328009815275095
 30
0.0
  0
VERTEX
  5
FA7
  8
0
 10
50.570005694724891
 20
50.1438074692961209
 30
0.0
  0
VERTEX
  5
FA8
  8
0
 10
50.5951254489961499
 20
50.1548140003255867
 30
0.0
  0
VERTEX
  5
FA9
  8
0
 10
50.6666604569333003
 20
50.1641449300412887
 30
0.0
  0
VERTEX
  5
FAA
  8
0
 10
50.7737201620443486
 20
50.1703797089789987
 30
0.0
  0
VERTEX
  5
FAB
  8
0
 10
50.9000056947248325
 20
50.1725691485638521
 30
0.0
  0
VERTEX
  5
FAC
  8
0
 10
51.0262912274053022
 20
50.170379926466353
 30
0.0
  0
VERTEX
  5
FAD
  8
0
 10
51.1333509325163504
 20
50.1641453319056225
 30
0.0
  0
VERTEX
  5
FAE
  8
0
 10
51.2048859404534866
 20
50.1548145253867119
 30
0.0
  0
VERTEX
  5
FAF
  8
0
 10
51.2300056947247384
 20
50.1438080376181006
 30
0.0
  0
VERTEX
  5
FB0
  8
0
 10
51.2048859404534866
 20
50.1328015065885708
 30
0.0
  0
VERTEX
  5
FB1
  8
0
 10
51.1333509325163504
 20
50.1234705768729327
 30
0.0
  0
VERTEX
  5
FB2
  8
0
 10
51.0262912274053022
 20
50.1172357979352086
 30
0.0
  0
VERTEX
  5
FB3
  8
0
 10
50.9000056947248325
 20
50.1150463583503409
 30
0.0
  0
SEQEND
  5
FB4
  8
0
  0
ARC
  5
613
  8
0
 10
50.000005999318887
 20
52.3696230405939787
 30
0.0
 40
2.175765152354368
 50
261.7825971538052841
 51
278.2174936705607138
  0
POLYLINE
  5
614
  8
0
 66
     1
 10
0.0
 20
0.0
 30
0.0
 70
   128
  0
VERTEX
  5
FB5
  8
0
 10
49.1000056947255104
 20
50.1150448025134594
 30
0.0
  0
VERTEX
  5
FB6
  8
0
 10
48.9737201620450335
 20
50.1172340246109087
 30
0.0
  0
VERTEX
  5
FB7
  8
0
 10
48.8666604569339569
 20
50.1234686191716605
 30
0.0
  0
VERTEX
  5
FB8
  8
0
 10
48.7951254489968065
 20
50.1327994256905569
 30
0.0
  0
VERTEX
  5
FB9
  8
0
 10
48.7700056947255121
 20
50.1438059134591825
 30
0.0
  0
VERTEX
  5
FBA
  8
0
 10
48.7951254489968065
 20
50.1548124444887122
 30
0.0
  0
VERTEX
  5
FBB
  8
0
 10
48.8666604569339569
 20
50.1641433742044001
 30
0.0
  0
VERTEX
  5
FBC
  8
0
 10
48.9737201620450335
 20
50.17037815314211
 30
0.0
  0
VERTEX
  5
FBD
  8
0
 10
49.1000056947255104
 20
50.1725675927269705
 30
0.0
  0
VERTEX
  5
FBE
  8
0
 10
49.226291227405909
 20
50.170378370629507
 30
0.0
  0
VERTEX
  5
FBF
  8
0
 10
49.3333509325169501
 20
50.1641437760687268
 30
0.0
  0
VERTEX
  5
FC0
  8
0
 10
49.4048859404541503
 20
50.1548129695497735
 30
0.0
  0
VERTEX
  5
FC1
  8
0
 10
49.4300056947254305
 20
50.1438064817812119
 30
0.0
  0
VERTEX
  5
FC2
  8
0
 10
49.4048859404541076
 20
50.132799950751739
 30
0.0
  0
VERTEX
  5
FC3
  8
0
 10
49.3333509325169501
 20
50.1234690210360512
 30
0.0
  0
VERTEX
  5
FC4
  8
0
 10
49.226291227405909
 20
50.117234242098327
 30
0.0
  0
VERTEX
  5
FC5
  8
0
 10
49.1000056947255104
 20
50.1150448025134594
 30
0.0
  0
SEQEND
  5
FC6
  8
0
  0
ARC
  5
61F
  8
0
 10
50.0000156213899416
 20
31.9726158763029993
 30
0.0
 40
5.0
 50
340.0515812681632042
 51
19.948468446523961
  0
ARC
  5
620
  8
0
 10
50.0000156213899416
 20
31.9726158763029993
 30
0.0
 40
5.0000000000412799
 50
270.0000072507060054
 51
307.461961423996172
  0
ARC
  5
621
  8
0
 10
50.0000156213899416
 20
31.9726158763029993
 30
0.0
 40
5.0000000000369971
 50
232.553797641255386
 51
270.0000072507060054
  0
ARC
  5
622
  8
0
 10
50.0000156213899416
 20
31.9726158763029993
 30
0.0
 40
4.9999999999999947
 50
160.0515812686151946
 51
199.9484684456940045
  0
LINE
  5
624
  8
1
 10
101.5771916730378024
 20
31.9726166857084486
 30
0.0
 11
99.7167438360786491
 21
53.2376327686997683
 31
0.0
  0
LINE
  5
626
  8
1
 10
50.0000179796618909
 20
23.9726158763036814
 30
0.0
 11
50.0000012838023622
 21
52.9999999999997229
 31
0.0
  0
LINE
  5
627
  8
1
 10
92.6073272239215441
 20
99.9976521103192226
 30
0.0
 11
263.536069751688899
 21
99.9976460137034877
 31
0.0
  0
POLYLINE
  5
7C2
  8
3
 66
     1
 10
0.0
 20
0.0
 30
0.0
 70
     2
  0
VERTEX
  5
7C3
  8
3
 10
226.2702137694128055
 20
102.5499843786162018
 30
0.0
 42
-0.0967279418160537
  0
VERTEX
  5
7C8
  8
3
 10
226.720942052438005
 20
101.6819018222314952
 30
0.0
 42
-0.1139361425769023
 70
     1
  0
VERTEX
  5
7C4
  8
3
 10
226.7702137694128908
 20
100.8499843786161989
 30
0.0
 42
-0.1840302000395963
  0
VERTEX
  5
7CA
  8
3
 10
226.2702137694128055
 20
99.9999843786162899
 30
0.0
 42
0.1840302000395963
 70
     1
  0
VERTEX
  5
7C5
  8
3
 10
225.7702137694128908
 20
99.1499843786162955
 30
0.0
 42
0.1139361425768901
  0
VERTEX
  5
7C9
  8
3
 10
225.8194854863878049
 20
98.318066935001184
 30
0.0
 42
0.0967279418160769
 70
     1
  0
VERTEX
  5
7C6
  8
3
 10
226.2702137694128055
 20
97.4499843786163069
 30
0.0
  0
SEQEND
  5
7C7
  8
3
  0
POLYLINE
  5
97F
  8
3
 66
     1
 10
0.0
 20
0.0
 30
0.0
 70
     2
  0
VERTEX
  5
980
  8
3
 10
224.2702137694128055
 20
102.5499843786163012
 30
0.0
 42
-0.0967279418160537
  0
VERTEX
  5
981
  8
3
 10
224.720942052438005
 20
101.6819018222314952
 30
0.0
 42
-0.1139361425769023
 70
     1
  0
VERTEX
  5
982
  8
3
 10
224.7702137694128908
 20
100.8499843786161989
 30
0.0
 42
-0.1840302000395963
  0
VERTEX
  5
983
  8
3
 10
224.2702137694128055
 20
99.9999843786163041
 30
0.0
 42
0.1840302000395963
 70
     1
  0
VERTEX
  5
984
  8
3
 10
223.7702137694128908
 20
99.1499843786162955
 30
0.0
 42
0.1139361425768901
  0
VERTEX
  5
985
  8
3
 10
223.8194854863878049
 20
98.318066935001184
 30
0.0
 42
0.0967279418160769
 70
     1
  0
VERTEX
  5
986
  8
3
 10
224.2702137694128055
 20
97.4499843786163211
 30
0.0
  0
SEQEND
  5
987
  8
3
  0
POLYLINE
  5
988
  8
3
 66
     1
 10
0.0
 20
0.0
 30
0.0
 70
     2
  0
VERTEX
  5
989
  8
3
 10
224.2702137694128055
 20
34.5226158763022113
 30
0.0
 42
-0.0967279418160537
  0
VERTEX
  5
98A
  8
3
 10
224.720942052438005
 20
33.6545333199174479
 30
0.0
 42
-0.1139361425769023
 70
     1
  0
VERTEX
  5
98B
  8
3
 10
224.7702137694128908
 20
32.8226158763022084
 30
0.0
 42
-0.1840302000395963
  0
VERTEX
  5
98C
  8
3
 10
224.2702137694128055
 20
31.9726158763022106
 30
0.0
 42
0.1840302000395963
 70
     1
  0
VERTEX
  5
98D
  8
3
 10
223.7702137694128908
 20
31.1226158763022092
 30
0.0
 42
0.1139361425768901
  0
VERTEX
  5
98E
  8
3
 10
223.8194854863878049
 20
30.2906984326871083
 30
0.0
 42
0.0967279418160769
 70
     1
  0
VERTEX
  5
98F
  8
3
 10
224.2702137694128055
 20
29.4226158763022205
 30
0.0
  0
SEQEND
  5
990
  8
3
  0
POLYLINE
  5
991
  8
3
 66
     1
 10
0.0
 20
0.0
 30
0.0
 70
     2
  0
VERTEX
  5
992
  8
3
 10
226.2702137694128055
 20
34.5226158763022113
 30
0.0
 42
-0.0967279418160537
  0
VERTEX
  5
993
  8
3
 10
226.720942052438005
 20
33.6545333199174479
 30
0.0
 42
-0.1139361425769023
 70
     1
  0
VERTEX
  5
994
  8
3
 10
226.7702137694128908
 20
32.8226158763022084
 30
0.0
 42
-0.1840302000395963
  0
VERTEX
  5
995
  8
3
 10
226.2702137694128055
 20
31.9726158763022106
 30
0.0
 42
0.1840302000395963
 70
     1
  0
VERTEX
  5
996
  8
3
 10
225.7702137694128908
 20
31.1226158763022092
 30
0.0
 42
0.1139361425768901
  0
VERTEX
  5
997
  8
3
 10
225.8194854863878049
 20
30.2906984326871083
 30
0.0
 42
0.0967279418160769
 70
     1
  0
VERTEX
  5
998
  8
3
 10
226.2702137694128055
 20
29.4226158763022205
 30
0.0
  0
SEQEND
  5
999
  8
3
  0
LINE
  5
99A
  8
1
 10
101.5771916730378024
 20
31.9726166857084486
 30
0.0
 11
263.536069751688899
 21
31.9726109090261197
 31
0.0
  0
LINE
  5
9B5
  8
0
 10
102.8600555120469977
 20
33.3726179587470995
 30
0.0
 11
105.4745627067460987
 21
36.2258508076157568
 31
0.0
  0
POLYLINE
  5
9C4
  8
0
 66
     1
 10
0.0
 20
0.0
 30
0.0
  0
VERTEX
  5
FC7
  8
0
 10
110.2702137694131039
 20
104.6130098069366028
 30
0.0
  0
VERTEX
  5
FC8
  8
0
 10
110.2690218093183034
 20
104.6061894878372982
 30
0.0
  0
VERTEX
  5
FC9
  8
0
 10
110.2654841679114952
 20
104.5991517467116978
 30
0.0
  0
VERTEX
  5
FCA
  8
0
 10
110.2596582035092041
 20
104.5919429361137958
 30
0.0
  0
VERTEX
  5
FCB
  8
0
 10
110.2516012744278981
 20
104.5846094085975011
 30
0.0
  0
VERTEX
  5
FCC
  8
0
 10
110.2413707389842017
 20
104.5771975167171064
 30
0.0
  0
VERTEX
  5
FCD
  8
0
 10
110.229023955494597
 20
104.5697536130266059
 30
0.0
  0
VERTEX
  5
FCE
  8
0
 10
110.2146182822756941
 20
104.5623240500797948
 30
0.0
  0
VERTEX
  5
FCF
  8
0
 10
110.1982110776439043
 20
104.5549551804311932
 30
0.0
  0
VERTEX
  5
FD0
  8
0
 10
110.1798596999158946
 20
104.5476933566343973
 30
0.0
  0
VERTEX
  5
FD1
  8
0
 10
110.1596215074081044
 20
104.5405849312438988
 30
0.0
  0
VERTEX
  5
FD2
  8
0
 10
110.1375538584371014
 20
104.5336762568133935
 30
0.0
  0
VERTEX
  5
FD3
  8
0
 10
110.113714227277697
 20
104.5270219923890949
 30
0.0
  0
VERTEX
  5
FD4
  8
0
 10
110.0881904094986936
 20
104.5207168023675024
 30
0.0
  0
VERTEX
  5
FD5
  8
0
 10
110.0611158854366067
 20
104.5148114431792976
 30
0.0
  0
VERTEX
  5
FD6
  8
0
 10
110.0326273240810053
 20
104.5093481950840015
 30
0.0
  0
VERTEX
  5
FD7
  8
0
 10
110.0028613944212026
 20
104.5043693383413057
 30
0.0
  0
VERTEX
  5
FD8
  8
0
 10
109.9719547654469949
 20
104.4999171532108022
 30
0.0
  0
VERTEX
  5
FD9
  8
0
 10
109.9400441061477949
 20
104.4960339199522963
 30
0.0
  0
VERTEX
  5
FDA
  8
0
 10
109.9072660855133989
 20
104.4927619188250958
 30
0.0
  0
VERTEX
  5
FDB
  8
0
 10
109.873757372533106
 20
104.4901434300891054
 30
0.0
  0
VERTEX
  5
FDC
  8
0
 10
109.8396546361965989
 20
104.4882207340039031
 30
0.0
  0
VERTEX
  5
FDD
  8
0
 10
109.8050945454933043
 20
104.4870361108289956
 30
0.0
  0
VERTEX
  5
FDE
  8
0
 10
109.7702137694128055
 20
104.4866318408241028
 30
0.0
  0
SEQEND
  5
FDF
  8
0
  0
POLYLINE
  5
9C5
  8
0
 66
     1
 10
0.0
 20
0.0
 30
0.0
  0
VERTEX
  5
FE0
  8
0
 10
109.7702137694135018
 20
95.5133381311554359
 30
0.0
  0
VERTEX
  5
FE1
  8
0
 10
109.8050765271707974
 20
95.5129338506086185
 30
0.0
  0
VERTEX
  5
FE2
  8
0
 10
109.8396210224380951
 20
95.5117493600848775
 30
0.0
  0
VERTEX
  5
FE3
  8
0
 10
109.8737098609532978
 20
95.5098271862595567
 30
0.0
  0
VERTEX
  5
FE4
  8
0
 10
109.9072056484541946
 20
95.5072098558078437
 30
0.0
  0
VERTEX
  5
FE5
  8
0
 10
109.9399709906790008
 20
95.5039398954049972
 30
0.0
  0
VERTEX
  5
FE6
  8
0
 10
109.9718684933653066
 20
95.5000598317262615
 30
0.0
  0
VERTEX
  5
FE7
  8
0
 10
110.0027607622513983
 20
95.495612191446881
 30
0.0
  0
VERTEX
  5
FE8
  8
0
 10
110.0325104030749941
 20
95.4906395012421001
 30
0.0
  0
VERTEX
  5
FE9
  8
0
 10
110.0609800215739966
 20
95.4851842877871633
 30
0.0
  0
VERTEX
  5
FEA
  8
0
 10
110.0880322234863939
 20
95.4792890777573149
 30
0.0
  0
VERTEX
  5
FEB
  8
0
 10
110.113529614550103
 20
95.4729963978278278
 30
0.0
  0
VERTEX
  5
FEC
  8
0
 10
110.1373410806280049
 20
95.466355874361156
 30
0.0
  0
VERTEX
  5
FED
  8
0
 10
110.1593957998215956
 20
95.4594545541760766
 30
0.0
  0
VERTEX
  5
FEE
  8
0
 10
110.1796364921185045
 20
95.4523469754627314
 30
0.0
  0
VERTEX
  5
FEF
  8
0
 10
110.1980028075609965
 20
95.4450807902819065
 30
0.0
  0
VERTEX
  5
FF0
  8
0
 10
110.2144343961916064
 20
95.4377036506942318
 30
0.0
  0
VERTEX
  5
FF1
  8
0
 10
110.2288709080522011
 20
95.4302632087604508
 30
0.0
  0
VERTEX
  5
FF2
  8
0
 10
110.2412519931852017
 20
95.4228071165411933
 30
0.0
  0
VERTEX
  5
FF3
  8
0
 10
110.2515173016328021
 20
95.4153830260972029
 30
0.0
  0
VERTEX
  5
FF4
  8
0
 10
110.2596064834371958
 20
95.4080385894891236
 30
0.0
  0
VERTEX
  5
FF5
  8
0
 10
110.2654591886406052
 20
95.4008214587776564
 30
0.0
  0
VERTEX
  5
FF6
  8
0
 10
110.2690150672853946
 20
95.3937792860235447
 30
0.0
  0
VERTEX
  5
FF7
  8
0
 10
110.2702137694137008
 20
95.3869597232874469
 30
0.0
  0
SEQEND
  5
FF8
  8
0
  0
POLYLINE
  5
9C6
  8
0
 66
     1
 10
0.0
 20
0.0
 30
0.0
  0
VERTEX
  5
FF9
  8
0
 10
110.7102137693712933
 20
97.9999862238551032
 30
0.0
  0
VERTEX
  5
FFA
  8
0
 10
110.7226850658129962
 20
97.9999862298321318
 30
0.0
  0
VERTEX
  5
FFB
  8
0
 10
110.7351603455790041
 20
97.9999862358073699
 30
0.0
  0
VERTEX
  5
FFC
  8
0
 10
110.7476395752013048
 20
97.9999862417808316
 30
0.0
  0
VERTEX
  5
FFD
  8
0
 10
110.7601227212120989
 20
97.9999862477525738
 30
0.0
  0
VERTEX
  5
FFE
  8
0
 10
110.7726097501435021
 20
97.9999862537226818
 30
0.0
  0
VERTEX
  5
FFF
  8
0
 10
110.7851006285276014
 20
97.9999862596911271
 30
0.0
  0
VERTEX
  5
1000
  8
0
 10
110.7975953228965977
 20
97.9999862656580234
 30
0.0
  0
VERTEX
  5
1001
  8
0
 10
110.810093799782706
 20
97.9999862716233849
 30
0.0
  0
VERTEX
  5
1002
  8
0
 10
110.8225960257178002
 20
97.9999862775872685
 30
0.0
  0
VERTEX
  5
1003
  8
0
 10
110.8351019672343938
 20
97.9999862835497169
 30
0.0
  0
VERTEX
  5
1004
  8
0
 10
110.8476115908642043
 20
97.9999862895108009
 30
0.0
  0
VERTEX
  5
1005
  8
0
 10
110.8601248631397027
 20
97.999986295470535
 30
0.0
  0
VERTEX
  5
1006
  8
0
 10
110.8726417505928055
 20
97.9999863014289616
 30
0.0
  0
VERTEX
  5
1007
  8
0
 10
110.8851622197557987
 20
97.9999863073861661
 30
0.0
  0
VERTEX
  5
1008
  8
0
 10
110.8976862371606984
 20
97.9999863133421769
 30
0.0
  0
VERTEX
  5
1009
  8
0
 10
110.9102137693397054
 20
97.9999863192970366
 30
0.0
  0
SEQEND
  5
100A
  8
0
  0
POLYLINE
  5
9C7
  8
0
 66
     1
 10
0.0
 20
0.0
 30
0.0
  0
VERTEX
  5
100B
  8
0
 10
110.9102137693421071
 20
36.4458688579181924
 30
0.0
  0
VERTEX
  5
100C
  8
0
 10
110.9039495659984027
 20
36.439006176405293
 30
0.0
  0
VERTEX
  5
100D
  8
0
 10
110.8976862371646064
 20
36.4321426947876716
 30
0.0
  0
VERTEX
  5
100E
  8
0
 10
110.8914237870242943
 20
36.4252784096126589
 30
0.0
  0
VERTEX
  5
100F
  8
0
 10
110.8851622197609004
 20
36.4184133174275786
 30
0.0
  0
VERTEX
  5
1010
  8
0
 10
110.8789015395579014
 20
36.4115474147797613
 30
0.0
  0
VERTEX
  5
1011
  8
0
 10
110.8726417505989019
 20
36.4046806982165307
 30
0.0
  0
VERTEX
  5
1012
  8
0
 10
110.8663828570671939
 20
36.3978131642852034
 30
0.0
  0
VERTEX
  5
1013
  8
0
 10
110.8601248631464955
 20
36.3909448095331101
 30
0.0
  0
VERTEX
  5
1014
  8
0
 10
110.8538677730199993
 20
36.3840756305075814
 30
0.0
  0
VERTEX
  5
1015
  8
0
 10
110.8476115908714945
 20
36.3772056237559269
 30
0.0
  0
VERTEX
  5
1016
  8
0
 10
110.8413563208843016
 20
36.3703347858255199
 30
0.0
  0
VERTEX
  5
1017
  8
0
 10
110.8351019672419966
 20
36.3634631132636201
 30
0.0
  0
VERTEX
  5
1018
  8
0
 10
110.8288485341279994
 20
36.3565906026176009
 30
0.0
  0
VERTEX
  5
1019
  8
0
 10
110.8225960257259004
 20
36.3497172504347574
 30
0.0
  0
VERTEX
  5
101A
  8
0
 10
110.8163444462189062
 20
36.3428430532624418
 30
0.0
  0
VERTEX
  5
101B
  8
0
 10
110.8100937997909057
 20
36.3359680076479634
 30
0.0
  0
VERTEX
  5
101C
  8
0
 10
110.8038440906251054
 20
36.3290921101386601
 30
0.0
  0
VERTEX
  5
101D
  8
0
 10
110.7975953229049964
 20
36.3222153572818272
 30
0.0
  0
VERTEX
  5
101E
  8
0
 10
110.7913475008141972
 20
36.3153377456248307
 30
0.0
  0
VERTEX
  5
101F
  8
0
 10
110.7851006285363979
 20
36.308459271714959
 30
0.0
  0
VERTEX
  5
1020
  8
0
 10
110.7788547102547057
 20
36.3015799320995711
 30
0.0
  0
VERTEX
  5
1021
  8
0
 10
110.772609750152597
 20
36.2946997233259623
 30
0.0
  0
VERTEX
  5
1022
  8
0
 10
110.7663657524138046
 20
36.2878186419414916
 30
0.0
  0
VERTEX
  5
1023
  8
0
 10
110.7601227212217054
 20
36.2809366844934473
 30
0.0
  0
VERTEX
  5
1024
  8
0
 10
110.7538806607599042
 20
36.2740538475292098
 30
0.0
  0
VERTEX
  5
1025
  8
0
 10
110.7476395752115934
 20
36.2671701275960316
 30
0.0
  0
VERTEX
  5
1026
  8
0
 10
110.7413994687606049
 20
36.2602855212412933
 30
0.0
  0
VERTEX
  5
1027
  8
0
 10
110.7351603455903017
 20
36.2534000250122972
 30
0.0
  0
VERTEX
  5
1028
  8
0
 10
110.7289222098841037
 20
36.2465136354563811
 30
0.0
  0
VERTEX
  5
1029
  8
0
 10
110.7226850658255017
 20
36.2396263491208614
 30
0.0
  0
VERTEX
  5
102A
  8
0
 10
110.7164489175981004
 20
36.232738162553062
 30
0.0
  0
VERTEX
  5
102B
  8
0
 10
110.7102137693853052
 20
36.2258490723003206
 30
0.0
  0
SEQEND
  5
102C
  8
0
  0
POLYLINE
  5
9C8
  8
0
 66
     1
 10
0.0
 20
0.0
 30
0.0
  0
VERTEX
  5
102D
  8
0
 10
110.7102137693797062
 20
27.7193809449574893
 30
0.0
  0
VERTEX
  5
102E
  8
0
 10
110.7164489175931976
 20
27.712491854703881
 30
0.0
  0
VERTEX
  5
102F
  8
0
 10
110.7226850658212953
 20
27.7056036681351507
 30
0.0
  0
VERTEX
  5
1030
  8
0
 10
110.7289222098802952
 20
27.6987163817986115
 30
0.0
  0
VERTEX
  5
1031
  8
0
 10
110.7351603455869054
 20
27.6918299922416011
 30
0.0
  0
VERTEX
  5
1032
  8
0
 10
110.7413994687577059
 20
27.684944496011461
 30
0.0
  0
VERTEX
  5
1033
  8
0
 10
110.747639575209007
 20
27.6780598896555006
 30
0.0
  0
VERTEX
  5
1034
  8
0
 10
110.7538806607574031
 20
27.6711761697210683
 30
0.0
  0
VERTEX
  5
1035
  8
0
 10
110.7601227212195028
 20
27.6642933327554985
 30
0.0
  0
VERTEX
  5
1036
  8
0
 10
110.7663657524117014
 20
27.6574113753061113
 30
0.0
  0
VERTEX
  5
1037
  8
0
 10
110.7726097501505933
 20
27.6505302939202302
 30
0.0
  0
VERTEX
  5
1038
  8
0
 10
110.7788547102527019
 20
27.6436500851452109
 30
0.0
  0
VERTEX
  5
1039
  8
0
 10
110.7851006285343942
 20
27.6367707455283593
 30
0.0
  0
VERTEX
  5
103A
  8
0
 10
110.7913475008124067
 20
27.629892271617031
 30
0.0
  0
VERTEX
  5
103B
  8
0
 10
110.7975953229032058
 20
27.6230146599585282
 30
0.0
  0
VERTEX
  5
103C
  8
0
 10
110.8038440906231017
 20
27.6161379071002102
 30
0.0
  0
VERTEX
  5
103D
  8
0
 10
110.8100937997889019
 20
27.6092620095893899
 30
0.0
  0
VERTEX
  5
103E
  8
0
 10
110.8163444462169025
 20
27.6023869639734016
 30
0.0
  0
VERTEX
  5
103F
  8
0
 10
110.8225960257237972
 20
27.5955127667995797
 30
0.0
  0
VERTEX
  5
1040
  8
0
 10
110.8288485341258962
 20
27.5886394146152512
 30
0.0
  0
VERTEX
  5
1041
  8
0
 10
110.8351019672397939
 20
27.5817669039677504
 30
0.0
  0
VERTEX
  5
1042
  8
0
 10
110.8413563208822978
 20
27.5748952314044082
 30
0.0
  0
VERTEX
  5
1043
  8
0
 10
110.847611590869505
 20
27.5680243934725517
 30
0.0
  0
VERTEX
  5
1044
  8
0
 10
110.853867773018095
 20
27.5611543867195117
 30
0.0
  0
VERTEX
  5
1045
  8
0
 10
110.8601248631447049
 20
27.5542852076926295
 30
0.0
  0
VERTEX
  5
1046
  8
0
 10
110.8663828570656023
 20
27.5474168529392287
 30
0.0
  0
VERTEX
  5
1047
  8
0
 10
110.872641750597495
 20
27.5405493190066402
 30
0.0
  0
VERTEX
  5
1048
  8
0
 10
110.8789015395569066
 20
27.533682602442191
 30
0.0
  0
VERTEX
  5
1049
  8
0
 10
110.8851622197603035
 20
27.5268166997932298
 30
0.0
  0
VERTEX
  5
104A
  8
0
 10
110.8914237870240953
 20
27.5199516076070587
 30
0.0
  0
VERTEX
  5
104B
  8
0
 10
110.8976862371649048
 20
27.5130873224310299
 30
0.0
  0
VERTEX
  5
104C
  8
0
 10
110.903949565999298
 20
27.5062238408124813
 30
0.0
  0
VERTEX
  5
104D
  8
0
 10
110.9102137693436987
 20
27.4993611592987008
 30
0.0
  0
SEQEND
  5
104E
  8
0
  0
POLYLINE
  5
9C9
  8
0
 66
     1
 10
0.0
 20
0.0
 30
0.0
  0
VERTEX
  5
104F
  8
0
 10
109.7702137694135018
 20
33.3726178228010895
 30
0.0
  0
VERTEX
  5
1050
  8
0
 10
109.8050765271707974
 20
33.3713586566386695
 30
0.0
  0
VERTEX
  5
1051
  8
0
 10
109.8396210224380951
 20
33.3676335347640318
 30
0.0
  0
VERTEX
  5
1052
  8
0
 10
109.8737098609531984
 20
33.3615210220960918
 30
0.0
  0
VERTEX
  5
1053
  8
0
 10
109.9072056484541946
 20
33.3530996835537792
 30
0.0
  0
VERTEX
  5
1054
  8
0
 10
109.9399709906789013
 20
33.3424480840560093
 30
0.0
  0
VERTEX
  5
1055
  8
0
 10
109.9718684933653066
 20
33.329644788521712
 30
0.0
  0
VERTEX
  5
1056
  8
0
 10
110.0027607622513983
 20
33.3147683618697883
 30
0.0
  0
VERTEX
  5
1057
  8
0
 10
110.0325104030748946
 20
33.2978973690191893
 30
0.0
  0
VERTEX
  5
1058
  8
0
 10
110.0609800215739966
 20
33.2791103748888233
 30
0.0
  0
VERTEX
  5
1059
  8
0
 10
110.088032223486195
 20
33.2584859443976129
 30
0.0
  0
VERTEX
  5
105A
  8
0
 10
110.113529614550103
 20
33.2361026424644876
 30
0.0
  0
VERTEX
  5
105B
  8
0
 10
110.1373410806280049
 20
33.2120429677524811
 30
0.0
  0
VERTEX
  5
105C
  8
0
 10
110.1593957998215956
 20
33.186427072502191
 30
0.0
  0
VERTEX
  5
105D
  8
0
 10
110.1796364921185045
 20
33.1593834166776205
 30
0.0
  0
VERTEX
  5
105E
  8
0
 10
110.1980028075609965
 20
33.1310385248160699
 30
0.0
  0
VERTEX
  5
105F
  8
0
 10
110.2144343961916064
 20
33.1015189214548684
 30
0.0
  0
VERTEX
  5
1060
  8
0
 10
110.2288709080522011
 20
33.0709511311313307
 30
0.0
  0
VERTEX
  5
1061
  8
0
 10
110.2412519931852017
 20
33.0394616783827502
 30
0.0
  0
VERTEX
  5
1062
  8
0
 10
110.2515173016327026
 20
33.0071770877464701
 30
0.0
  0
VERTEX
  5
1063
  8
0
 10
110.2596064834370964
 20
32.9742238837597625
 30
0.0
  0
VERTEX
  5
1064
  8
0
 10
110.2654591886406052
 20
32.9407285909599779
 30
0.0
  0
VERTEX
  5
1065
  8
0
 10
110.2690150672851956
 20
32.9068177338844094
 30
0.0
  0
VERTEX
  5
1066
  8
0
 10
110.2702137694136013
 20
32.8726178370703721
 30
0.0
  0
SEQEND
  5
1067
  8
0
  0
POLYLINE
  5
9CA
  8
0
 66
     1
 10
0.0
 20
0.0
 30
0.0
  0
VERTEX
  5
1068
  8
0
 10
101.3202137694126037
 20
32.8726179139064314
 30
0.0
  0
VERTEX
  5
1069
  8
0
 10
101.3214325553479966
 20
32.9069946291175199
 30
0.0
  0
VERTEX
  5
106A
  8
0
 10
101.3250464476652013
 20
32.9411040105677984
 30
0.0
  0
VERTEX
  5
106B
  8
0
 10
101.3309917481305007
 20
32.9748119339733421
 30
0.0
  0
VERTEX
  5
106C
  8
0
 10
101.3392047585101068
 20
33.0079842750502479
 30
0.0
  0
VERTEX
  5
106D
  8
0
 10
101.3496217805705015
 20
33.0404869095146267
 30
0.0
  0
VERTEX
  5
106E
  8
0
 10
101.3621791160775985
 20
33.0721857130825683
 30
0.0
  0
VERTEX
  5
106F
  8
0
 10
101.3768130667981069
 20
33.1029465614701621
 30
0.0
  0
VERTEX
  5
1070
  8
0
 10
101.3934599344979972
 20
33.1326353303934908
 30
0.0
  0
VERTEX
  5
1071
  8
0
 10
101.4120560209435951
 20
33.1611178955686512
 30
0.0
  0
VERTEX
  5
1072
  8
0
 10
101.4325376279013966
 20
33.1882601327117612
 30
0.0
  0
VERTEX
  5
1073
  8
0
 10
101.4548410571375996
 20
33.2139279175388893
 30
0.0
  0
VERTEX
  5
1074
  8
0
 10
101.4788970140645006
 20
33.2379822860567486
 30
0.0
  0
VERTEX
  5
1075
  8
0
 10
101.5045800361189947
 20
33.2602864698995973
 30
0.0
  0
VERTEX
  5
1076
  8
0
 10
101.5317487972990023
 20
33.2807689568528531
 30
0.0
  0
VERTEX
  5
1077
  8
0
 10
101.5602644361546965
 20
33.2993660070973121
 30
0.0
  0
VERTEX
  5
1078
  8
0
 10
101.5899880912370037
 20
33.3160138808137987
 30
0.0
  0
VERTEX
  5
1079
  8
0
 10
101.6207809010963956
 20
33.3306488381831372
 30
0.0
  0
VERTEX
  5
107A
  8
0
 10
101.6525040042838981
 20
33.3432071393861307
 30
0.0
  0
VERTEX
  5
107B
  8
0
 10
101.685018539349997
 20
33.3536250446035893
 30
0.0
  0
VERTEX
  5
107C
  8
0
 10
101.7181856448452066
 20
33.3618388140163304
 30
0.0
  0
VERTEX
  5
107D
  8
0
 10
101.7518664593203965
 20
33.3677847078051926
 30
0.0
  0
VERTEX
  5
107E
  8
0
 10
101.7859221213260952
 20
33.3713989861509717
 30
0.0
  0
VERTEX
  5
107F
  8
0
 10
101.8202137694132006
 20
33.3726179092344566
 30
0.0
  0
SEQEND
  5
1080
  8
0
  0
POLYLINE
  5
9CB
  8
0
 66
     1
 10
0.0
 20
0.0
 30
0.0
  0
VERTEX
  5
1081
  8
0
 10
110.2702137694136013
 20
31.0726178776300301
 30
0.0
  0
VERTEX
  5
1082
  8
0
 10
110.2690218093188008
 20
31.038410676299371
 30
0.0
  0
VERTEX
  5
1083
  8
0
 10
110.2654841679118931
 20
31.0045135690248408
 30
0.0
  0
VERTEX
  5
1084
  8
0
 10
110.259658203509602
 20
30.9710479265992902
 30
0.0
  0
VERTEX
  5
1085
  8
0
 10
110.2516012744281966
 20
30.9381351198155592
 30
0.0
  0
VERTEX
  5
1086
  8
0
 10
110.2413707389845001
 20
30.9058965194664914
 30
0.0
  0
VERTEX
  5
1087
  8
0
 10
110.2290239554947959
 20
30.8744534963449304
 30
0.0
  0
VERTEX
  5
1088
  8
0
 10
110.2146182822758931
 20
30.8439274212436985
 30
0.0
  0
VERTEX
  5
1089
  8
0
 10
110.1982110776441033
 20
30.8144396649556818
 30
0.0
  0
VERTEX
  5
108A
  8
0
 10
110.1798596999160935
 20
30.7861115982736884
 30
0.0
  0
VERTEX
  5
108B
  8
0
 10
110.1596215074083034
 20
30.7590645919905903
 30
0.0
  0
VERTEX
  5
108C
  8
0
 10
110.1375538584373004
 20
30.7334200168992311
 30
0.0
  0
VERTEX
  5
108D
  8
0
 10
110.1137142272778959
 20
30.7093068145907999
 30
0.0
  0
VERTEX
  5
108E
  8
0
 10
110.0881904094989068
 20
30.6868753229027504
 30
0.0
  0
VERTEX
  5
108F
  8
0
 10
110.0611158854369052
 20
30.6662124247429091
 30
0.0
  0
VERTEX
  5
1090
  8
0
 10
110.0326273240812043
 20
30.6473956035823711
 30
0.0
  0
VERTEX
  5
1091
  8
0
 10
110.0028613944216005
 20
30.6305023428921892
 30
0.0
  0
VERTEX
  5
1092
  8
0
 10
109.9719547654475065
 20
30.6156101261434408
 30
0.0
  0
VERTEX
  5
1093
  8
0
 10
109.9400441061485054
 20
30.6027964368072105
 30
0.0
  0
VERTEX
  5
1094
  8
0
 10
109.9072660855140953
 20
30.592138758354551
 30
0.0
  0
VERTEX
  5
1095
  8
0
 10
109.8737573725339018
 20
30.5837145742565397
 30
0.0
  0
VERTEX
  5
1096
  8
0
 10
109.8396546361971957
 20
30.5776013679842507
 30
0.0
  0
VERTEX
  5
1097
  8
0
 10
109.8050945454941001
 20
30.5738766230087613
 30
0.0
  0
VERTEX
  5
1098
  8
0
 10
109.7702137694137008
 20
30.5726178228011385
 30
0.0
  0
SEQEND
  5
1099
  8
0
  0
POLYLINE
  5
9CC
  8
0
 66
     1
 10
0.0
 20
0.0
 30
0.0
  0
VERTEX
  5
109A
  8
0
 10
101.8202137694137974
 20
30.5726179146963695
 30
0.0
  0
VERTEX
  5
109B
  8
0
 10
101.7858551041961022
 20
30.5738364221370595
 30
0.0
  0
VERTEX
  5
109C
  8
0
 10
101.7517605448303044
 20
30.5774492563107607
 30
0.0
  0
VERTEX
  5
109D
  8
0
 10
101.7180647452362052
 20
30.5833923861361612
 30
0.0
  0
VERTEX
  5
109E
  8
0
 10
101.6849023593336057
 20
30.5916017805318994
 30
0.0
  0
VERTEX
  5
109F
  8
0
 10
101.6524080410423068
 20
30.6020134084166884
 30
0.0
  0
VERTEX
  5
10A0
  8
0
 10
101.6207164442821949
 20
30.6145632387092093
 30
0.0
  0
VERTEX
  5
10A1
  8
0
 10
101.5899622229731989
 20
30.6291872403281182
 30
0.0
  0
VERTEX
  5
10A2
  8
0
 10
101.5602800310350062
 20
30.6458213821921213
 30
0.0
  0
VERTEX
  5
10A3
  8
0
 10
101.5318045223875032
 20
30.6644016332198497
 30
0.0
  0
VERTEX
  5
10A4
  8
0
 10
101.5046703509505051
 20
30.6848639623300414
 30
0.0
  0
VERTEX
  5
10A5
  8
0
 10
101.4790121706437986
 20
30.7071443384413207
 30
0.0
  0
VERTEX
  5
10A6
  8
0
 10
101.4549680493997954
 20
30.7311735435560998
 30
0.0
  0
VERTEX
  5
10A7
  8
0
 10
101.4326670677691027
 20
30.7568291305524504
 30
0.0
  0
VERTEX
  5
10A8
  8
0
 10
101.4121807024386044
 20
30.7839721287123815
 30
0.0
  0
VERTEX
  5
10A9
  8
0
 10
101.3935741208108965
 20
30.8124657215072304
 30
0.0
  0
VERTEX
  5
10AA
  8
0
 10
101.3769124902886034
 20
30.8421730924083413
 30
0.0
  0
VERTEX
  5
10AB
  8
0
 10
101.3622609782745059
 20
30.8729574248870406
 30
0.0
  0
VERTEX
  5
10AC
  8
0
 10
101.3496847521711999
 20
30.9046819024146799
 30
0.0
  0
VERTEX
  5
10AD
  8
0
 10
101.3392489793816935
 20
30.9372097084625786
 30
0.0
  0
VERTEX
  5
10AE
  8
0
 10
101.3310188273082986
 20
30.9704040265020915
 30
0.0
  0
VERTEX
  5
10AF
  8
0
 10
101.3250594633537958
 20
31.0041280400045416
 30
0.0
  0
VERTEX
  5
10B0
  8
0
 10
101.3214360549209943
 20
31.0382449324412804
 30
0.0
  0
VERTEX
  5
10B1
  8
0
 10
101.3202137694126037
 20
31.0726178872836414
 30
0.0
  0
SEQEND
  5
10B2
  8
0
  0
POLYLINE
  5
9CD
  8
0
 66
     1
 10
0.0
 20
0.0
 30
0.0
  0
VERTEX
  5
10B3
  8
0
 10
110.7102137693712933
 20
36.2258508076408816
 30
0.0
  0
VERTEX
  5
10B4
  8
0
 10
110.7164489175848985
 20
36.2327398978945965
 30
0.0
  0
VERTEX
  5
10B5
  8
0
 10
110.7226850658129962
 20
36.2396280844634475
 30
0.0
  0
VERTEX
  5
10B6
  8
0
 10
110.728922209872195
 20
36.2465153708000969
 30
0.0
  0
VERTEX
  5
10B7
  8
0
 10
110.7351603455790041
 20
36.2534017603572067
 30
0.0
  0
VERTEX
  5
10B8
  8
0
 10
110.7413994687499041
 20
36.2602872565874534
 30
0.0
  0
VERTEX
  5
10B9
  8
0
 10
110.7476395752013048
 20
36.267171862943492
 30
0.0
  0
VERTEX
  5
10BA
  8
0
 10
110.7538806607498003
 20
36.2740555828780131
 30
0.0
  0
VERTEX
  5
10BB
  8
0
 10
110.7601227212120989
 20
36.2809384198436717
 30
0.0
  0
VERTEX
  5
10BC
  8
0
 10
110.766365752404397
 20
36.28782037729313
 30
0.0
  0
VERTEX
  5
10BD
  8
0
 10
110.7726097501435021
 20
36.2947014586790999
 30
0.0
  0
VERTEX
  5
10BE
  8
0
 10
110.778854710245696
 20
36.3015816674542009
 30
0.0
  0
VERTEX
  5
10BF
  8
0
 10
110.7851006285276014
 20
36.3084610070711165
 30
0.0
  0
VERTEX
  5
10C0
  8
0
 10
110.7913475008057986
 20
36.3153394809825372
 30
0.0
  0
VERTEX
  5
10C1
  8
0
 10
110.7975953228965977
 20
36.3222170926410968
 30
0.0
  0
VERTEX
  5
10C2
  8
0
 10
110.8038440906168063
 20
36.3290938454995
 30
0.0
  0
VERTEX
  5
10C3
  8
0
 10
110.810093799782706
 20
36.3359697430104092
 30
0.0
  0
VERTEX
  5
10C4
  8
0
 10
110.8163444462109055
 20
36.3428447886264578
 30
0.0
  0
VERTEX
  5
10C5
  8
0
 10
110.8225960257178002
 20
36.3497189858003509
 30
0.0
  0
VERTEX
  5
10C6
  8
0
 10
110.8288485341201977
 20
36.3565923379847575
 30
0.0
  0
VERTEX
  5
10C7
  8
0
 10
110.8351019672343938
 20
36.3634648486323186
 30
0.0
  0
VERTEX
  5
10C8
  8
0
 10
110.8413563208767982
 20
36.370336521195739
 30
0.0
  0
VERTEX
  5
10C9
  8
0
 10
110.8476115908642043
 20
36.3772073591276666
 30
0.0
  0
VERTEX
  5
10CA
  8
0
 10
110.8538677730129933
 20
36.3840773658807777
 30
0.0
  0
VERTEX
  5
10CB
  8
0
 10
110.8601248631397027
 20
36.3909465449077416
 30
0.0
  0
VERTEX
  5
10CC
  8
0
 10
110.866382857060799
 20
36.3978148996612205
 30
0.0
  0
VERTEX
  5
10CD
  8
0
 10
110.8726417505928055
 20
36.4046824335938979
 30
0.0
  0
VERTEX
  5
10CE
  8
0
 10
110.8789015395523023
 20
36.4115491501584287
 30
0.0
  0
VERTEX
  5
10CF
  8
0
 10
110.8851622197557987
 20
36.4184150528074895
 30
0.0
  0
VERTEX
  5
10D0
  8
0
 10
110.8914237870198036
 20
36.4252801449937635
 30
0.0
  0
VERTEX
  5
10D1
  8
0
 10
110.8976862371606984
 20
36.4321444301698705
 30
0.0
  0
VERTEX
  5
10D2
  8
0
 10
110.9039495659952053
 20
36.4390079117885435
 30
0.0
  0
VERTEX
  5
10D3
  8
0
 10
110.9102137693397054
 20
36.4458705933024021
 30
0.0
  0
SEQEND
  5
10D4
  8
0
  0
POLYLINE
  5
9CE
  8
0
 66
     1
 10
0.0
 20
0.0
 30
0.0
  0
VERTEX
  5
10D5
  8
0
 10
110.7102137693820936
 20
27.7193826803089713
 30
0.0
  0
VERTEX
  5
10D6
  8
0
 10
110.7164489175950024
 20
27.7124935900561198
 30
0.0
  0
VERTEX
  5
10D7
  8
0
 10
110.7226850658224038
 20
27.7056054034881711
 30
0.0
  0
VERTEX
  5
10D8
  8
0
 10
110.7289222098809063
 20
27.6987181171524597
 30
0.0
  0
VERTEX
  5
10D9
  8
0
 10
110.7351603455870048
 20
27.6918317275963197
 30
0.0
  0
VERTEX
  5
10DA
  8
0
 10
110.7413994687571943
 20
27.6849462313670607
 30
0.0
  0
VERTEX
  5
10DB
  8
0
 10
110.7476395752080975
 20
27.678061625012031
 30
0.0
  0
VERTEX
  5
10DC
  8
0
 10
110.7538806607559962
 20
27.6711779050785509
 30
0.0
  0
VERTEX
  5
10DD
  8
0
 10
110.760122721217698
 20
27.6642950681139403
 30
0.0
  0
VERTEX
  5
10DE
  8
0
 10
110.7663657524094987
 20
27.6574131106655408
 30
0.0
  0
VERTEX
  5
10DF
  8
0
 10
110.7726097501480069
 20
27.6505320292806793
 30
0.0
  0
VERTEX
  5
10E0
  8
0
 10
110.7788547102498029
 20
27.6436518205066797
 30
0.0
  0
VERTEX
  5
10E1
  8
0
 10
110.7851006285311968
 20
27.6367724808908584
 30
0.0
  0
VERTEX
  5
10E2
  8
0
 10
110.7913475008087971
 20
27.629894006980571
 30
0.0
  0
VERTEX
  5
10E3
  8
0
 10
110.7975953228992978
 20
27.6230163953231411
 30
0.0
  0
VERTEX
  5
10E4
  8
0
 10
110.8038440906187958
 20
27.6161396424658712
 30
0.0
  0
VERTEX
  5
10E5
  8
0
 10
110.8100937997842976
 20
27.6092637449561096
 30
0.0
  0
VERTEX
  5
10E6
  8
0
 10
110.8163444462119998
 20
27.6023886993411907
 30
0.0
  0
VERTEX
  5
10E7
  8
0
 10
110.8225960257184965
 20
27.5955145021684309
 30
0.0
  0
VERTEX
  5
10E8
  8
0
 10
110.8288485341203966
 20
27.5886411499851505
 30
0.0
  0
VERTEX
  5
10E9
  8
0
 10
110.8351019672339959
 20
27.5817686393387014
 30
0.0
  0
VERTEX
  5
10EA
  8
0
 10
110.8413563208761019
 20
27.5748969667764001
 30
0.0
  0
VERTEX
  5
10EB
  8
0
 10
110.8476115908629964
 20
27.5680261288455704
 30
0.0
  0
VERTEX
  5
10EC
  8
0
 10
110.8538677730112028
 20
27.5611561220935499
 30
0.0
  0
VERTEX
  5
10ED
  8
0
 10
110.8601248631373011
 20
27.5542869430676589
 30
0.0
  0
VERTEX
  5
10EE
  8
0
 10
110.8663828570579
 20
27.5474185883152316
 30
0.0
  0
VERTEX
  5
10EF
  8
0
 10
110.8726417505892954
 20
27.5405510543835916
 30
0.0
  0
VERTEX
  5
10F0
  8
0
 10
110.8789015395481954
 20
27.5336843378200804
 30
0.0
  0
VERTEX
  5
10F1
  8
0
 10
110.8851622197509954
 20
27.5268184351720002
 30
0.0
  0
VERTEX
  5
10F2
  8
0
 10
110.891423787014304
 20
27.5199533429867103
 30
0.0
  0
VERTEX
  5
10F3
  8
0
 10
110.8976862371546019
 20
27.5130890578115093
 30
0.0
  0
VERTEX
  5
10F4
  8
0
 10
110.9039495659883983
 20
27.50622557619376
 30
0.0
  0
VERTEX
  5
10F5
  8
0
 10
110.9102137693321026
 20
27.4993628946807611
 30
0.0
  0
SEQEND
  5
10F6
  8
0
  0
ENDSEC
  0
EOF
