  0
SECTION
  2
HEADER
  9
$ACADVER
  1
AC1009
  9
$INSBASE
 10
0.0
 20
0.0
 30
0.0
  9
$EXTMIN
 10
0.0
 20
0.0
 30
0.0
  9
$EXTMAX
 10
266.5
 20
292.0000000000001137
 30
0.0
  9
$LIMMIN
 10
0.0
 20
0.0
  9
$LIMMAX
 10
420.0
 20
297.0
  9
$ORTHOMODE
 70
     1
  9
$REGENMODE
 70
     1
  9
$FILLMODE
 70
     1
  9
$QTEXTMODE
 70
     0
  9
$MIRRTEXT
 70
     0
  9
$DRAGMODE
 70
     2
  9
$LTSCALE
 40
1.0
  9
$OSMODE
 70
    37
  9
$ATTMODE
 70
     1
  9
$TEXTSIZE
 40
2.5
  9
$TRACEWID
 40
1.0
  9
$TEXTSTYLE
  7
STANDARD
  9
$CLAYER
  8
1
  9
$CELTYPE
  6
BYLAYER
  9
$CECOLOR
 62
   256
  9
$DIMSCALE
 40
1.0
  9
$DIMASZ
 40
2.5
  9
$DIMEXO
 40
0.625
  9
$DIMDLI
 40
3.75
  9
$DIMRND
 40
0.0
  9
$DIMDLE
 40
0.0
  9
$DIMEXE
 40
1.25
  9
$DIMTP
 40
0.0
  9
$DIMTM
 40
0.0
  9
$DIMTXT
 40
2.5
  9
$DIMCEN
 40
2.5
  9
$DIMTSZ
 40
0.0
  9
$DIMTOL
 70
     0
  9
$DIMLIM
 70
     0
  9
$DIMTIH
 70
     0
  9
$DIMTOH
 70
     0
  9
$DIMSE1
 70
     0
  9
$DIMSE2
 70
     0
  9
$DIMTAD
 70
     1
  9
$DIMZIN
 70
     8
  9
$DIMBLK
  1

  9
$DIMASO
 70
     1
  9
$DIMSHO
 70
     1
  9
$DIMPOST
  1

  9
$DIMAPOST
  1

  9
$DIMALT
 70
     0
  9
$DIMALTD
 70
     3
  9
$DIMALTF
 40
0.03937007874016
  9
$DIMLFAC
 40
1.0
  9
$DIMTOFL
 70
     1
  9
$DIMTVP
 40
0.0
  9
$DIMTIX
 70
     0
  9
$DIMSOXD
 70
     0
  9
$DIMSAH
 70
     0
  9
$DIMBLK1
  1

  9
$DIMBLK2
  1

  9
$DIMSTYLE
  2
ISO-25
  9
$DIMCLRD
 70
     0
  9
$DIMCLRE
 70
     0
  9
$DIMCLRT
 70
     0
  9
$DIMTFAC
 40
1.0
  9
$DIMGAP
 40
0.625
  9
$LUNITS
 70
     2
  9
$LUPREC
 70
     1
  9
$SKETCHINC
 40
1.0
  9
$FILLETRAD
 40
0.0
  9
$AUNITS
 70
     0
  9
$AUPREC
 70
     0
  9
$MENU
  1
.
  9
$ELEVATION
 40
0.0
  9
$PELEVATION
 40
0.0
  9
$THICKNESS
 40
0.0
  9
$LIMCHECK
 70
     0
  9
$BLIPMODE
 70
     0
  9
$CHAMFERA
 40
0.0
  9
$CHAMFERB
 40
0.0
  9
$SKPOLY
 70
     0
  9
$TDCREATE
 40
2454946.5997685180045664
  9
$TDUPDATE
 40
2460745.638009259942919
  9
$TDINDWG
 40
1.3606784606
  9
$TDUSRTIMER
 40
1.360678287
  9
$USRTIMER
 70
     1
  9
$ANGBASE
 50
0.0
  9
$ANGDIR
 70
     0
  9
$PDMODE
 70
     0
  9
$PDSIZE
 40
0.0
  9
$PLINEWID
 40
0.0
  9
$COORDS
 70
     1
  9
$SPLFRAME
 70
     0
  9
$SPLINETYPE
 70
     6
  9
$SPLINESEGS
 70
     8
  9
$ATTDIA
 70
     1
  9
$ATTREQ
 70
     1
  9
$HANDLING
 70
     1
  9
$HANDSEED
  5
1671B
  9
$SURFTAB1
 70
     6
  9
$SURFTAB2
 70
     6
  9
$SURFTYPE
 70
     6
  9
$SURFU
 70
     6
  9
$SURFV
 70
     6
  9
$UCSNAME
  2

  9
$UCSORG
 10
0.0
 20
0.0
 30
0.0
  9
$UCSXDIR
 10
1.0
 20
0.0
 30
0.0
  9
$UCSYDIR
 10
0.0
 20
1.0
 30
0.0
  9
$PUCSNAME
  2

  9
$PUCSORG
 10
0.0
 20
0.0
 30
0.0
  9
$PUCSXDIR
 10
1.0
 20
0.0
 30
0.0
  9
$PUCSYDIR
 10
0.0
 20
1.0
 30
0.0
  9
$USERI1
 70
     0
  9
$USERI2
 70
     0
  9
$USERI3
 70
     0
  9
$USERI4
 70
     0
  9
$USERI5
 70
     0
  9
$USERR1
 40
0.0
  9
$USERR2
 40
0.0
  9
$USERR3
 40
0.0
  9
$USERR4
 40
0.0
  9
$USERR5
 40
0.0
  9
$WORLDVIEW
 70
     1
  9
$SHADEDGE
 70
     3
  9
$SHADEDIF
 70
    70
  9
$TILEMODE
 70
     1
  9
$MAXACTVP
 70
    64
  9
$PLIMCHECK
 70
     0
  9
$PEXTMIN
 10
0.0
 20
0.0
 30
0.0
  9
$PEXTMAX
 10
0.0
 20
0.0
 30
0.0
  9
$PLIMMIN
 10
0.0
 20
0.0
  9
$PLIMMAX
 10
12.0
 20
9.0
  9
$UNITMODE
 70
     0
  9
$VISRETAIN
 70
     1
  9
$PLINEGEN
 70
     0
  9
$PSLTSCALE
 70
     1
  0
ENDSEC
  0
SECTION
  2
TABLES
  0
TABLE
  2
VPORT
 70
     1
  0
VPORT
  2
*ACTIVE
 70
     0
 10
0.0
 20
0.0
 11
1.0
 21
1.0
 12
366.1169415292353051
 22
156.4439249890426993
 13
0.0
 23
0.0
 14
10.0
 24
10.0
 15
10.0
 25
10.0
 16
0.0
 26
0.0
 36
1.0
 17
0.0
 27
0.0
 37
0.0
 40
312.8878499780855122
 41
2.340243902439024
 42
50.0
 43
0.0
 44
0.0
 50
0.0
 51
0.0
 71
     0
 72
  1000
 73
     1
 74
     3
 75
     0
 76
     0
 77
     0
 78
     0
  0
ENDTAB
  0
TABLE
  2
LTYPE
 70
     4
  0
LTYPE
  2
CONTINUOUS
 70
     0
  3
Solid line
 72
    65
 73
     0
 40
0.0
  0
LTYPE
  2
CENTER
 70
     0
  3
Center ____ _ ____ _ ____ _ ____ _ ____ _ ____
 72
    65
 73
     4
 40
10.1600000000000001
 49
6.3499999999999979
 49
-1.27
 49
1.27
 49
-1.27
  0
LTYPE
  2
PHANTOM2
 70
     0
  3
Phantom (.5x) ___ _ _ ___ _ _ ___ _ _ ___ _ _
 72
    65
 73
     6
 40
31.75
 49
15.875
 49
-3.174999999999998
 49
3.174999999999998
 49
-3.174999999999998
 49
3.174999999999998
 49
-3.174999999999998
  0
LTYPE
  2
HIDDEN
 70
     0
  3
Hidden __ __ __ __ __ __ __ __ __ __ __ __ __ __
 72
    65
 73
     2
 40
1.905
 49
1.27
 49
-0.635
  0
ENDTAB
  0
TABLE
  2
LAYER
 70
     5
  0
LAYER
  2
0
 70
     0
 62
     7
  6
CONTINUOUS
  0
LAYER
  2
1
 70
     0
 62
     1
  6
CENTER
  0
LAYER
  2
DEFPOINTS
 70
     0
 62
     7
  6
CONTINUOUS
  0
LAYER
  2
3
 70
     0
 62
     3
  6
CONTINUOUS
  0
LAYER
  2
2
 70
     0
 62
     2
  6
HIDDEN
  0
ENDTAB
  0
TABLE
  2
STYLE
 70
     3
  0
STYLE
  2
STANDARD
 70
     0
 40
0.0
 41
1.0
 50
0.0
 71
     0
 42
2.5
  3
txt
  4

  0
STYLE
  2
ANNOTATIVE
 70
     0
 40
0.0
 41
1.0
 50
0.0
 71
     0
 42
0.2
  3
txt
  4

  0
STYLE
  2
STANDARD1
 70
     0
 40
0.0
 41
1.0
 50
0.0
 71
     0
 42
3.0
  3
txt
  4

  0
ENDTAB
  0
TABLE
  2
VIEW
 70
     0
  0
ENDTAB
  0
TABLE
  2
UCS
 70
     0
  0
ENDTAB
  0
TABLE
  2
APPID
 70
   133
  0
APPID
  2
ACAD
 70
     0
  0
APPID
  2
ACADANNOTATIVE
 70
     0
  0
APPID
  2
_FTCNV
 70
     0
  0
APPID
  2
GENIUS_GENODEF_13
 70
     0
  0
APPID
  2
GENIUS_GENOENT_13
 70
     0
  0
APPID
  2
GENIUS_GENOBJ-N-CEN_13
 70
     0
  0
APPID
  2
GENIUS_GENOLIS_13
 70
     0
  0
APPID
  2
GENIUS_GENOREF_13
 70
     0
  0
APPID
  2
GENIUS_GENOBJ-N-CRS_13
 70
     0
  0
APPID
  2
GENIUS_GENOBJ-N-FIL_13
 70
     0
  0
APPID
  2
GENIUS_GENOBJ-N-REC_13
 70
     0
  0
APPID
  2
GENIUS_GENFIL_13
 70
     0
  0
APPID
  2
GENIUS_GENOBJ-N-CHA_13
 70
     0
  0
APPID
  2
ASM_BASE
 70
     0
  0
APPID
  2
_PHO
 70
     0
  0
APPID
  2
_CLP
 70
     0
  0
APPID
  2
MOJIGUMI_PARTS
 70
     0
  0
APPID
  2
_DBL
 70
     0
  0
APPID
  2
_PWH
 70
     0
  0
APPID
  2
_G9P
 70
     0
  0
APPID
  2
AME_SOL
 70
     0
  0
APPID
  2
HAKO_DEF
 70
     0
  0
APPID
  2
HAKO_TXT
 70
     0
  0
APPID
  2
HAKO_OVR
 70
     0
  0
APPID
  2
ASM_EXPLO_VER_2_00
 70
     0
  0
APPID
  2
ASM_CADM_VER_12_00
 70
     0
  0
APPID
  2
ASM_BASEFORO
 70
     0
  0
APPID
  2
ASM_BASETRAVI
 70
     0
  0
APPID
  2
ASM_BASETRAVI1
 70
     0
  0
APPID
  2
ASM_GRUPPI
 70
     0
  0
APPID
  2
ASM_CADM_ALBERO
 70
     0
  0
APPID
  2
ASM_GOLE
 70
     0
  0
APPID
  2
GENIUS_GENCFG_13
 70
     0
  0
APPID
  2
GENIUS_GENCFG0_13
 70
     0
  0
APPID
  2
GENIUS_GENCFG1_13
 70
     0
  0
APPID
  2
GENIUS_GENCFG2_13
 70
     0
  0
APPID
  2
GENIUS_GENCFG3_13
 70
     0
  0
APPID
  2
GENIUS_GENCFG4_13
 70
     0
  0
APPID
  2
GENIUS_GEVCFG0_13
 70
     0
  0
APPID
  2
GENIUS_GENHATCH_13
 70
     0
  0
APPID
  2
GENIUS_GEFCFG0_13
 70
     0
  0
APPID
  2
GENIUS_GENOBJ-N-HTC_13
 70
     0
  0
APPID
  2
DCO15
 70
     0
  0
APPID
  2
AVE_RENDER
 70
     0
  0
APPID
  2
AVE_ENTITY_MATERIAL
 70
     0
  0
APPID
  2
AVE_FINISH
 70
     0
  0
APPID
  2
AVE_MATERIAL
 70
     0
  0
APPID
  2
AVE_GLOBAL
 70
     0
  0
APPID
  2
_NUM
 70
     0
  0
APPID
  2
HAKO_FNM
 70
     0
  0
APPID
  2
_CALL_MAC$
 70
     0
  0
APPID
  2
ACA_CADIMENU
 70
     0
  0
APPID
  2
AUTOCAD_POSTSCRIPT_FIGURE
 70
     0
  0
APPID
  2
GEV_VCCNULL_SWITCH_OFF
 70
     0
  0
APPID
  2
GENIUS_GENDTOL_13
 70
     0
  0
APPID
  2
GENIUS_GEFWELD_13
 70
     0
  0
APPID
  2
GENIUS_GENOBJ-F-WELS_13
 70
     0
  0
APPID
  2
GEVID961514679
 70
     0
  0
APPID
  2
GEVDC
 70
     0
  0
APPID
  2
GEVPT
 70
     0
  0
APPID
  2
GEVIT
 70
     0
  0
APPID
  2
VCC
 70
     0
  0
APPID
  2
GENBH
 70
     0
  0
APPID
  2
GEVMK
 70
     0
  0
APPID
  2
GENIUS_GENBH_13
 70
     0
  0
APPID
  2
GENIUS_GENOBJ-NBEHI-BHF_13
 70
     0
  0
APPID
  2
GENIUS_GENOBJ-NBEHI-BHB_13
 70
     0
  0
APPID
  2
GENIUS_GENOBJ-F-DESC_13
 70
     0
  0
APPID
  2
GENIUS_GEFDESC_14
 70
     0
  0
APPID
  2
GENIUS_GENOBJ-F-PART_13
 70
     0
  0
APPID
  2
GENIUS_GEFSTDP_13
 70
     0
  0
APPID
  2
GENIUS_GEFPARTINS_13
 70
     0
  0
APPID
  2
GEVID961514680
 70
     0
  0
APPID
  2
GENIUS_GENTRA_14
 70
     0
  0
APPID
  2
GENIUS_GENINF13_13
 70
     0
  0
APPID
  2
GENIUS_GENOBJ-N-INFOPT_13
 70
     0
  0
APPID
  2
GENIUS_GENOBJ-N-RSSYM_13
 70
     0
  0
APPID
  2
GENIUS_GENSYMENT_13
 70
     0
  0
APPID
  2
GENIUS_GENSCSYM_13
 70
     0
  0
APPID
  2
GENIUS_GEFINFNAM_13
 70
     0
  0
APPID
  2
GENIUS_GENREC_14
 70
     0
  0
APPID
  2
GEVID962097543
 70
     0
  0
APPID
  2
GEVID962097544
 70
     0
  0
APPID
  2
GEVID962097545
 70
     0
  0
APPID
  2
GENIUS_DUMCFG0_13
 70
     0
  0
APPID
  2
GEVID962352965
 70
     0
  0
APPID
  2
GEVID962352966
 70
     0
  0
APPID
  2
GEVID962352968
 70
     0
  0
APPID
  2
GEVRADREF
 70
     0
  0
APPID
  2
GEVID963230099
 70
     0
  0
APPID
  2
GENIUS_GENOBJ-F-FEAT_13
 70
     0
  0
APPID
  2
GENIUS_GEFFEAT_14
 70
     0
  0
APPID
  2
GEVID963230100
 70
     0
  0
APPID
  2
GEVID963230101
 70
     0
  0
APPID
  2
GENIUS_GENHINW_13
 70
     0
  0
APPID
  2
GENIUS_FIRSTVISTXT_14
 70
     0
  0
APPID
  2
GENIUS_GENOBJ-N-LEADER_13
 70
     0
  0
APPID
  2
GEVID971698136
 70
     0
  0
APPID
  2
GEVID972029070
 70
     0
  0
APPID
  2
MCAD_NO_VIS
 70
     0
  0
APPID
  2
ACAD_TEMP_GRAPHIC
 70
     0
  0
APPID
  2
ACATTRIBSERVICES
 70
     0
  0
APPID
  2
GENIUS_GENDIMSH_14
 70
     0
  0
APPID
  2
CONTENTTABDATA
 70
     0
  0
APPID
  2
CONTENTCURRENTTAB
 70
     0
  0
APPID
  2
GENIUS_GENBLKED_14
 70
     0
  0
APPID
  2
GENIUS_GENOBJ_13
 70
     0
  0
APPID
  2
GENIUS_GENOBJ-N-TIT_13
 70
     0
  0
APPID
  2
GENIUS_GENTITLE_13
 70
     0
  0
APPID
  2
GENIUS_GENZVEED_13
 70
     0
  0
APPID
  2
GENIUS_GEFINERT_13
 70
     0
  0
APPID
  2
GENIUS_GENOBJ-F-INER_13
 70
     0
  0
APPID
  2
GENIUS_GENOBJ-N-ZOO_13
 70
     0
  0
APPID
  2
GENIUS_GENZOO_13
 70
     0
  0
APPID
  2
GENIUS_GENOBJ-F-TOL_13
 70
     0
  0
APPID
  2
GENIUS_GENOBJ-N-REV_13
 70
     0
  0
APPID
  2
GENIUS_GENREC_13
 70
     0
  0
APPID
  2
_KTH
 70
     0
  0
APPID
  2
GENIUS_GENOBJ-N-SEC_13
 70
     0
  0
APPID
  2
ACAD_EXEMPT_FROM_CAD_STANDARDS
 70
     0
  0
APPID
  2
ACAD_MLEADERVER
 70
     0
  0
APPID
  2
ACAD_NAV_VCDISPLAY
 70
     0
  0
APPID
  2
ACAD_PSEXT
 70
     0
  0
APPID
  2
ACAD_DSTYLE_DIMJAG
 70
     0
  0
APPID
  2
ACAD_DSTYLE_DIMTALN
 70
     0
  0
APPID
  2
ACAD_DSTYLE_DIMBREAK
 70
     0
  0
APPID
  2
ACAECLAYERSTANDARD
 70
     0
  0
APPID
  2
ACCMTRANSPARENCY
 70
     0
  0
APPID
  2
ACAD_DSTYLE_DIM_LINETYPE
 70
     0
  0
APPID
  2
GRADIENTCOLOR1ACI
 70
     0
  0
APPID
  2
GRADIENTCOLOR2ACI
 70
     0
  0
APPID
  2
ACAD_TC
 70
     0
  0
APPID
  2
ACAD_DSTYLE_DIMRADIAL_EXTENSION
 70
     0
  0
ENDTAB
  0
TABLE
  2
DIMSTYLE
 70
     3
  0
DIMSTYLE
  2
STANDARD
 70
     0
  3

  4

  5

  6

  7

 40
1.0
 41
0.18
 42
0.0625
 43
0.38
 44
0.18
 45
0.0
 46
0.0
 47
0.0
 48
0.0
140
0.18
141
0.09
142
0.0
143
25.3999999999999986
144
1.0
145
0.0
146
1.0
147
0.09
 71
     0
 72
     0
 73
     1
 74
     1
 75
     0
 76
     0
 77
     0
 78
     0
170
     0
171
     2
172
     0
173
     0
174
     0
175
     0
176
     0
177
     0
178
     0
  0
DIMSTYLE
  2
ANNOTATIVE
 70
     0
  3

  4

  5

  6

  7

 40
1.0
 41
0.18
 42
0.0625
 43
0.38
 44
0.18
 45
0.0
 46
0.0
 47
0.0
 48
0.0
140
0.18
141
0.09
142
0.0
143
25.3999999999999986
144
1.0
145
0.0
146
1.0
147
0.09
 71
     0
 72
     0
 73
     1
 74
     1
 75
     0
 76
     0
 77
     0
 78
     0
170
     0
171
     2
172
     0
173
     0
174
     0
175
     0
176
     0
177
     0
178
     0
  0
DIMSTYLE
  2
ISO-25
 70
     0
  3

  4

  5

  6

  7

 40
1.0
 41
2.5
 42
0.625
 43
3.75
 44
1.25
 45
0.0
 46
0.0
 47
0.0
 48
0.0
140
2.5
141
2.5
142
0.0
143
0.03937007874016
144
1.0
145
0.0
146
1.0
147
0.625
 71
     0
 72
     0
 73
     0
 74
     0
 75
     0
 76
     0
 77
     1
 78
     8
170
     0
171
     3
172
     1
173
     0
174
     0
175
     0
176
     0
177
     0
178
     0
  0
ENDTAB
  0
ENDSEC
  0
SECTION
  2
BLOCKS
  0
BLOCK
  8
0
  2
$MODEL_SPACE
 70
     0
 10
0.0
 20
0.0
 30
0.0
  3
$MODEL_SPACE
  1

  0
ENDBLK
  5
159EB
  8
0
  0
BLOCK
 67
     1
  8
0
  2
$PAPER_SPACE
 70
     0
 10
0.0
 20
0.0
 30
0.0
  3
$PAPER_SPACE
  1

  0
ENDBLK
  5
159E7
 67
     1
  8
0
  0
ENDSEC
  0
SECTION
  2
ENTITIES
  0
TEXT
  5
80B7
  8
0
 62
     3
 10
0.0
 20
0.0
 30
0.0
 40
10.0
  1
IMR-RA2-PQ9020
  7
STANDARD1
  0
LINE
  5
14258
  8
0
 10
246.0
 20
163.0
 30
0.0
 11
246.0
 21
155.0
 31
0.0
  0
LINE
  5
14259
  8
0
 10
259.0
 20
155.0
 30
0.0
 11
259.0
 21
163.0
 31
0.0
  0
LINE
  5
1425A
  8
0
 10
248.5
 20
145.0000000000001137
 30
0.0
 11
248.5
 21
135.0
 31
0.0
  0
LINE
  5
1425B
  8
0
 10
256.5
 20
135.0
 30
0.0
 11
256.5
 21
145.0000000000001137
 31
0.0
  0
LINE
  5
1425C
  8
0
 10
140.999999999999801
 20
163.0
 30
0.0
 11
140.999999999999801
 21
155.0
 31
0.0
  0
LINE
  5
1425D
  8
0
 10
154.0
 20
155.0
 30
0.0
 11
154.0
 21
163.0
 31
0.0
  0
LINE
  5
1425E
  8
0
 10
143.5
 20
145.0000000000001137
 30
0.0
 11
143.5
 21
135.0
 31
0.0
  0
LINE
  5
1425F
  8
0
 10
151.499999999999801
 20
135.0
 30
0.0
 11
151.499999999999801
 21
145.0000000000001137
 31
0.0
  0
LINE
  5
14260
  8
0
 10
261.5
 20
156.0363338908005915
 30
0.0
 11
259.0
 21
156.6135043686144002
 31
0.0
  0
LINE
  5
14261
  8
0
 10
246.0
 20
159.6147908532466033
 30
0.0
 11
240.0
 21
160.999999999999801
 31
0.0
  0
LINE
  5
14262
  8
0
 10
159.999999999999801
 20
160.999999999999801
 30
0.0
 11
154.0
 21
159.6147908532466033
 31
0.0
  0
LINE
  5
14263
  8
0
 10
140.999999999999801
 20
156.6135043686144002
 30
0.0
 11
138.5
 21
156.0363338908003925
 31
0.0
  0
LINE
  5
14264
  8
0
 10
240.0
 20
161.0
 30
0.0
 11
240.0
 21
162.999999999999801
 31
0.0
  0
LINE
  5
14265
  8
0
 10
159.999999999999801
 20
162.999999999999801
 30
0.0
 11
159.999999999999801
 21
161.0
 31
0.0
  0
LINE
  5
14266
  8
0
 10
246.0
 20
163.0
 30
0.0
 11
259.0
 21
163.0
 31
0.0
  0
LINE
  5
14267
  8
0
 10
256.5
 20
135.0
 30
0.0
 11
248.5
 21
135.0
 31
0.0
  0
LINE
  5
14268
  8
0
 10
140.999999999999801
 20
163.0
 30
0.0
 11
154.0
 21
163.0
 31
0.0
  0
LINE
  5
14269
  8
0
 10
151.499999999999801
 20
135.0
 30
0.0
 11
143.5
 21
135.0
 31
0.0
  0
LINE
  5
1426A
  8
0
 10
138.5
 20
156.0363338908003925
 30
0.0
 11
138.5
 21
145.0000000000001137
 31
0.0
  0
LINE
  5
1426B
  8
0
 10
138.5
 20
155.0000000000001137
 30
0.0
 11
160.499999999999801
 21
155.0000000000001137
 31
0.0
  0
LINE
  5
1426D
  8
0
 10
239.5
 20
155.0000000000001137
 30
0.0
 11
261.5
 21
155.0000000000001137
 31
0.0
  0
LINE
  5
1426E
  8
0
 10
261.5
 20
145.0000000000001137
 30
0.0
 11
138.5
 21
145.0000000000001137
 31
0.0
  0
LINE
  5
1426F
  8
0
 10
261.5
 20
145.0000000000001137
 30
0.0
 11
261.5
 21
156.0363338908003925
 31
0.0
  0
LINE
  5
14270
  8
0
 10
155.499999999999801
 20
156.8737609469351924
 30
0.0
 11
155.499999999999801
 21
155.0000000000001137
 31
0.0
  0
LINE
  5
14279
  8
0
 10
200.0
 20
161.0000000000001137
 30
0.0
 11
240.0
 21
161.0
 31
0.0
  0
LINE
  5
1427A
  8
0
 10
159.999999999999801
 20
161.0
 30
0.0
 11
200.0
 21
161.0000000000001137
 31
0.0
  0
LINE
  5
1427B
  8
0
 10
244.5
 20
155.0000000000001137
 30
0.0
 11
244.5
 21
156.8737608942493011
 31
0.0
  0
LINE
  5
1427C
  8
0
 10
200.0
 20
163.0000000000001137
 30
0.0
 11
159.999999999999801
 21
162.999999999999801
 31
0.0
  0
LINE
  5
1427D
  8
0
 10
240.0
 20
162.999999999999801
 30
0.0
 11
200.0
 21
163.0000000000001137
 31
0.0
  0
LINE
  5
1427E
  8
0
 10
261.4995862079707081
 20
155.5
 30
0.0
 11
260.7049889068650828
 21
155.5
 31
0.0
  0
LINE
  5
1427F
  8
0
 10
139.2950110931352015
 20
155.5
 30
0.0
 11
138.5004137920294056
 21
155.5
 31
0.0
  0
LINE
  5
14280
  8
2
 10
215.3869318036880998
 20
145.4000000000000057
 30
0.0
 11
206.8869318036882134
 21
145.4000000000000057
 31
0.0
  0
LINE
  5
14281
  8
2
 10
208.6369318036882134
 20
162.4000000000000057
 30
0.0
 11
213.6369318036880998
 21
162.4000000000000057
 31
0.0
  0
LINE
  5
14282
  8
2
 10
193.1130681963119002
 20
145.4000000000000057
 30
0.0
 11
184.6130681963119002
 21
145.4000000000000057
 31
0.0
  0
LINE
  5
14283
  8
2
 10
186.3630681963119002
 20
162.4000000000000057
 30
0.0
 11
191.3630681963119002
 21
162.4000000000000057
 31
0.0
  0
LINE
  5
1428A
  8
0
 10
244.5
 20
156.8737609469351071
 30
0.0
 11
244.4765995585815972
 21
156.8363975866681983
 31
0.0
  0
LINE
  5
1428B
  8
2
 10
220.3000000000000114
 20
162.0
 30
0.0
 11
179.6999999999999034
 21
162.0
 31
0.0
  0
LINE
  5
1428C
  8
2
 10
179.6999999999999034
 20
160.0
 30
0.0
 11
220.3000000000000114
 21
160.0
 31
0.0
  0
LINE
  5
1428D
  8
2
 10
220.0
 20
157.0
 30
0.0
 11
180.0
 21
157.0
 31
0.0
  0
LINE
  5
1428E
  8
2
 10
202.0
 20
146.6995696904862996
 30
0.0
 11
198.0
 21
146.6995696904862996
 31
0.0
  0
LINE
  5
1428F
  8
2
 10
202.5000000000291891
 20
147.0000000000663931
 30
0.0
 11
197.4999999999710099
 21
147.0000000000663931
 31
0.0
  0
LINE
  5
14290
  8
2
 10
193.8630681963119002
 20
150.4000000000000057
 30
0.0
 11
183.8630681963119002
 21
150.4000000000000057
 31
0.0
  0
LINE
  5
14291
  8
2
 10
216.1369318036882134
 20
150.4000000000000057
 30
0.0
 11
206.1369318036882134
 21
150.4000000000000057
 31
0.0
  0
LINE
  5
14292
  8
2
 10
210.0
 20
156.0
 30
0.0
 11
190.0
 21
156.0
 31
0.0
  0
LINE
  5
14293
  8
2
 10
149.499999999999801
 20
155.6008606190357
 30
0.0
 11
145.4999999999859028
 21
155.6008606190357
 31
0.0
  0
LINE
  5
14294
  8
2
 10
144.5
 20
139.0
 30
0.0
 11
150.499999999999801
 21
139.0
 31
0.0
  0
LINE
  5
14295
  8
2
 10
252.5
 20
155.6008606190357
 30
0.0
 11
250.4999999999859881
 21
155.6008606190357
 31
0.0
  0
LINE
  5
14296
  8
2
 10
254.5000000000140972
 20
155.6008606190357
 30
0.0
 11
252.5
 21
155.6008606190357
 31
0.0
  0
LINE
  5
14297
  8
2
 10
249.5
 20
139.0
 30
0.0
 11
255.5
 21
139.0
 31
0.0
  0
LINE
  5
14298
  8
2
 10
248.5
 20
155.0
 30
0.0
 11
248.5
 21
145.0000000000001137
 31
0.0
  0
LINE
  5
14299
  8
2
 10
256.5
 20
145.0000000000001137
 30
0.0
 11
256.5
 21
155.0
 31
0.0
  0
LINE
  5
1429A
  8
2
 10
143.5
 20
155.0
 30
0.0
 11
143.5
 21
145.0000000000001137
 31
0.0
  0
LINE
  5
1429B
  8
2
 10
151.499999999999801
 20
145.0000000000001137
 30
0.0
 11
151.499999999999801
 21
155.0
 31
0.0
  0
LINE
  5
1429C
  8
2
 10
215.3869318036880998
 20
145.4000000000000057
 30
0.0
 11
215.3869318036880998
 21
150.4000000000000057
 31
0.0
  0
LINE
  5
1429D
  8
2
 10
206.8869318036882134
 20
150.4000000000000057
 30
0.0
 11
206.8869318036882134
 21
145.4000000000000057
 31
0.0
  0
LINE
  5
1429E
  8
2
 10
213.6369318036880998
 20
150.4000000000000057
 30
0.0
 11
213.6369318036880998
 21
162.4000000000000057
 31
0.0
  0
LINE
  5
1429F
  8
2
 10
208.6369318036882134
 20
162.4000000000000057
 30
0.0
 11
208.6369318036882134
 21
150.4000000000000057
 31
0.0
  0
LINE
  5
142A0
  8
2
 10
193.1130681963119002
 20
145.4000000000000057
 30
0.0
 11
193.1130681963119002
 21
150.4000000000000057
 31
0.0
  0
LINE
  5
142A1
  8
2
 10
184.6130681963119002
 20
150.4000000000000057
 30
0.0
 11
184.6130681963119002
 21
145.4000000000000057
 31
0.0
  0
LINE
  5
142A2
  8
2
 10
191.3630681963119002
 20
150.4000000000000057
 30
0.0
 11
191.3630681963119002
 21
162.4000000000000057
 31
0.0
  0
LINE
  5
142A3
  8
2
 10
186.3630681963119002
 20
162.4000000000000057
 30
0.0
 11
186.3630681963119002
 21
150.4000000000000057
 31
0.0
  0
LINE
  5
142A4
  8
2
 10
142.999999999999801
 20
155.0
 30
0.0
 11
142.999999999999801
 21
145.0000000000001137
 31
0.0
  0
LINE
  5
142A5
  8
2
 10
152.0
 20
145.0000000000001137
 30
0.0
 11
152.0
 21
155.0
 31
0.0
  0
LINE
  5
142A6
  8
2
 10
248.0
 20
155.0
 30
0.0
 11
248.0
 21
145.0000000000001137
 31
0.0
  0
LINE
  5
142A7
  8
2
 10
257.0
 20
145.0000000000001137
 30
0.0
 11
257.0
 21
155.0
 31
0.0
  0
LINE
  5
142A8
  8
2
 10
178.6999999999999034
 20
162.999999999999801
 30
0.0
 11
179.6999999999999034
 21
162.0
 31
0.0
  0
LINE
  5
142A9
  8
2
 10
220.3000000000000114
 20
162.0
 30
0.0
 11
221.3000000000000114
 21
162.999999999999801
 31
0.0
  0
LINE
  5
142AA
  8
2
 10
179.6999999999999034
 20
162.0
 30
0.0
 11
179.6999999999999034
 21
160.0
 31
0.0
  0
LINE
  5
142AB
  8
2
 10
220.3000000000000114
 20
160.0
 30
0.0
 11
220.3000000000000114
 21
162.0
 31
0.0
  0
LINE
  5
142AC
  8
2
 10
180.0
 20
160.0
 30
0.0
 11
180.0
 21
157.0
 31
0.0
  0
LINE
  5
142AD
  8
2
 10
220.0
 20
157.0
 30
0.0
 11
220.0
 21
160.0
 31
0.0
  0
LINE
  5
142AE
  8
2
 10
197.4999999999710099
 20
147.0000000000663931
 30
0.0
 11
198.0
 21
146.6995696905478042
 31
0.0
  0
LINE
  5
142AF
  8
2
 10
202.0
 20
146.6995696905478042
 30
0.0
 11
202.5000000000291891
 21
147.0000000000663931
 31
0.0
  0
LINE
  5
142B0
  8
2
 10
202.5000000000291891
 20
147.0000000000663931
 30
0.0
 11
202.5000000000001137
 21
161.0000000000663931
 31
0.0
  0
LINE
  5
142B1
  8
2
 10
197.5
 20
161.0000000000663931
 30
0.0
 11
197.5000000000291891
 21
147.0000000000663931
 31
0.0
  0
LINE
  5
142B2
  8
2
 10
198.0
 20
146.6995696904862996
 30
0.0
 11
198.0
 21
145.0
 31
0.0
  0
LINE
  5
142B3
  8
2
 10
202.0
 20
145.0
 30
0.0
 11
202.0
 21
146.6995696904862996
 31
0.0
  0
LINE
  5
142B4
  8
2
 10
193.8630681963119002
 20
145.0
 30
0.0
 11
193.8630681963119002
 21
150.4000000000000057
 31
0.0
  0
LINE
  5
142B5
  8
2
 10
183.8630681963119002
 20
150.4000000000000057
 30
0.0
 11
183.8630681963119002
 21
145.0
 31
0.0
  0
LINE
  5
142B6
  8
2
 10
216.1369318036882134
 20
145.0
 30
0.0
 11
216.1369318036882134
 21
150.4000000000000057
 31
0.0
  0
LINE
  5
142B7
  8
2
 10
206.1369318036882134
 20
150.4000000000000057
 30
0.0
 11
206.1369318036882134
 21
145.0
 31
0.0
  0
LINE
  5
142B8
  8
2
 10
191.6130681963119002
 20
150.4000000000000057
 30
0.0
 11
191.6130681963119002
 21
157.0
 31
0.0
  0
LINE
  5
142B9
  8
2
 10
186.1130681963119002
 20
157.0
 30
0.0
 11
186.1130681963119002
 21
150.4000000000000057
 31
0.0
  0
LINE
  5
142BA
  8
2
 10
213.8869318036880998
 20
150.4000000000000057
 30
0.0
 11
213.8869318036880998
 21
157.0
 31
0.0
  0
LINE
  5
142BB
  8
2
 10
208.3869318036882134
 20
157.0
 30
0.0
 11
208.3869318036882134
 21
150.4000000000000057
 31
0.0
  0
LINE
  5
142BC
  8
2
 10
188.999999999999801
 20
157.0
 30
0.0
 11
190.0
 21
156.0
 31
0.0
  0
LINE
  5
142BD
  8
2
 10
210.0
 20
156.0
 30
0.0
 11
211.0
 21
157.0
 31
0.0
  0
LINE
  5
142BE
  8
2
 10
190.0
 20
156.0
 30
0.0
 11
190.0
 21
145.0
 31
0.0
  0
LINE
  5
142BF
  8
2
 10
210.0
 20
145.0
 30
0.0
 11
210.0
 21
156.0
 31
0.0
  0
LINE
  5
142C0
  8
2
 10
150.499999999999801
 20
155.0000000000304965
 30
0.0
 11
149.5000000000140119
 21
155.6008606190468981
 31
0.0
  0
LINE
  5
142C1
  8
2
 10
145.4999999999859028
 20
155.6008606190468981
 30
0.0
 11
144.5000000000001137
 21
155.0000000000304965
 31
0.0
  0
LINE
  5
142C2
  8
2
 10
150.499999999999801
 20
139.0
 30
0.0
 11
150.499999999999801
 21
155.0000000000304965
 31
0.0
  0
LINE
  5
142C3
  8
2
 10
144.4999999999494094
 20
155.0000000000001137
 30
0.0
 11
144.5
 21
139.0
 31
0.0
  0
LINE
  5
142C4
  8
2
 10
255.5
 20
155.0000000000304965
 30
0.0
 11
254.5000000000140972
 21
155.6008606190468981
 31
0.0
  0
LINE
  5
142C5
  8
2
 10
250.4999999999859881
 20
155.6008606190468981
 30
0.0
 11
249.5
 21
155.0000000000304965
 31
0.0
  0
LINE
  5
142C6
  8
2
 10
255.5
 20
139.0
 30
0.0
 11
255.5000000000505054
 21
155.0000000000001137
 31
0.0
  0
LINE
  5
142C7
  8
2
 10
249.4999999999494094
 20
155.0000000000001137
 30
0.0
 11
249.5
 21
139.0
 31
0.0
  0
LINE
  5
142C8
  8
2
 10
149.499999999999801
 20
155.6008606190357
 30
0.0
 11
149.499999999999801
 21
158.5758839931816055
 31
0.0
  0
LINE
  5
142C9
  8
2
 10
145.5
 20
157.6524112286793979
 30
0.0
 11
145.5
 21
155.6008606190357
 31
0.0
  0
LINE
  5
142CA
  8
2
 10
254.5
 20
155.6008606190357
 30
0.0
 11
254.5
 21
157.6524112286793979
 31
0.0
  0
LINE
  5
142CB
  8
2
 10
250.5
 20
158.5758839931816055
 30
0.0
 11
250.5
 21
155.6008606190357
 31
0.0
  0
CIRCLE
  5
142CC
  8
0
 10
147.5
 20
99.9999999999999147
 30
0.0
 40
3.9999999999999711
  0
CIRCLE
  5
142CD
  8
0
 10
252.5
 20
99.9999999999999147
 30
0.0
 40
4.0
  0
CIRCLE
  5
142CE
  8
0
 10
147.5
 20
39.9999999999999289
 30
0.0
 40
3.9999999999999711
  0
CIRCLE
  5
142CF
  8
0
 10
252.5
 20
39.9999999999999218
 30
0.0
 40
4.0
  0
LINE
  5
142D0
  8
0
 10
213.1369318036882134
 20
79.9822312653088403
 30
0.0
 11
213.1369318036882134
 21
82.291632342067345
 31
0.0
  0
LINE
  5
142D1
  8
0
 10
211.1369318036880998
 20
83.4463328804466045
 30
0.0
 11
213.1369318036882134
 21
82.291632342067345
 31
0.0
  0
LINE
  5
142D2
  8
0
 10
211.1369318036880998
 20
83.4463328804466045
 30
0.0
 11
209.1369318036880998
 21
82.291632342067345
 31
0.0
  0
LINE
  5
142D3
  8
0
 10
209.1369318036880998
 20
82.291632342067345
 30
0.0
 11
209.1369318036880998
 21
79.9822312653088403
 31
0.0
  0
LINE
  5
142D4
  8
0
 10
211.1369318036880998
 20
78.8275307269296093
 30
0.0
 11
209.1369318036880998
 21
79.9822312653088403
 31
0.0
  0
LINE
  5
142D5
  8
0
 10
211.1369318036880998
 20
78.8275307269296093
 30
0.0
 11
213.1369318036882134
 21
79.9822312653088403
 31
0.0
  0
CIRCLE
  5
142D6
  8
0
 10
211.1369318036880998
 20
81.136931803688114
 30
0.0
 40
4.2500000000000284
  0
LINE
  5
142D7
  8
0
 10
190.8630681963119002
 20
79.9822312653088545
 30
0.0
 11
190.8630681963119002
 21
82.291632342067345
 31
0.0
  0
LINE
  5
142D8
  8
0
 10
188.8630681963119002
 20
83.4463328804466471
 30
0.0
 11
190.8630681963119002
 21
82.291632342067345
 31
0.0
  0
LINE
  5
142D9
  8
0
 10
188.8630681963119002
 20
83.4463328804466471
 30
0.0
 11
186.8630681963119002
 21
82.2916323420673734
 31
0.0
  0
LINE
  5
142DA
  8
0
 10
186.8630681963119002
 20
82.2916323420673734
 30
0.0
 11
186.8630681963119002
 21
79.9822312653088829
 31
0.0
  0
LINE
  5
142DB
  8
0
 10
188.8630681963117013
 20
78.8275307269296519
 30
0.0
 11
186.8630681963119002
 21
79.9822312653088829
 31
0.0
  0
LINE
  5
142DC
  8
0
 10
188.8630681963117013
 20
78.8275307269296519
 30
0.0
 11
190.8630681963119002
 21
79.9822312653088545
 31
0.0
  0
CIRCLE
  5
142DD
  8
0
 10
188.8630681963119002
 20
81.1369318036881566
 30
0.0
 40
4.25
  0
LINE
  5
142DE
  8
0
 10
190.8630681963117013
 20
57.708367657932591
 30
0.0
 11
190.8630681963117013
 21
60.0177687346911028
 31
0.0
  0
LINE
  5
142DF
  8
0
 10
188.8630681963117013
 20
61.1724692730703765
 30
0.0
 11
190.8630681963117013
 21
60.0177687346911028
 31
0.0
  0
LINE
  5
142E0
  8
0
 10
188.8630681963117013
 20
61.1724692730703765
 30
0.0
 11
186.8630681963117013
 21
60.0177687346911313
 31
0.0
  0
LINE
  5
142E1
  8
0
 10
186.8630681963117013
 20
60.0177687346911313
 30
0.0
 11
186.8630681963117013
 21
57.7083676579326266
 31
0.0
  0
LINE
  5
142E2
  8
0
 10
188.8630681963117013
 20
56.5536671195533813
 30
0.0
 11
186.8630681963117013
 21
57.7083676579326266
 31
0.0
  0
LINE
  5
142E3
  8
0
 10
188.8630681963117013
 20
56.5536671195533813
 30
0.0
 11
190.8630681963117013
 21
57.708367657932591
 31
0.0
  0
CIRCLE
  5
142E4
  8
0
 10
188.8630681963117013
 20
58.8630681963118789
 30
0.0
 40
4.25
  0
LINE
  5
142E5
  8
0
 10
213.1369318036880998
 20
57.7083676579325981
 30
0.0
 11
213.1369318036880998
 21
60.0177687346911028
 31
0.0
  0
LINE
  5
142E6
  8
0
 10
211.1369318036880998
 20
61.172469273070341
 30
0.0
 11
213.1369318036880998
 21
60.0177687346911028
 31
0.0
  0
LINE
  5
142E7
  8
0
 10
211.1369318036880998
 20
61.172469273070341
 30
0.0
 11
209.1369318036880998
 21
60.0177687346911028
 31
0.0
  0
LINE
  5
142E8
  8
0
 10
209.1369318036880998
 20
60.0177687346911028
 30
0.0
 11
209.1369318036880998
 21
57.7083676579325981
 31
0.0
  0
LINE
  5
142E9
  8
0
 10
211.1369318036880998
 20
56.55366711955336
 30
0.0
 11
209.1369318036880998
 21
57.7083676579325981
 31
0.0
  0
LINE
  5
142EA
  8
0
 10
211.1369318036880998
 20
56.55366711955336
 30
0.0
 11
213.1369318036880998
 21
57.7083676579325981
 31
0.0
  0
CIRCLE
  5
142EB
  8
0
 10
211.1369318036880998
 20
58.8630681963118718
 30
0.0
 40
4.2500000000000284
  0
CIRCLE
  5
142EC
  8
0
 10
252.5
 20
74.9999999999998295
 30
0.0
 40
3.0
  0
CIRCLE
  5
142ED
  8
0
 10
147.5
 20
75.0000000000001705
 30
0.0
 40
3.0
  0
CIRCLE
  5
142EE
  8
0
 10
147.5
 20
40.0
 30
0.0
 40
4.5000000000000142
  0
CIRCLE
  5
142EF
  8
0
 10
147.5
 20
100.0
 30
0.0
 40
4.5
  0
CIRCLE
  5
142F0
  8
0
 10
252.5
 20
100.0
 30
0.0
 40
4.5
  0
CIRCLE
  5
142F1
  8
0
 10
252.5
 20
39.9999999999999716
 30
0.0
 40
4.5000000000000142
  0
CIRCLE
  5
142F2
  8
0
 10
199.999999999999801
 20
54.25
 30
0.0
 40
2.0
  0
CIRCLE
  5
142F3
  8
0
 10
200.0
 20
70.0
 30
0.0
 40
10.0
  0
CIRCLE
  5
142F4
  8
0
 10
211.1369318036880998
 20
81.136931803688114
 30
0.0
 40
5.0000000000000142
  0
CIRCLE
  5
142F5
  8
0
 10
211.1369318036880998
 20
58.8630681963118434
 30
0.0
 40
4.999999999999984
  0
CIRCLE
  5
142F6
  8
0
 10
188.8630681963119002
 20
81.1369318036881566
 30
0.0
 40
5.0000000000000142
  0
CIRCLE
  5
142F7
  8
0
 10
188.8630681963117013
 20
58.8630681963119002
 30
0.0
 40
4.999999999999984
  0
LINE
  5
142F8
  8
0
 10
146.5
 20
28.0000000000000213
 30
0.0
 11
253.5
 21
28.0
 31
0.0
  0
ARC
  5
142F9
  8
0
 10
146.5
 20
36.0
 30
0.0
 40
8.0
 50
180.0
 51
270.0
  0
LINE
  5
142FA
  8
0
 10
138.5
 20
104.0
 30
0.0
 11
138.5
 21
36.0
 31
0.0
  0
ARC
  5
142FB
  8
0
 10
146.5
 20
104.0
 30
0.0
 40
8.0
 50
90.0
 51
180.0
  0
LINE
  5
142FC
  8
0
 10
253.5
 20
112.0
 30
0.0
 11
146.5
 21
112.0
 31
0.0
  0
ARC
  5
142FD
  8
0
 10
253.5
 20
104.0
 30
0.0
 40
8.0
 50
0.0
 51
90.0
  0
LINE
  5
142FE
  8
0
 10
261.5
 20
35.9999999999999787
 30
0.0
 11
261.5
 21
104.0
 31
0.0
  0
ARC
  5
142FF
  8
0
 10
253.5
 20
35.9999999999999787
 30
0.0
 40
8.0
 50
270.0
 51
0.0
  0
LINE
  5
14300
  8
0
 10
86.4999999999999289
 20
162.999999999999801
 30
0.0
 11
86.4999999999999289
 21
154.999999999999801
 31
0.0
  0
LINE
  5
14301
  8
0
 10
73.4999999999999289
 20
155.0
 30
0.0
 11
73.4999999999999289
 21
163.0
 31
0.0
  0
LINE
  5
14302
  8
0
 10
83.9999999999998721
 20
144.9999999999996874
 30
0.0
 11
83.9999999999998721
 21
135.0
 31
0.0
  0
LINE
  5
14303
  8
0
 10
75.9999999999998721
 20
135.0
 30
0.0
 11
75.9999999999998721
 21
144.9999999999998863
 31
0.0
  0
LINE
  5
14304
  8
0
 10
26.4999999999999503
 20
162.999999999999801
 30
0.0
 11
26.4999999999999503
 21
154.999999999999801
 31
0.0
  0
LINE
  5
14305
  8
0
 10
13.4999999999999396
 20
155.0
 30
0.0
 11
13.4999999999999396
 21
163.0
 31
0.0
  0
LINE
  5
14306
  8
0
 10
23.9999999999998899
 20
145.0
 30
0.0
 11
23.9999999999998899
 21
135.0
 31
0.0
  0
LINE
  5
14307
  8
0
 10
15.9999999999998792
 20
135.0
 30
0.0
 11
15.9999999999998792
 21
145.0000000000001137
 31
0.0
  0
LINE
  5
14308
  8
0
 10
7.9999999999999423
 20
160.5382636177490099
 30
0.0
 11
10.0
 21
161.0000000000001137
 31
0.0
  0
LINE
  5
14309
  8
0
 10
90.0
 20
160.999999999999801
 30
0.0
 11
91.9999999999999289
 21
160.5382636177486972
 31
0.0
  0
LINE
  5
1430A
  8
0
 10
51.9999999999997726
 20
139.0
 30
0.0
 11
51.9999999999997726
 21
145.0
 31
0.0
  0
LINE
  5
1430B
  8
0
 10
57.9999999999997726
 20
145.0
 30
0.0
 11
57.9999999999997726
 21
139.0
 31
0.0
  0
LINE
  5
1430C
  8
0
 10
10.0
 20
161.0000000000001137
 30
0.0
 11
10.0
 21
163.0000000000001137
 31
0.0
  0
LINE
  5
1430D
  8
0
 10
90.0
 20
162.999999999999801
 30
0.0
 11
90.0
 21
160.999999999999801
 31
0.0
  0
LINE
  5
1430E
  8
0
 10
75.9999999999998721
 20
135.0
 30
0.0
 11
83.9999999999998721
 21
135.0
 31
0.0
  0
LINE
  5
1430F
  8
0
 10
15.9999999999998792
 20
135.0
 30
0.0
 11
23.9999999999998899
 21
135.0
 31
0.0
  0
LINE
  5
14312
  8
0
 10
13.4999999999998792
 20
156.9409695017120896
 30
0.0
 11
13.0000003569455203
 21
156.8737609469351924
 31
0.0
  0
LINE
  5
1431C
  8
0
 10
86.9999999999999289
 20
156.8737608942491875
 30
0.0
 11
86.4999999999998863
 21
156.9409694972409
 31
0.0
  0
LINE
  5
1431E
  8
0
 10
90.0
 20
160.999999999999801
 30
0.0
 11
86.499999999999801
 21
160.999999999999801
 31
0.0
  0
LINE
  5
1431F
  8
0
 10
73.4999999999998721
 20
160.999999999999801
 30
0.0
 11
26.4999999999998899
 21
161.0000000000001137
 31
0.0
  0
LINE
  5
14320
  8
0
 10
13.4999999999998206
 20
161.0000000000001137
 30
0.0
 11
10.0
 21
161.0000000000001137
 31
0.0
  0
LINE
  5
14321
  8
0
 10
91.9999999999999289
 20
160.5382636177486972
 30
0.0
 11
91.9999999999999289
 21
144.9999999999996874
 31
0.0
  0
LINE
  5
14322
  8
0
 10
32.9999999999999432
 20
155.0
 30
0.0
 11
7.9999999999999423
 21
155.0000000000001137
 31
0.0
  0
LINE
  5
14323
  8
0
 10
7.9999999999999423
 20
145.0000000000001137
 30
0.0
 11
91.9999999999999289
 21
144.9999999999998863
 31
0.0
  0
LINE
  5
14324
  8
0
 10
91.9999999999999289
 20
154.999999999999801
 30
0.0
 11
66.9999999999999289
 21
155.0
 31
0.0
  0
LINE
  5
14325
  8
0
 10
67.0643253377056112
 20
155.5
 30
0.0
 11
69.7051928384388333
 21
155.5
 31
0.0
  0
LINE
  5
14326
  8
0
 10
71.9999999999999289
 20
156.236707412780504
 30
0.0
 11
71.9999999999999289
 21
155.0
 31
0.0
  0
LINE
  5
14327
  8
0
 10
30.29480716156041
 20
155.5
 30
0.0
 11
32.935674662293593
 21
155.5
 31
0.0
  0
LINE
  5
14328
  8
0
 10
27.9999999999999396
 20
155.0
 30
0.0
 11
27.9999999999999396
 21
156.2367073456184983
 31
0.0
  0
LINE
  5
14329
  8
0
 10
7.9999999999999423
 20
145.0000000000001137
 30
0.0
 11
7.9999999999999423
 21
160.5382636177490099
 31
0.0
  0
LINE
  5
1432A
  8
0
 10
57.9999999999997726
 20
139.0
 30
0.0
 11
51.9999999999997726
 21
139.0
 31
0.0
  0
LINE
  5
1432B
  8
0
 10
10.0
 20
162.999999999999801
 30
0.0
 11
90.0
 21
162.999999999999801
 31
0.0
  0
LINE
  5
1432C
  8
0
 10
144.5000000000001137
 20
216.73205080756901
 30
0.0
 11
144.5000000000001137
 21
213.267949192431189
 31
0.0
  0
LINE
  5
1432D
  8
0
 10
147.5000000000001137
 20
211.5358983848624064
 30
0.0
 11
144.5000000000001137
 21
213.267949192431189
 31
0.0
  0
LINE
  5
1432E
  8
0
 10
147.5000000000001137
 20
211.5358983848624064
 30
0.0
 11
150.5000000000001137
 21
213.267949192431189
 31
0.0
  0
LINE
  5
1432F
  8
0
 10
150.5000000000001137
 20
213.267949192431189
 30
0.0
 11
150.5000000000001137
 21
216.73205080756901
 31
0.0
  0
LINE
  5
14330
  8
0
 10
147.5000000000001137
 20
218.4641016151377926
 30
0.0
 11
150.5000000000001137
 21
216.73205080756901
 31
0.0
  0
LINE
  5
14331
  8
0
 10
147.5000000000001137
 20
218.4641016151377926
 30
0.0
 11
144.5000000000001137
 21
216.73205080756901
 31
0.0
  0
CIRCLE
  5
14332
  8
0
 10
147.5000000000001137
 20
215.0
 30
0.0
 40
6.5
  0
LINE
  5
14333
  8
0
 10
249.5
 20
216.73205080756901
 30
0.0
 11
249.5
 21
213.2679491924311037
 31
0.0
  0
LINE
  5
14334
  8
0
 10
252.5000000000001137
 20
211.5358983848622927
 30
0.0
 11
249.5
 21
213.2679491924311037
 31
0.0
  0
LINE
  5
14335
  8
0
 10
252.5000000000001137
 20
211.5358983848622927
 30
0.0
 11
255.5000000000001137
 21
213.2679491924311037
 31
0.0
  0
LINE
  5
14336
  8
0
 10
255.5000000000001137
 20
213.2679491924311037
 30
0.0
 11
255.5000000000001137
 21
216.73205080756901
 31
0.0
  0
LINE
  5
14337
  8
0
 10
252.5000000000001137
 20
218.4641016151377926
 30
0.0
 11
255.5000000000001137
 21
216.73205080756901
 31
0.0
  0
LINE
  5
14338
  8
0
 10
252.5000000000001137
 20
218.4641016151377926
 30
0.0
 11
249.5
 21
216.73205080756901
 31
0.0
  0
CIRCLE
  5
14339
  8
0
 10
252.5000000000001137
 20
215.0
 30
0.0
 40
6.5
  0
LINE
  5
1433A
  8
0
 10
144.5000000000001137
 20
276.73205080756901
 30
0.0
 11
144.5000000000001137
 21
273.2679491924312174
 31
0.0
  0
LINE
  5
1433B
  8
0
 10
147.5000000000001137
 20
271.5358983848623211
 30
0.0
 11
144.5000000000001137
 21
273.2679491924312174
 31
0.0
  0
LINE
  5
1433C
  8
0
 10
147.5000000000001137
 20
271.5358983848623211
 30
0.0
 11
150.5000000000001137
 21
273.2679491924312174
 31
0.0
  0
LINE
  5
1433D
  8
0
 10
150.5000000000001137
 20
273.2679491924312174
 30
0.0
 11
150.5000000000001137
 21
276.73205080756901
 31
0.0
  0
LINE
  5
1433E
  8
0
 10
147.5000000000001137
 20
278.4641016151376789
 30
0.0
 11
150.5000000000001137
 21
276.73205080756901
 31
0.0
  0
LINE
  5
1433F
  8
0
 10
147.5000000000001137
 20
278.4641016151376789
 30
0.0
 11
144.5000000000001137
 21
276.73205080756901
 31
0.0
  0
CIRCLE
  5
14340
  8
0
 10
147.5000000000001137
 20
275.0
 30
0.0
 40
6.5
  0
LINE
  5
14341
  8
0
 10
249.5
 20
276.73205080756901
 30
0.0
 11
249.5
 21
273.2679491924312174
 31
0.0
  0
LINE
  5
14342
  8
0
 10
252.5000000000001137
 20
271.5358983848623211
 30
0.0
 11
249.5
 21
273.2679491924312174
 31
0.0
  0
LINE
  5
14343
  8
0
 10
252.5000000000001137
 20
271.5358983848623211
 30
0.0
 11
255.5000000000001137
 21
273.2679491924312174
 31
0.0
  0
LINE
  5
14344
  8
0
 10
255.5000000000001137
 20
273.2679491924312174
 30
0.0
 11
255.5000000000001137
 21
276.73205080756901
 31
0.0
  0
LINE
  5
14345
  8
0
 10
252.5000000000001137
 20
278.4641016151376789
 30
0.0
 11
255.5000000000001137
 21
276.73205080756901
 31
0.0
  0
LINE
  5
14346
  8
0
 10
252.5000000000001137
 20
278.4641016151376789
 30
0.0
 11
249.5
 21
276.73205080756901
 31
0.0
  0
CIRCLE
  5
14347
  8
0
 10
252.5000000000001137
 20
275.0
 30
0.0
 40
6.5
  0
CIRCLE
  5
14348
  8
0
 10
211.1369318036882134
 20
233.8630681963120139
 30
0.0
 40
2.5
  0
CIRCLE
  5
14349
  8
0
 10
188.8630681963119002
 20
233.8630681963120139
 30
0.0
 40
2.5
  0
CIRCLE
  5
1434A
  8
0
 10
188.8630681963119002
 20
256.1369318036881282
 30
0.0
 40
2.5
  0
CIRCLE
  5
1434B
  8
0
 10
211.1369318036882134
 20
256.136931803688185
 30
0.0
 40
2.5
  0
CIRCLE
  5
1434C
  8
0
 10
200.0
 20
245.0
 30
0.0
 40
21.3000000000000718
  0
CIRCLE
  5
1434D
  8
0
 10
200.0
 20
245.0
 30
0.0
 40
39.9999999999999503
  0
CIRCLE
  5
1434E
  8
0
 10
200.0
 20
245.0
 30
0.0
 40
20.3000000000000718
  0
CIRCLE
  5
1434F
  8
0
 10
200.0
 20
260.7500000000001137
 30
0.0
 40
2.500000000000012
  0
ARC
  5
14354
  8
0
 10
200.0
 20
245.0
 30
0.0
 40
63.8231173085637167
 50
195.5077689454595884
 51
197.9837321311792095
  0
ARC
  5
14357
  8
0
 10
200.0
 20
245.0
 30
0.0
 40
63.8231173085636101
 50
162.0162678688207905
 51
164.4922310545402979
  0
ARC
  5
14362
  8
0
 10
200.0
 20
245.0
 30
0.0
 40
63.8231173085637167
 50
15.5077689454596594
 51
17.9837321311822116
  0
ARC
  5
14365
  8
0
 10
200.0
 20
245.0
 30
0.0
 40
63.8231173085636811
 50
342.0162678688208189
 51
344.4922310545404116
  0
CIRCLE
  5
1436C
  8
0
 10
200.0
 20
245.0
 30
0.0
 40
20.0000000000000604
  0
CIRCLE
  5
1436D
  8
0
 10
188.8630681963119002
 20
256.1369318036881282
 30
0.0
 40
2.75
  0
CIRCLE
  5
1436E
  8
0
 10
188.8630681963119002
 20
233.8630681963120139
 30
0.0
 40
2.7499999999999432
  0
CIRCLE
  5
1436F
  8
0
 10
211.1369318036882134
 20
256.136931803688185
 30
0.0
 40
2.75
  0
CIRCLE
  5
14370
  8
0
 10
211.1369318036882134
 20
233.8630681963120139
 30
0.0
 40
2.7499999999999432
  0
CIRCLE
  5
14371
  8
0
 10
200.0
 20
245.0
 30
0.0
 40
11.0
  0
CIRCLE
  5
14372
  8
0
 10
200.0
 20
245.0
 30
0.0
 40
10.0
  0
ARC
  5
14373
  8
0
 10
143.5
 20
227.999999999999801
 30
0.0
 40
5.0000000000000497
 50
180.7371344080636959
 51
212.7543666685787969
  0
ARC
  5
14374
  8
0
 10
143.5000000000001137
 20
261.9999999999997726
 30
0.0
 40
5.000000000000159
 50
147.2456333314256085
 51
179.2628655919392884
  0
ARC
  5
14375
  8
0
 10
256.5000000000001137
 20
228.0
 30
0.0
 40
5.0000000000000728
 50
327.2456333314274843
 51
359.2628655919393168
  0
ARC
  5
14376
  8
0
 10
256.5000000000001137
 20
262.0
 30
0.0
 40
5.0000000000000222
 50
0.7371344080672281
 51
32.7543666685816319
  0
ARC
  5
14377
  8
0
 10
146.5000000000001137
 20
211.0
 30
0.0
 40
8.0
 50
180.0
 51
270.0
  0
ARC
  5
14378
  8
0
 10
146.5000000000001137
 20
279.0
 30
0.0
 40
8.0
 50
90.0
 51
180.0
  0
LINE
  5
14379
  8
0
 10
138.5000000000001137
 20
279.0
 30
0.0
 11
138.5
 21
211.0
 31
0.0
  0
ARC
  5
1437A
  8
0
 10
253.5000000000001137
 20
211.0
 30
0.0
 40
8.0
 50
270.0
 51
0.0
  0
LINE
  5
1437B
  8
0
 10
146.5000000000001137
 20
203.0
 30
0.0
 11
253.5000000000001137
 21
203.0
 31
0.0
  0
ARC
  5
1437C
  8
0
 10
253.5000000000001137
 20
279.0
 30
0.0
 40
8.0
 50
0.0
 51
90.0
  0
LINE
  5
1437D
  8
0
 10
261.5000000000001137
 20
211.0
 30
0.0
 11
261.5000000000001137
 21
279.0
 31
0.0
  0
LINE
  5
1437E
  8
0
 10
253.5000000000001137
 20
287.0
 30
0.0
 11
146.5
 21
287.0
 31
0.0
  0
LINE
  5
1437F
  8
2
 10
154.0
 20
159.6147908532466033
 30
0.0
 11
140.999999999999801
 21
156.6135043686145139
 31
0.0
  0
LINE
  5
14380
  8
2
 10
259.0
 20
156.6135043686144002
 30
0.0
 11
246.0
 21
159.6147908532464896
 31
0.0
  0
CIRCLE
  5
14381
  8
3
 10
188.8630681963119002
 20
233.8630681963120139
 30
0.0
 40
2.066999999999998
  0
LINE
  5
14382
  8
1
 10
138.0
 20
215.0
 30
0.0
 11
157.0000000000001137
 21
215.0
 31
0.0
  0
LINE
  5
14383
  8
1
 10
147.5000000000001137
 20
205.5
 30
0.0
 11
147.5000000000001137
 21
224.5
 31
0.0
  0
LINE
  5
14384
  8
1
 10
147.4999682465440003
 20
244.9999390139111881
 30
0.0
 11
147.4999682465440003
 21
234.9999999999998863
 31
0.0
  0
LINE
  5
14385
  8
1
 10
133.5000000000001137
 20
245.0
 30
0.0
 11
266.5
 21
245.0
 31
0.0
  0
LINE
  5
14386
  8
1
 10
200.0
 20
198.0
 30
0.0
 11
200.0
 21
292.0000000000001137
 31
0.0
  0
LINE
  5
14387
  8
1
 10
192.9289321881346098
 20
237.9289321881346098
 30
0.0
 11
184.7972042044893044
 21
229.7972042044893044
 31
0.0
  0
CIRCLE
  5
14388
  8
3
 10
211.1369318036882134
 20
233.8630681963120139
 30
0.0
 40
2.066999999999998
  0
LINE
  5
14389
  8
1
 10
207.0710678118655892
 20
237.9289321881344108
 30
0.0
 11
215.2027957955108945
 21
229.7972042044893044
 31
0.0
  0
CIRCLE
  5
1438A
  8
3
 10
211.1369318036882134
 20
256.136931803688185
 30
0.0
 40
2.066999999999998
  0
LINE
  5
1438B
  8
1
 10
215.2027957955106956
 20
260.2027957955107809
 30
0.0
 11
207.0710678118655039
 21
252.0710678118655892
 31
0.0
  0
CIRCLE
  5
1438C
  8
3
 10
188.8630681963119002
 20
256.1369318036881282
 30
0.0
 40
2.066999999999998
  0
LINE
  5
1438D
  8
1
 10
184.7972042044893044
 20
260.202795795510724
 30
0.0
 11
192.9289321881346098
 21
252.0710678118655892
 31
0.0
  0
LINE
  5
1438E
  8
1
 10
243.0000000000001137
 20
215.0
 30
0.0
 11
262.0
 21
215.0
 31
0.0
  0
LINE
  5
1438F
  8
1
 10
252.5000000000001137
 20
205.5
 30
0.0
 11
252.5000000000001137
 21
224.5
 31
0.0
  0
LINE
  5
14390
  8
1
 10
243.0000000000001137
 20
275.0
 30
0.0
 11
262.0
 21
275.0
 31
0.0
  0
LINE
  5
14391
  8
1
 10
252.5000000000001137
 20
265.5
 30
0.0
 11
252.5000000000001137
 21
284.5
 31
0.0
  0
LINE
  5
14392
  8
1
 10
138.0000000000001137
 20
275.0
 30
0.0
 11
157.0000000000001137
 21
275.0
 31
0.0
  0
LINE
  5
14393
  8
1
 10
147.5000000000001137
 20
265.5
 30
0.0
 11
147.5000000000001137
 21
284.5
 31
0.0
  0
LINE
  5
14394
  8
1
 10
49.9999999999998934
 20
140.0
 30
0.0
 11
50.0
 21
167.999999999999801
 31
0.0
  0
LINE
  5
14395
  8
1
 10
54.9999999999997726
 20
136.0
 30
0.0
 11
54.9999999999997726
 21
158.0000000000001137
 31
0.0
  0
CIRCLE
  5
14396
  8
0
 10
147.4999682465440003
 20
239.9999695069554946
 30
0.0
 40
2.0
  0
LINE
  5
14397
  8
1
 10
142.499968246544114
 20
239.9999695069554946
 30
0.0
 11
152.4999682465440003
 21
239.9999695069554946
 31
0.0
  0
LINE
  5
14398
  8
1
 10
200.0
 20
140.0000000000001137
 30
0.0
 11
199.999999999999801
 21
168.0
 31
0.0
  0
LINE
  5
14399
  8
1
 10
252.5000317534559997
 20
244.9999390139109892
 30
0.0
 11
252.5000317534559997
 21
234.9999999999996874
 31
0.0
  0
CIRCLE
  5
1439A
  8
0
 10
252.5000317534559997
 20
239.9999695069552956
 30
0.0
 40
2.0
  0
LINE
  5
1439B
  8
1
 10
257.5000317534560281
 20
239.9999695069552956
 30
0.0
 11
247.5000317534559997
 21
239.9999695069554093
 31
0.0
  0
LINE
  5
1439C
  8
1
 10
140.0
 20
40.0
 30
0.0
 11
155.0
 21
40.0
 31
0.0
  0
LINE
  5
1439D
  8
1
 10
147.5
 20
32.4999999999999787
 30
0.0
 11
147.5
 21
47.5000000000000071
 31
0.0
  0
LINE
  5
1439E
  8
1
 10
194.5199224458042124
 20
64.5199224458042977
 30
0.0
 11
183.2062139468195028
 21
53.2062139468195596
 31
0.0
  0
LINE
  5
1439F
  8
1
 10
140.0
 20
100.0
 30
0.0
 11
155.0
 21
100.0
 31
0.0
  0
LINE
  5
143A0
  8
1
 10
147.5
 20
92.4999999999999858
 30
0.0
 11
147.5
 21
107.5
 31
0.0
  0
LINE
  5
143A1
  8
1
 10
245.0
 20
100.0
 30
0.0
 11
260.0
 21
100.0
 31
0.0
  0
LINE
  5
143A2
  8
1
 10
252.5
 20
92.4999999999999858
 30
0.0
 11
252.5
 21
107.5
 31
0.0
  0
LINE
  5
143A3
  8
1
 10
245.0
 20
39.9999999999999218
 30
0.0
 11
260.0
 21
39.9999999999999218
 31
0.0
  0
LINE
  5
143A4
  8
1
 10
252.5
 20
32.4999999999999005
 30
0.0
 11
252.5
 21
47.4999999999999218
 31
0.0
  0
LINE
  5
143A5
  8
1
 10
183.2062139468195028
 20
86.7937860531805256
 30
0.0
 11
194.5199224458042124
 21
75.4800775541957876
 31
0.0
  0
LINE
  5
143A6
  8
1
 10
205.4800775541957023
 20
64.5199224458042124
 30
0.0
 11
216.7937860531804972
 21
53.2062139468194886
 31
0.0
  0
LINE
  5
143A7
  8
1
 10
216.7937860531804972
 20
86.7937860531804688
 30
0.0
 11
205.4800775541957023
 21
75.4800775541957307
 31
0.0
  0
LINE
  5
143A8
  8
1
 10
147.5
 20
81.000000000000199
 30
0.0
 11
147.5
 21
69.0000000000001847
 31
0.0
  0
LINE
  5
143A9
  8
1
 10
141.5
 20
75.000000000000199
 30
0.0
 11
153.5
 21
75.000000000000199
 31
0.0
  0
LINE
  5
143AA
  8
1
 10
133.499999999999801
 20
70.0
 30
0.0
 11
266.5
 21
70.0
 31
0.0
  0
LINE
  5
143AB
  8
1
 10
200.0
 20
23.0
 30
0.0
 11
200.0
 21
117.0
 31
0.0
  0
LINE
  5
143AC
  8
1
 10
252.4999999999998863
 20
81.0000000000000284
 30
0.0
 11
252.4999999999998863
 21
69.0000000000000568
 31
0.0
  0
LINE
  5
143AD
  8
1
 10
258.4999999999998863
 20
75.0000000000000284
 30
0.0
 11
246.4999999999998863
 21
75.0000000000000711
 31
0.0
  0
LINE
  5
143AE
  8
3
 10
255.8234999999999957
 20
135.0
 30
0.0
 11
255.8234999999999957
 21
145.0000000000001137
 31
0.0
  0
LINE
  5
143AF
  8
3
 10
249.1765000000000043
 20
135.0
 30
0.0
 11
249.1765000000000043
 21
145.0000000000001137
 31
0.0
  0
LINE
  5
143B0
  8
1
 10
252.5
 20
166.0
 30
0.0
 11
252.5
 21
132.0
 31
0.0
  0
LINE
  5
143B1
  8
3
 10
150.8234999999999957
 20
135.0
 30
0.0
 11
150.8234999999999957
 21
145.0000000000001137
 31
0.0
  0
LINE
  5
143B2
  8
3
 10
144.1765000000000043
 20
135.0
 30
0.0
 11
144.1765000000000043
 21
145.0000000000001137
 31
0.0
  0
LINE
  5
143B3
  8
1
 10
147.499999999999801
 20
166.0
 30
0.0
 11
147.499999999999801
 21
132.0
 31
0.0
  0
LINE
  5
143B4
  8
1
 10
211.1369318036880998
 20
165.4000000000000057
 30
0.0
 11
211.1369318036880998
 21
142.4000000000000057
 31
0.0
  0
LINE
  5
143B5
  8
1
 10
188.8630681963119002
 20
165.4000000000000057
 30
0.0
 11
188.8630681963119002
 21
142.4000000000000057
 31
0.0
  0
LINE
  5
143B6
  8
3
 10
16.6764999999998587
 20
135.0
 30
0.0
 11
16.6764999999998587
 21
145.0000000000001137
 31
0.0
  0
LINE
  5
143B7
  8
3
 10
23.32349999999985
 20
135.0
 30
0.0
 11
23.32349999999985
 21
145.0000000000001137
 31
0.0
  0
LINE
  5
143B8
  8
1
 10
19.9999999999998792
 20
166.0
 30
0.0
 11
19.9999999999998792
 21
132.0
 31
0.0
  0
LINE
  5
143B9
  8
3
 10
76.6764999999998622
 20
135.0
 30
0.0
 11
76.6764999999998622
 21
145.0000000000001137
 31
0.0
  0
LINE
  5
143BA
  8
3
 10
83.3234999999998536
 20
135.0
 30
0.0
 11
83.3234999999998536
 21
145.0000000000001137
 31
0.0
  0
LINE
  5
143BB
  8
1
 10
79.9999999999998721
 20
166.0
 30
0.0
 11
79.9999999999998721
 21
132.0
 31
0.0
  0
CIRCLE
  5
143BC
  8
3
 10
147.5
 20
40.0
 30
0.0
 40
3.3234999999999939
  0
CIRCLE
  5
143BD
  8
3
 10
252.5
 20
39.9999999999999218
 30
0.0
 40
3.3234999999999939
  0
CIRCLE
  5
143BE
  8
3
 10
252.5
 20
99.9999999999999147
 30
0.0
 40
3.3234999999999939
  0
CIRCLE
  5
143BF
  8
3
 10
147.5
 20
100.0
 30
0.0
 40
3.3234999999999939
  0
CIRCLE
  5
143C0
  8
1
 10
200.0
 20
245.0
 30
0.0
 40
15.7499999999999805
  0
CIRCLE
  5
143C1
  8
1
 10
199.999999999999801
 20
70.0
 30
0.0
 40
15.7499999999999698
  0
POLYLINE
  5
14CA8
  8
0
 66
     1
 10
0.0
 20
0.0
 30
0.0
  0
VERTEX
  5
15AA1
  8
0
 10
155.5000000000001137
 20
208.000000713891211
 30
0.0
  0
VERTEX
  5
15AA2
  8
0
 10
155.5005354463999083
 20
207.9265261513909024
 30
0.0
  0
VERTEX
  5
15AA3
  8
0
 10
155.5021403453638129
 20
207.853207126813686
 30
0.0
  0
VERTEX
  5
15AA4
  8
0
 10
155.5048125050334136
 20
207.7800433701017084
 30
0.0
  0
VERTEX
  5
15AA5
  8
0
 10
155.5085497335506943
 20
207.7070346111968888
 30
0.0
  0
VERTEX
  5
15AA6
  8
0
 10
155.5133498390570139
 20
207.6341805800412033
 30
0.0
  0
VERTEX
  5
15AA7
  8
0
 10
155.5192106296941006
 20
207.5614810065767983
 30
0.0
  0
VERTEX
  5
15AA8
  8
0
 10
155.526129913603711
 20
207.4889356207455933
 30
0.0
  0
VERTEX
  5
15AA9
  8
0
 10
155.5341054989274028
 20
207.4165441524897062
 30
0.0
  0
VERTEX
  5
15AAA
  8
0
 10
155.5431351938069895
 20
207.3443063317511985
 30
0.0
  0
VERTEX
  5
15AAB
  8
0
 10
155.5532168063841141
 20
207.2722218884719041
 30
0.0
  0
VERTEX
  5
15AAC
  8
0
 10
155.5643481448003911
 20
207.200290552593998
 30
0.0
  0
VERTEX
  5
15AAD
  8
0
 10
155.5765270171974066
 20
207.128512054059513
 30
0.0
  0
VERTEX
  5
15AAE
  8
0
 10
155.5897512317172868
 20
207.056886122810397
 30
0.0
  0
VERTEX
  5
15AAF
  8
0
 10
155.6040203267702111
 20
206.9854127364955048
 30
0.0
  0
VERTEX
  5
15AB0
  8
0
 10
155.6193416240911063
 20
206.9140929917446101
 30
0.0
  0
VERTEX
  5
15AB1
  8
0
 10
155.6357202287888981
 20
206.8429276735988083
 30
0.0
  0
VERTEX
  5
15AB2
  8
0
 10
155.6531607832540089
 20
206.7719175011069126
 30
0.0
  0
VERTEX
  5
15AB3
  8
0
 10
155.6716679298762074
 20
206.701063193317907
 30
0.0
  0
VERTEX
  5
15AB4
  8
0
 10
155.6912463110454041
 20
206.6303654692806901
 30
0.0
  0
VERTEX
  5
15AB5
  8
0
 10
155.7119005691519078
 20
206.5598250480441891
 30
0.0
  0
VERTEX
  5
15AB6
  8
0
 10
155.7336443705113993
 20
206.4894356211131026
 30
0.0
  0
VERTEX
  5
15AB7
  8
0
 10
155.7564736744240008
 20
206.4192361543148877
 30
0.0
  0
VERTEX
  5
15AB8
  8
0
 10
155.7803609723071077
 20
206.3493026951286993
 30
0.0
  0
VERTEX
  5
15AB9
  8
0
 10
155.8052786945006005
 20
206.2797113713612873
 30
0.0
  0
VERTEX
  5
15ABA
  8
0
 10
155.8311992713445022
 20
206.2105383108194872
 30
0.0
  0
VERTEX
  5
15ABB
  8
0
 10
155.8580951331786082
 20
206.1418596413101909
 30
0.0
  0
VERTEX
  5
15ABC
  8
0
 10
155.8859394956540996
 20
206.0737474784297092
 30
0.0
  0
VERTEX
  5
15ABD
  8
0
 10
155.9147292515091863
 20
206.0061698626452085
 30
0.0
  0
VERTEX
  5
15ABE
  8
0
 10
155.9444689046167127
 20
205.9390978427630046
 30
0.0
  0
VERTEX
  5
15ABF
  8
0
 10
155.9751584778497886
 20
205.8725314427485102
 30
0.0
  0
VERTEX
  5
15AC0
  8
0
 10
156.0067979940816087
 20
205.806470686567593
 30
0.0
  0
VERTEX
  5
15AC1
  8
0
 10
156.0393874761853112
 20
205.7409155981856088
 30
0.0
  0
VERTEX
  5
15AC2
  8
0
 10
156.0729269470342899
 20
205.6758662015683115
 30
0.0
  0
VERTEX
  5
15AC3
  8
0
 10
156.1074164295015976
 20
205.611322520681199
 30
0.0
  0
VERTEX
  5
15AC4
  8
0
 10
156.1428559464605996
 20
205.5472845794899968
 30
0.0
  0
VERTEX
  5
15AC5
  8
0
 10
156.179245520784292
 20
205.4837524019602029
 30
0.0
  0
VERTEX
  5
15AC6
  8
0
 10
156.2165851753462107
 20
205.4207260120574006
 30
0.0
  0
VERTEX
  5
15AC7
  8
0
 10
156.2548749330192095
 20
205.3582054337472016
 30
0.0
  0
VERTEX
  5
15AC8
  8
0
 10
156.294114816676796
 20
205.2961906909953882
 30
0.0
  0
VERTEX
  5
15AC9
  8
0
 10
156.3343048491919944
 20
205.2346818077672879
 30
0.0
  0
VERTEX
  5
15ACA
  8
0
 10
156.3754635482146114
 20
205.1736747407240102
 30
0.0
  0
VERTEX
  5
15ACB
  8
0
 10
156.4176049975598062
 20
205.1131813252416123
 30
0.0
  0
VERTEX
  5
15ACC
  8
0
 10
156.4607034178393974
 20
205.0532326289377067
 30
0.0
  0
VERTEX
  5
15ACD
  8
0
 10
156.5047325838662005
 20
204.9938598837059942
 30
0.0
  0
VERTEX
  5
15ACE
  8
0
 10
156.549666270453514
 20
204.9350943214409142
 30
0.0
  0
VERTEX
  5
15ACF
  8
0
 10
156.5954782524138977
 20
204.8769671740363947
 30
0.0
  0
VERTEX
  5
15AD0
  8
0
 10
156.6421423045607071
 20
204.8195096733867047
 30
0.0
  0
VERTEX
  5
15AD1
  8
0
 10
156.689632201706786
 20
204.7627530513858005
 30
0.0
  0
VERTEX
  5
15AD2
  8
0
 10
156.7379217186650919
 20
204.7067285399278944
 30
0.0
  0
VERTEX
  5
15AD3
  8
0
 10
156.786984630248611
 20
204.6514673709071133
 30
0.0
  0
VERTEX
  5
15AD4
  8
0
 10
156.8367947112703007
 20
204.5970007762174134
 30
0.0
  0
VERTEX
  5
15AD5
  8
0
 10
156.8873257365432892
 20
204.5433599877532913
 30
0.0
  0
VERTEX
  5
15AD6
  8
0
 10
156.9385514808807045
 20
204.4905762374085043
 30
0.0
  0
VERTEX
  5
15AD7
  8
0
 10
156.9904538158862124
 20
204.4386662976330058
 30
0.0
  0
VERTEX
  5
15AD8
  8
0
 10
157.043065495797407
 20
204.3875635581007941
 30
0.0
  0
VERTEX
  5
15AD9
  8
0
 10
157.0963949666179928
 20
204.337256461510492
 30
0.0
  0
VERTEX
  5
15ADA
  8
0
 10
157.1504437329689097
 20
204.2877466782767044
 30
0.0
  0
VERTEX
  5
15ADB
  8
0
 10
157.2052132994712963
 20
204.2390358788140077
 30
0.0
  0
VERTEX
  5
15ADC
  8
0
 10
157.2607051707460073
 20
204.1911257335370919
 30
0.0
  0
VERTEX
  5
15ADD
  8
0
 10
157.3169208514144088
 20
204.1440179128605052
 30
0.0
  0
VERTEX
  5
15ADE
  8
0
 10
157.3738618460976113
 20
204.0977140871987956
 30
0.0
  0
VERTEX
  5
15ADF
  8
0
 10
157.4315296594162987
 20
204.0522159269665963
 30
0.0
  0
VERTEX
  5
15AE0
  8
0
 10
157.4899257959920078
 20
204.0075251025787111
 30
0.0
  0
VERTEX
  5
15AE1
  8
0
 10
157.5490517604455079
 20
203.9636432844494038
 30
0.0
  0
VERTEX
  5
15AE2
  8
0
 10
157.6089090573979945
 20
203.9205721429935068
 30
0.0
  0
VERTEX
  5
15AE3
  8
0
 10
157.6694991914704076
 20
203.8783133486255963
 30
0.0
  0
VERTEX
  5
15AE4
  8
0
 10
157.7308220436387955
 20
203.8368697602863051
 30
0.0
  0
VERTEX
  5
15AE5
  8
0
 10
157.7927494238061001
 20
203.7963360576391096
 30
0.0
  0
VERTEX
  5
15AE6
  8
0
 10
157.855190662204194
 20
203.7567734070414929
 30
0.0
  0
VERTEX
  5
15AE7
  8
0
 10
157.9181328023971105
 20
203.7181849211015106
 30
0.0
  0
VERTEX
  5
15AE8
  8
0
 10
157.9815628879485985
 20
203.68057371242719
 30
0.0
  0
VERTEX
  5
15AE9
  8
0
 10
158.0454679624222081
 20
203.6439428936267859
 30
0.0
  0
VERTEX
  5
15AEA
  8
0
 10
158.1098350693820862
 20
203.6082955773084109
 30
0.0
  0
VERTEX
  5
15AEB
  8
0
 10
158.1746512523916124
 20
203.5736348760802059
 30
0.0
  0
VERTEX
  5
15AEC
  8
0
 10
158.2399035550149904
 20
203.539963902550312
 30
0.0
  0
VERTEX
  5
15AED
  8
0
 10
158.3055790208159124
 20
203.5072857693266997
 30
0.0
  0
VERTEX
  5
15AEE
  8
0
 10
158.3716646933579
 20
203.4756035890175951
 30
0.0
  0
VERTEX
  5
15AEF
  8
0
 10
158.4381476162049012
 20
203.44492047423131
 30
0.0
  0
VERTEX
  5
15AF0
  8
0
 10
158.5050148329208071
 20
203.415239537575701
 30
0.0
  0
VERTEX
  5
15AF1
  8
0
 10
158.5722533870691109
 20
203.3865638916591934
 30
0.0
  0
VERTEX
  5
15AF2
  8
0
 10
158.6398902360670036
 20
203.358883601337908
 30
0.0
  0
VERTEX
  5
15AF3
  8
0
 10
158.7080042782918099
 20
203.3321727000808892
 30
0.0
  0
VERTEX
  5
15AF4
  8
0
 10
158.7765759171522006
 20
203.3064383091069089
 30
0.0
  0
VERTEX
  5
15AF5
  8
0
 10
158.84558100460481
 20
203.281689056841401
 30
0.0
  0
VERTEX
  5
15AF6
  8
0
 10
158.9149953926068122
 20
203.2579335717097138
 30
0.0
  0
VERTEX
  5
15AF7
  8
0
 10
158.9847949331150971
 20
203.2351804821371104
 30
0.0
  0
VERTEX
  5
15AF8
  8
0
 10
159.0549554780864128
 20
203.2134384165491099
 30
0.0
  0
VERTEX
  5
15AF9
  8
0
 10
159.1254528794775922
 20
203.1927160033710891
 30
0.0
  0
VERTEX
  5
15AFA
  8
0
 10
159.196262989245696
 20
203.1730218710283111
 30
0.0
  0
VERTEX
  5
15AFB
  8
0
 10
159.2673616593473866
 20
203.1543646479462097
 30
0.0
  0
VERTEX
  5
15AFC
  8
0
 10
159.33872474173981
 20
203.1367529625501049
 30
0.0
  0
VERTEX
  5
15AFD
  8
0
 10
159.410328088379714
 20
203.1201954432656009
 30
0.0
  0
VERTEX
  5
15AFE
  8
0
 10
159.4821475512239033
 20
203.1047007185177904
 30
0.0
  0
VERTEX
  5
15AFF
  8
0
 10
159.5541541658919016
 20
203.0902767418579913
 30
0.0
  0
VERTEX
  5
15B00
  8
0
 10
159.6262810715498972
 20
203.0769223765674099
 30
0.0
  0
VERTEX
  5
15B01
  8
0
 10
159.6985132640251095
 20
203.0646363168440871
 30
0.0
  0
VERTEX
  5
15B02
  8
0
 10
159.7708506862855984
 20
203.0534185702850039
 30
0.0
  0
VERTEX
  5
15B03
  8
0
 10
159.8432932812991965
 20
203.0432691444866862
 30
0.0
  0
VERTEX
  5
15B04
  8
0
 10
159.9158409920335941
 20
203.0341880470460012
 30
0.0
  0
VERTEX
  5
15B05
  8
0
 10
159.9884937614565956
 20
203.0261752855595887
 30
0.0
  0
VERTEX
  5
15B06
  8
0
 10
160.0612515325364029
 20
203.0192308676240884
 30
0.0
  0
VERTEX
  5
15B07
  8
0
 10
160.1341142482405075
 20
203.0133548008365096
 30
0.0
  0
VERTEX
  5
15B08
  8
0
 10
160.2070818515367137
 20
203.0085470927932931
 30
0.0
  0
VERTEX
  5
15B09
  8
0
 10
160.2801542853929959
 20
203.004807751091306
 30
0.0
  0
VERTEX
  5
15B0A
  8
0
 10
160.3533314927771016
 20
203.0021367833273018
 30
0.0
  0
VERTEX
  5
15B0B
  8
0
 10
160.4266134166568065
 20
203.0005341970980055
 30
0.0
  0
VERTEX
  5
15B0C
  8
0
 10
160.5000000000001137
 20
203.0
 30
0.0
  0
SEQEND
  5
15B0D
  8
0
  0
POLYLINE
  5
14CA9
  8
0
 66
     1
 10
0.0
 20
0.0
 30
0.0
  0
VERTEX
  5
15B0E
  8
0
 10
239.499999861063003
 20
203.0
 30
0.0
  0
VERTEX
  5
15B0F
  8
0
 10
239.5733575717943893
 20
203.0005337697211871
 30
0.0
  0
VERTEX
  5
15B10
  8
0
 10
239.6465612456757981
 20
203.0021336512546952
 30
0.0
  0
VERTEX
  5
15B11
  8
0
 10
239.7196111390971964
 20
203.0047974970339908
 30
0.0
  0
VERTEX
  5
15B12
  8
0
 10
239.7925075084478124
 20
203.0085231594921993
 30
0.0
  0
VERTEX
  5
15B13
  8
0
 10
239.8652506101180961
 20
203.0133084910625882
 30
0.0
  0
VERTEX
  5
15B14
  8
0
 10
239.9378407004971905
 20
203.0191513441787095
 30
0.0
  0
VERTEX
  5
15B15
  8
0
 10
240.0102780359750057
 20
203.0260495712736883
 30
0.0
  0
VERTEX
  5
15B16
  8
0
 10
240.0825628729415939
 20
203.0340010247809062
 30
0.0
  0
VERTEX
  5
15B17
  8
0
 10
240.1546954677860981
 20
203.0430035571334884
 30
0.0
  0
VERTEX
  5
15B18
  8
0
 10
240.2266760768987979
 20
203.0530550207649867
 30
0.0
  0
VERTEX
  5
15B19
  8
0
 10
240.2985049566690066
 20
203.0641532681086119
 30
0.0
  0
VERTEX
  5
15B1A
  8
0
 10
240.3701823634868049
 20
203.0762961515976031
 30
0.0
  0
VERTEX
  5
15B1B
  8
0
 10
240.4417085537417051
 20
203.0894815236653983
 30
0.0
  0
VERTEX
  5
15B1C
  8
0
 10
240.5130835372997922
 20
203.1037089550021051
 30
0.0
  0
VERTEX
  5
15B1D
  8
0
 10
240.5843062126338054
 20
203.1189857476298073
 30
0.0
  0
VERTEX
  5
15B1E
  8
0
 10
240.6553757910494085
 20
203.1353170048236052
 30
0.0
  0
VERTEX
  5
15B1F
  8
0
 10
240.7262915496494884
 20
203.1527073704606039
 30
0.0
  0
VERTEX
  5
15B20
  8
0
 10
240.7970527655359945
 20
203.1711614884179937
 30
0.0
  0
VERTEX
  5
15B21
  8
0
 10
240.8676587158120128
 20
203.1906840025729082
 30
0.0
  0
VERTEX
  5
15B22
  8
0
 10
240.9381086775794927
 20
203.2112795568023955
 30
0.0
  0
VERTEX
  5
15B23
  8
0
 10
241.0084118214003013
 20
203.2329627421974863
 30
0.0
  0
VERTEX
  5
15B24
  8
0
 10
241.0785325034098037
 20
203.2557307594676104
 30
0.0
  0
VERTEX
  5
15B25
  8
0
 10
241.1483941785400873
 20
203.2795562115551888
 30
0.0
  0
VERTEX
  5
15B26
  8
0
 10
241.2179202083275982
 20
203.3044116362904106
 30
0.0
  0
VERTEX
  5
15B27
  8
0
 10
241.2870339543090097
 20
203.3302695715032939
 30
0.0
  0
VERTEX
  5
15B28
  8
0
 10
241.3556587780209952
 20
203.3571025550241131
 30
0.0
  0
VERTEX
  5
15B29
  8
0
 10
241.423721981348109
 20
203.3848838757153885
 30
0.0
  0
VERTEX
  5
15B2A
  8
0
 10
241.4912535600317938
 20
203.4136097583632932
 30
0.0
  0
VERTEX
  5
15B2B
  8
0
 10
241.5582817527258044
 20
203.4432844316584976
 30
0.0
  0
VERTEX
  5
15B2C
  8
0
 10
241.6248065157080021
 20
203.4739079441283991
 30
0.0
  0
VERTEX
  5
15B2D
  8
0
 10
241.6908278052565038
 20
203.5054803443005085
 30
0.0
  0
VERTEX
  5
15B2E
  8
0
 10
241.7563455776495971
 20
203.5380016807021093
 30
0.0
  0
VERTEX
  5
15B2F
  8
0
 10
241.8213597891655127
 20
203.5714720018607977
 30
0.0
  0
VERTEX
  5
15B30
  8
0
 10
241.8858703960821117
 20
203.6058913563039141
 30
0.0
  0
VERTEX
  5
15B31
  8
0
 10
241.9498773546777102
 20
203.6412597925587136
 30
0.0
  0
VERTEX
  5
15B32
  8
0
 10
242.0133806212301977
 20
203.677577359152906
 30
0.0
  0
VERTEX
  5
15B33
  8
0
 10
242.0763801520178902
 20
203.7148441046136043
 30
0.0
  0
VERTEX
  5
15B34
  8
0
 10
242.1388759033189046
 20
203.7530600774684046
 30
0.0
  0
VERTEX
  5
15B35
  8
0
 10
242.2008678314111876
 20
203.7922253262447043
 30
0.0
  0
VERTEX
  5
15B36
  8
0
 10
242.262355892573197
 20
203.8323398994697868
 30
0.0
  0
VERTEX
  5
15B37
  8
0
 10
242.3233463670271988
 20
203.8734240026792008
 30
0.0
  0
VERTEX
  5
15B38
  8
0
 10
242.3838307223527124
 20
203.9154943325706881
 30
0.0
  0
VERTEX
  5
15B39
  8
0
 10
242.4437774584982037
 20
203.9585250692896068
 30
0.0
  0
VERTEX
  5
15B3A
  8
0
 10
242.5031548638833101
 20
204.0024899129979872
 30
0.0
  0
VERTEX
  5
15B3B
  8
0
 10
242.5619312269280101
 20
204.047362563858286
 30
0.0
  0
VERTEX
  5
15B3C
  8
0
 10
242.6200748360519981
 20
204.0931167220325051
 30
0.0
  0
VERTEX
  5
15B3D
  8
0
 10
242.6775539796753947
 20
204.1397260876829023
 30
0.0
  0
VERTEX
  5
15B3E
  8
0
 10
242.7343369462176952
 20
204.1871643609717069
 30
0.0
  0
VERTEX
  5
15B3F
  8
0
 10
242.7903920240989066
 20
204.2354052420612049
 30
0.0
  0
VERTEX
  5
15B40
  8
0
 10
242.8456875017388938
 20
204.2844224311133132
 30
0.0
  0
VERTEX
  5
15B41
  8
0
 10
242.900191667557408
 20
204.334189628290801
 30
0.0
  0
VERTEX
  5
15B42
  8
0
 10
242.9538728099743139
 20
204.3846805337553008
 30
0.0
  0
VERTEX
  5
15B43
  8
0
 10
243.0066992174093912
 20
204.4358688476692976
 30
0.0
  0
VERTEX
  5
15B44
  8
0
 10
243.0586534988408971
 20
204.4877361375619103
 30
0.0
  0
VERTEX
  5
15B45
  8
0
 10
243.1098011319953116
 20
204.5403137356425134
 30
0.0
  0
VERTEX
  5
15B46
  8
0
 10
243.1601535166321923
 20
204.5936098583800913
 30
0.0
  0
VERTEX
  5
15B47
  8
0
 10
243.2097089837249939
 20
204.6476260135260929
 30
0.0
  0
VERTEX
  5
15B48
  8
0
 10
243.2584658642479951
 20
204.7023637088319958
 30
0.0
  0
VERTEX
  5
15B49
  8
0
 10
243.3064224891751053
 20
204.7578244520493911
 30
0.0
  0
VERTEX
  5
15B4A
  8
0
 10
243.3535771894800064
 20
204.814009750929813
 30
0.0
  0
VERTEX
  5
15B4B
  8
0
 10
243.3999282961370056
 20
204.8709211132245116
 30
0.0
  0
VERTEX
  5
15B4C
  8
0
 10
243.4454741401195861
 20
204.9285600466853055
 30
0.0
  0
VERTEX
  5
15B4D
  8
0
 10
243.4902130524021118
 20
204.9869280590635015
 30
0.0
  0
VERTEX
  5
15B4E
  8
0
 10
243.5341433639582931
 20
205.0460266581108044
 30
0.0
  0
VERTEX
  5
15B4F
  8
0
 10
243.5772634057620962
 20
205.1058573515784929
 30
0.0
  0
VERTEX
  5
15B50
  8
0
 10
243.6195715087874021
 20
205.1664216472181863
 30
0.0
  0
VERTEX
  5
15B51
  8
0
 10
243.6610648872567992
 20
205.2277195673227084
 30
0.0
  0
VERTEX
  5
15B52
  8
0
 10
243.7016541919687995
 20
205.2896332986175878
 30
0.0
  0
VERTEX
  5
15B53
  8
0
 10
243.7412806609397933
 20
205.3520772711748066
 30
0.0
  0
VERTEX
  5
15B54
  8
0
 10
243.7799399060372991
 20
205.4150366123375022
 30
0.0
  0
VERTEX
  5
15B55
  8
0
 10
243.8176275391292904
 20
205.4784964494484996
 30
0.0
  0
VERTEX
  5
15B56
  8
0
 10
243.8543391720837974
 20
205.5424419098509077
 30
0.0
  0
VERTEX
  5
15B57
  8
0
 10
243.8900704167689071
 20
205.6068581208874946
 30
0.0
  0
VERTEX
  5
15B58
  8
0
 10
243.9248168850525076
 20
205.6717302099015114
 30
0.0
  0
VERTEX
  5
15B59
  8
0
 10
243.958574188802686
 20
205.7370433042356126
 30
0.0
  0
VERTEX
  5
15B5A
  8
0
 10
243.9913379398873019
 20
205.8027825312329071
 30
0.0
  0
VERTEX
  5
15B5B
  8
0
 10
244.023103750174414
 20
205.868933018236504
 30
0.0
  0
VERTEX
  5
15B5C
  8
0
 10
244.0538672315319104
 20
205.9354798925890861
 30
0.0
  0
VERTEX
  5
15B5D
  8
0
 10
244.0836239958279066
 20
206.0024082816337909
 30
0.0
  0
VERTEX
  5
15B5E
  8
0
 10
244.1123696549304043
 20
206.0697033127136137
 30
0.0
  0
VERTEX
  5
15B5F
  8
0
 10
244.1401144397721055
 20
206.1373915374495027
 30
0.0
  0
VERTEX
  5
15B60
  8
0
 10
244.166887606532697
 20
206.2055551907124027
 30
0.0
  0
VERTEX
  5
15B61
  8
0
 10
244.192682337090389
 20
206.2741759530985917
 30
0.0
  0
VERTEX
  5
15B62
  8
0
 10
244.2174901463058063
 20
206.3432308177758898
 30
0.0
  0
VERTEX
  5
15B63
  8
0
 10
244.2413025490396024
 20
206.412696777911691
 30
0.0
  0
VERTEX
  5
15B64
  8
0
 10
244.264111060152004
 20
206.482550826673986
 30
0.0
  0
VERTEX
  5
15B65
  8
0
 10
244.2859071945042899
 20
206.5527699572303959
 30
0.0
  0
VERTEX
  5
15B66
  8
0
 10
244.3066824669564028
 20
206.6233311627485989
 30
0.0
  0
VERTEX
  5
15B67
  8
0
 10
244.3264283923691949
 20
206.6942114363963867
 30
0.0
  0
VERTEX
  5
15B68
  8
0
 10
244.3451364856032058
 20
206.765387771341409
 30
0.0
  0
VERTEX
  5
15B69
  8
0
 10
244.3627982615190888
 20
206.8368371607514007
 30
0.0
  0
VERTEX
  5
15B6A
  8
0
 10
244.379405234977412
 20
206.9085365977940967
 30
0.0
  0
VERTEX
  5
15B6B
  8
0
 10
244.3949489208386865
 20
206.9804630756370898
 30
0.0
  0
VERTEX
  5
15B6C
  8
0
 10
244.4094212592474946
 20
207.0525878598666054
 30
0.0
  0
VERTEX
  5
15B6D
  8
0
 10
244.4228208859329925
 20
207.1248353551513901
 30
0.0
  0
VERTEX
  5
15B6E
  8
0
 10
244.4351484455850994
 20
207.1971881043336055
 30
0.0
  0
VERTEX
  5
15B6F
  8
0
 10
244.4464039550655912
 20
207.2696460546067954
 30
0.0
  0
VERTEX
  5
15B70
  8
0
 10
244.4565874312359881
 20
207.3422091531654132
 30
0.0
  0
VERTEX
  5
15B71
  8
0
 10
244.4656988909580946
 20
207.4148773472026051
 30
0.0
  0
VERTEX
  5
15B72
  8
0
 10
244.4737383510938002
 20
207.4876505839127105
 30
0.0
  0
VERTEX
  5
15B73
  8
0
 10
244.4807058285043979
 20
207.5605288104891883
 30
0.0
  0
VERTEX
  5
15B74
  8
0
 10
244.4866013400518057
 20
207.6335119741260939
 30
0.0
  0
VERTEX
  5
15B75
  8
0
 10
244.4914249025977142
 20
207.7066000220171134
 30
0.0
  0
VERTEX
  5
15B76
  8
0
 10
244.4951765330037858
 20
207.7797929013561031
 30
0.0
  0
VERTEX
  5
15B77
  8
0
 10
244.4978562481317965
 20
207.853090559337204
 30
0.0
  0
VERTEX
  5
15B78
  8
0
 10
244.4994640648432949
 20
207.9264929431537894
 30
0.0
  0
VERTEX
  5
15B79
  8
0
 10
244.500000000000199
 20
208.0
 30
0.0
  0
SEQEND
  5
15B7A
  8
0
  0
POLYLINE
  5
14CAA
  8
0
 66
     1
 10
0.0
 20
0.0
 30
0.0
  0
VERTEX
  5
15B7B
  8
0
 10
244.5000000000001137
 20
208.0
 30
0.0
  0
VERTEX
  5
15B7C
  8
0
 10
244.5000000000001137
 20
208.9076395914416082
 30
0.0
  0
VERTEX
  5
15B7D
  8
0
 10
244.5000000000001137
 20
209.8155421961155014
 30
0.0
  0
VERTEX
  5
15B7E
  8
0
 10
244.5000000000001137
 20
210.723716897454409
 30
0.0
  0
VERTEX
  5
15B7F
  8
0
 10
244.5000000000001137
 20
211.632172778890606
 30
0.0
  0
VERTEX
  5
15B80
  8
0
 10
244.5000000000001137
 20
212.540918923856708
 30
0.0
  0
VERTEX
  5
15B81
  8
0
 10
244.5000000000001137
 20
213.4499644157851037
 30
0.0
  0
VERTEX
  5
15B82
  8
0
 10
244.5000000000001137
 20
214.3593183381084089
 30
0.0
  0
VERTEX
  5
15B83
  8
0
 10
244.5000000000001137
 20
215.2689897742590972
 30
0.0
  0
VERTEX
  5
15B84
  8
0
 10
244.5000000000001137
 20
216.1789878076695004
 30
0.0
  0
VERTEX
  5
15B85
  8
0
 10
244.5000000000001137
 20
217.0893215217724048
 30
0.0
  0
VERTEX
  5
15B86
  8
0
 10
244.5000000000001137
 20
218.0
 30
0.0
  0
SEQEND
  5
15B87
  8
0
  0
POLYLINE
  5
14CAB
  8
0
 66
     1
 10
0.0
 20
0.0
 30
0.0
  0
VERTEX
  5
15B88
  8
0
 10
244.5000000000001137
 20
218.0
 30
0.0
  0
VERTEX
  5
15B89
  8
0
 10
244.5006880162374046
 20
218.0832855865766078
 30
0.0
  0
VERTEX
  5
15B8A
  8
0
 10
244.5027499559132877
 20
218.1663702101797924
 30
0.0
  0
VERTEX
  5
15B8B
  8
0
 10
244.5061826554733102
 20
218.2492543854320104
 30
0.0
  0
VERTEX
  5
15B8C
  8
0
 10
244.5109829513629904
 20
218.3319386269560027
 30
0.0
  0
VERTEX
  5
15B8D
  8
0
 10
244.517147680028188
 20
218.4144234493745955
 30
0.0
  0
VERTEX
  5
15B8E
  8
0
 10
244.5246736779145067
 20
218.4967093673103022
 30
0.0
  0
VERTEX
  5
15B8F
  8
0
 10
244.5335577814676071
 20
218.5787968953858922
 30
0.0
  0
VERTEX
  5
15B90
  8
0
 10
244.5437968271332068
 20
218.6606865482241915
 30
0.0
  0
VERTEX
  5
15B91
  8
0
 10
244.5553876513569094
 20
218.7423788404475999
 30
0.0
  0
VERTEX
  5
15B92
  8
0
 10
244.568327090584404
 20
218.8238742866790005
 30
0.0
  0
VERTEX
  5
15B93
  8
0
 10
244.5826119812612092
 20
218.9051734015411057
 30
0.0
  0
VERTEX
  5
15B94
  8
0
 10
244.5982397251108011
 20
218.9862778584090108
 30
0.0
  0
VERTEX
  5
15B95
  8
0
 10
244.6152490916614965
 20
219.0672674151086028
 30
0.0
  0
VERTEX
  5
15B96
  8
0
 10
244.6336556885649998
 20
219.1481532943712125
 30
0.0
  0
VERTEX
  5
15B97
  8
0
 10
244.6534461190776994
 20
219.2288832013420006
 30
0.0
  0
VERTEX
  5
15B98
  8
0
 10
244.6746069864555864
 20
219.3094048411659003
 30
0.0
  0
VERTEX
  5
15B99
  8
0
 10
244.6971248939547934
 20
219.389665918987987
 30
0.0
  0
VERTEX
  5
15B9A
  8
0
 10
244.7209864448313112
 20
219.4696141399533929
 30
0.0
  0
VERTEX
  5
15B9B
  8
0
 10
244.7461782423415002
 20
219.549197209207108
 30
0.0
  0
VERTEX
  5
15B9C
  8
0
 10
244.7726868897412089
 20
219.6283628318940941
 30
0.0
  0
VERTEX
  5
15B9D
  8
0
 10
244.8004989902863997
 20
219.7070587131595971
 30
0.0
  0
VERTEX
  5
15B9E
  8
0
 10
244.8296011472338023
 20
219.7852325581484081
 30
0.0
  0
VERTEX
  5
15B9F
  8
0
 10
244.8599799638390095
 20
219.8628320720058014
 30
0.0
  0
VERTEX
  5
15BA0
  8
0
 10
244.8916208391545126
 20
219.9398055357407884
 30
0.0
  0
VERTEX
  5
15BA1
  8
0
 10
244.924487370529306
 20
220.0161269431287963
 30
0.0
  0
VERTEX
  5
15BA2
  8
0
 10
244.9585674566621094
 20
220.0917965783642956
 30
0.0
  0
VERTEX
  5
15BA3
  8
0
 10
244.9938610892519932
 20
220.1668144459274004
 30
0.0
  0
VERTEX
  5
15BA4
  8
0
 10
245.0303682599968909
 20
220.2411805502979973
 30
0.0
  0
VERTEX
  5
15BA5
  8
0
 10
245.0680889605955883
 20
220.3148948959560016
 30
0.0
  0
VERTEX
  5
15BA6
  8
0
 10
245.1070231827465022
 20
220.3879574873812999
 30
0.0
  0
VERTEX
  5
15BA7
  8
0
 10
245.147170918148305
 20
220.4603683290536935
 30
0.0
  0
VERTEX
  5
15BA8
  8
0
 10
245.1885321584992141
 20
220.5321274254534103
 30
0.0
  0
VERTEX
  5
15BA9
  8
0
 10
245.231106895498101
 20
220.6032347810599958
 30
0.0
  0
VERTEX
  5
15BAA
  8
0
 10
245.274895120843297
 20
220.6736904003535926
 30
0.0
  0
VERTEX
  5
15BAB
  8
0
 10
245.319896826233304
 20
220.7434942878140873
 30
0.0
  0
VERTEX
  5
15BAC
  8
0
 10
245.366114268523603
 20
220.8126446118569106
 30
0.0
  0
VERTEX
  5
15BAD
  8
0
 10
245.4135596734867875
 20
220.8811094720549022
 30
0.0
  0
VERTEX
  5
15BAE
  8
0
 10
245.4622054298870069
 20
220.9488460087677026
 30
0.0
  0
VERTEX
  5
15BAF
  8
0
 10
245.5120152740070978
 20
221.0158138327327038
 30
0.0
  0
VERTEX
  5
15BB0
  8
0
 10
245.5629529421298969
 20
221.0819725546876953
 30
0.0
  0
VERTEX
  5
15BB1
  8
0
 10
245.6149821705380987
 20
221.1472817853700121
 30
0.0
  0
VERTEX
  5
15BB2
  8
0
 10
245.6680666955147103
 20
221.2117011355171883
 30
0.0
  0
VERTEX
  5
15BB3
  8
0
 10
245.7221702533423127
 20
221.2751902158667008
 30
0.0
  0
VERTEX
  5
15BB4
  8
0
 10
245.7772565803037992
 20
221.337708637156112
 30
0.0
  0
VERTEX
  5
15BB5
  8
0
 10
245.8332894126822055
 20
221.3992160101228137
 30
0.0
  0
VERTEX
  5
15BB6
  8
0
 10
245.8902324867599987
 20
221.4596719455043967
 30
0.0
  0
VERTEX
  5
15BB7
  8
0
 10
245.9480495388201007
 20
221.5190360540383949
 30
0.0
  0
VERTEX
  5
15BB8
  8
0
 10
246.0067163348537065
 20
221.5772871171780025
 30
0.0
  0
VERTEX
  5
15BB9
  8
0
 10
246.0662827124554894
 20
221.634513682348711
 30
0.0
  0
VERTEX
  5
15BBA
  8
0
 10
246.1267600187769915
 20
221.6907300848953923
 30
0.0
  0
VERTEX
  5
15BBB
  8
0
 10
246.1881491182681998
 20
221.7459330352689051
 30
0.0
  0
VERTEX
  5
15BBC
  8
0
 10
246.2504508753791868
 20
221.8001192439197098
 30
0.0
  0
VERTEX
  5
15BBD
  8
0
 10
246.31366615456011
 20
221.8532854212984944
 30
0.0
  0
VERTEX
  5
15BBE
  8
0
 10
246.3777958202610137
 20
221.9054282778558047
 30
0.0
  0
VERTEX
  5
15BBF
  8
0
 10
246.4428407369319984
 20
221.9565445240424992
 30
0.0
  0
VERTEX
  5
15BC0
  8
0
 10
246.5088017690233073
 20
222.0066308703090101
 30
0.0
  0
VERTEX
  5
15BC1
  8
0
 10
246.5756797809847001
 20
222.0556840271059968
 30
0.0
  0
VERTEX
  5
15BC2
  8
0
 10
246.6434756372665049
 20
222.1037007048840906
 30
0.0
  0
VERTEX
  5
15BC3
  8
0
 10
246.712190202318908
 20
222.1506776140940929
 30
0.0
  0
VERTEX
  5
15BC4
  8
0
 10
246.7817499007479967
 20
222.1965629675121932
 30
0.0
  0
VERTEX
  5
15BC5
  8
0
 10
246.8518743069384129
 20
222.2411751338703993
 30
0.0
  0
VERTEX
  5
15BC6
  8
0
 10
246.9225343888014095
 20
222.2845022613543051
 30
0.0
  0
VERTEX
  5
15BC7
  8
0
 10
246.9937278382355998
 20
222.3265501708380896
 30
0.0
  0
VERTEX
  5
15BC8
  8
0
 10
247.0654523471395123
 20
222.3673246831957897
 30
0.0
  0
VERTEX
  5
15BC9
  8
0
 10
247.1377056074115899
 20
222.406831619301613
 30
0.0
  0
VERTEX
  5
15BCA
  8
0
 10
247.2104853109503892
 20
222.4450768000295113
 30
0.0
  0
VERTEX
  5
15BCB
  8
0
 10
247.2837891496542113
 20
222.4820660462534931
 30
0.0
  0
VERTEX
  5
15BCC
  8
0
 10
247.3576148154220107
 20
222.5178051788479081
 30
0.0
  0
VERTEX
  5
15BCD
  8
0
 10
247.431960000151804
 20
222.552300018686509
 30
0.0
  0
VERTEX
  5
15BCE
  8
0
 10
247.5068223957422902
 20
222.5855563866437024
 30
0.0
  0
VERTEX
  5
15BCF
  8
0
 10
247.5821996940919973
 20
222.6175801035934967
 30
0.0
  0
VERTEX
  5
15BD0
  8
0
 10
247.6581244172531058
 20
222.6483805613383993
 30
0.0
  0
VERTEX
  5
15BD1
  8
0
 10
247.7346590602103902
 20
222.6779626424643936
 30
0.0
  0
VERTEX
  5
15BD2
  8
0
 10
247.8117657554402058
 20
222.706313822036492
 30
0.0
  0
VERTEX
  5
15BD3
  8
0
 10
247.8894023503546862
 20
222.7334209810595951
 30
0.0
  0
VERTEX
  5
15BD4
  8
0
 10
247.9675266923659933
 20
222.7592710005384049
 30
0.0
  0
VERTEX
  5
15BD5
  8
0
 10
248.0460966288866871
 20
222.7838507614777086
 30
0.0
  0
VERTEX
  5
15BD6
  8
0
 10
248.1250700073291
 20
222.807147144882606
 30
0.0
  0
VERTEX
  5
15BD7
  8
0
 10
248.2044046751053088
 20
222.8291470317577136
 30
0.0
  0
VERTEX
  5
15BD8
  8
0
 10
248.2840584796279018
 20
222.8498373031079893
 30
0.0
  0
VERTEX
  5
15BD9
  8
0
 10
248.3639892683090977
 20
222.8692048399383054
 30
0.0
  0
VERTEX
  5
15BDA
  8
0
 10
248.4441548885610871
 20
222.887236523253307
 30
0.0
  0
VERTEX
  5
15BDB
  8
0
 10
248.5245131877962876
 20
222.9039192340582076
 30
0.0
  0
VERTEX
  5
15BDC
  8
0
 10
248.6050250386321068
 20
222.919254182721204
 30
0.0
  0
VERTEX
  5
15BDD
  8
0
 10
248.6856779093222087
 20
222.9332584129479073
 30
0.0
  0
VERTEX
  5
15BDE
  8
0
 10
248.7664719329945058
 20
222.9459316140961107
 30
0.0
  0
VERTEX
  5
15BDF
  8
0
 10
248.8474072912844122
 20
222.9572732157664063
 30
0.0
  0
VERTEX
  5
15BE0
  8
0
 10
248.9284841658260916
 20
222.9672826475595002
 30
0.0
  0
VERTEX
  5
15BE1
  8
0
 10
249.0097027382547878
 20
222.9759593390760131
 30
0.0
  0
VERTEX
  5
15BE2
  8
0
 10
249.0910631902050909
 20
222.9833027199165087
 30
0.0
  0
VERTEX
  5
15BE3
  8
0
 10
249.1725657033119035
 20
222.9893122196814943
 30
0.0
  0
VERTEX
  5
15BE4
  8
0
 10
249.2542104592099861
 20
222.9939872679717894
 30
0.0
  0
VERTEX
  5
15BE5
  8
0
 10
249.335997639534213
 20
222.997327294387901
 30
0.0
  0
VERTEX
  5
15BE6
  8
0
 10
249.417927425919288
 20
222.9993317285303931
 30
0.0
  0
VERTEX
  5
15BE7
  8
0
 10
249.5
 20
223.0
 30
0.0
  0
SEQEND
  5
15BE8
  8
0
  0
POLYLINE
  5
14CAC
  8
0
 66
     1
 10
0.0
 20
0.0
 30
0.0
  0
VERTEX
  5
15BE9
  8
0
 10
249.5
 20
223.0
 30
0.0
  0
VERTEX
  5
15BEA
  8
0
 10
250.1366206133436094
 20
223.0
 30
0.0
  0
VERTEX
  5
15BEB
  8
0
 10
250.7731852599436024
 20
223.0
 30
0.0
  0
VERTEX
  5
15BEC
  8
0
 10
251.4096954597987974
 20
223.0
 30
0.0
  0
VERTEX
  5
15BED
  8
0
 10
252.0461527329075011
 20
223.0
 30
0.0
  0
VERTEX
  5
15BEE
  8
0
 10
252.6825585992677929
 20
223.0
 30
0.0
  0
VERTEX
  5
15BEF
  8
0
 10
253.318914578878406
 20
223.0
 30
0.0
  0
VERTEX
  5
15BF0
  8
0
 10
253.9552221917375903
 20
223.0
 30
0.0
  0
VERTEX
  5
15BF1
  8
0
 10
254.5914829578435103
 20
223.0
 30
0.0
  0
VERTEX
  5
15BF2
  8
0
 10
255.2276983971945867
 20
223.0
 30
0.0
  0
VERTEX
  5
15BF3
  8
0
 10
255.8638700297890125
 20
223.0
 30
0.0
  0
VERTEX
  5
15BF4
  8
0
 10
256.4999993756256913
 20
223.0
 30
0.0
  0
SEQEND
  5
15BF5
  8
0
  0
POLYLINE
  5
14CAD
  8
0
 66
     1
 10
0.0
 20
0.0
 30
0.0
  0
VERTEX
  5
15BF6
  8
0
 10
256.4999993756256913
 20
223.0
 30
0.0
  0
VERTEX
  5
15BF7
  8
0
 10
256.5766307959798951
 20
223.0005794036518125
 30
0.0
  0
VERTEX
  5
15BF8
  8
0
 10
256.6530899258420959
 20
223.0023167655957081
 30
0.0
  0
VERTEX
  5
15BF9
  8
0
 10
256.7293768817028194
 20
223.005210783574114
 30
0.0
  0
VERTEX
  5
15BFA
  8
0
 10
256.8054917800528187
 20
223.0092601553295992
 30
0.0
  0
VERTEX
  5
15BFB
  8
0
 10
256.8814347373819942
 20
223.0144635786043068
 30
0.0
  0
VERTEX
  5
15BFC
  8
0
 10
256.9572058701814967
 20
223.0208197511408059
 30
0.0
  0
VERTEX
  5
15BFD
  8
0
 10
257.0328052949412836
 20
223.0283273706814953
 30
0.0
  0
VERTEX
  5
15BFE
  8
0
 10
257.1082331281523921
 20
223.0369851349686883
 30
0.0
  0
VERTEX
  5
15BFF
  8
0
 10
257.183489486304893
 20
223.046791741745011
 30
0.0
  0
VERTEX
  5
15C00
  8
0
 10
257.2585744858891985
 20
223.0577458887528053
 30
0.0
  0
VERTEX
  5
15C01
  8
0
 10
257.3334882433964026
 20
223.0698462737342993
 30
0.0
  0
VERTEX
  5
15C02
  8
0
 10
257.4082308753164057
 20
223.0830915944322044
 30
0.0
  0
VERTEX
  5
15C03
  8
0
 10
257.4828024981396766
 20
223.0974805485886066
 30
0.0
  0
VERTEX
  5
15C04
  8
0
 10
257.5572032283571957
 20
223.1130118339463024
 30
0.0
  0
VERTEX
  5
15C05
  8
0
 10
257.6314331824592045
 20
223.1296841482474917
 30
0.0
  0
VERTEX
  5
15C06
  8
0
 10
257.7054924769361151
 20
223.1474961892344879
 30
0.0
  0
VERTEX
  5
15C07
  8
0
 10
257.7794103597353228
 20
223.1664634238123881
 30
0.0
  0
VERTEX
  5
15C08
  8
0
 10
257.8532301699669915
 20
223.1866194226159905
 30
0.0
  0
VERTEX
  5
15C09
  8
0
 10
257.9269009992622159
 20
223.2079528844365086
 30
0.0
  0
VERTEX
  5
15C0A
  8
0
 10
258.0003681312476829
 20
223.2304505199599021
 30
0.0
  0
VERTEX
  5
15C0B
  8
0
 10
258.0735768495500224
 20
223.2540990398715053
 30
0.0
  0
VERTEX
  5
15C0C
  8
0
 10
258.1464724377962057
 20
223.2788851548573064
 30
0.0
  0
VERTEX
  5
15C0D
  8
0
 10
258.2190001796126921
 20
223.3047955756030944
 30
0.0
  0
VERTEX
  5
15C0E
  8
0
 10
258.2911053586265098
 20
223.3318170127946019
 30
0.0
  0
VERTEX
  5
15C0F
  8
0
 10
258.3627242942501994
 20
223.3599282451139914
 30
0.0
  0
VERTEX
  5
15C10
  8
0
 10
258.4337932029109197
 20
223.3890908893349092
 30
0.0
  0
VERTEX
  5
15C11
  8
0
 10
258.5043088117799925
 20
223.4192992971156002
 30
0.0
  0
VERTEX
  5
15C12
  8
0
 10
258.5742723872418196
 20
223.4505509275518875
 30
0.0
  0
VERTEX
  5
15C13
  8
0
 10
258.6436851956804048
 20
223.4828432397391964
 30
0.0
  0
VERTEX
  5
15C14
  8
0
 10
258.7125485034799794
 20
223.5161736927734921
 30
0.0
  0
VERTEX
  5
15C15
  8
0
 10
258.7808635770251726
 20
223.550539745750001
 30
0.0
  0
VERTEX
  5
15C16
  8
0
 10
258.8486316826998177
 20
223.585938857764603
 30
0.0
  0
VERTEX
  5
15C17
  8
0
 10
258.9158540213277888
 20
223.6223686118310923
 30
0.0
  0
VERTEX
  5
15C18
  8
0
 10
258.9825302858449163
 20
223.6598294410846961
 30
0.0
  0
VERTEX
  5
15C19
  8
0
 10
259.0486586612984183
 20
223.6983246287823022
 30
0.0
  0
VERTEX
  5
15C1A
  8
0
 10
259.1142372671752128
 20
223.7378575820987976
 30
0.0
  0
VERTEX
  5
15C1B
  8
0
 10
259.1792642229625017
 20
223.7784317082090979
 30
0.0
  0
VERTEX
  5
15C1C
  8
0
 10
259.2437376481469187
 20
223.8200504142884029
 30
0.0
  0
VERTEX
  5
15C1D
  8
0
 10
259.3076556622157227
 20
223.8627171075114006
 30
0.0
  0
VERTEX
  5
15C1E
  8
0
 10
259.3710163846557748
 20
223.9064351950534046
 30
0.0
  0
VERTEX
  5
15C1F
  8
0
 10
259.4338219996271846
 20
223.9512131131849912
 30
0.0
  0
VERTEX
  5
15C20
  8
0
 10
259.4960951860413161
 20
223.9970912177296896
 30
0.0
  0
VERTEX
  5
15C21
  8
0
 10
259.5577922641987243
 20
224.0440406681454135
 30
0.0
  0
VERTEX
  5
15C22
  8
0
 10
259.6188545665702918
 20
224.092015435696311
 30
0.0
  0
VERTEX
  5
15C23
  8
0
 10
259.6792234256269012
 20
224.1409694916463025
 30
0.0
  0
VERTEX
  5
15C24
  8
0
 10
259.7388401738393213
 20
224.1908568072591947
 30
0.0
  0
VERTEX
  5
15C25
  8
0
 10
259.797646143678719
 20
224.2416313537993062
 30
0.0
  0
VERTEX
  5
15C26
  8
0
 10
259.855582667615522
 20
224.2932471025301879
 30
0.0
  0
VERTEX
  5
15C27
  8
0
 10
259.9125945138089264
 20
224.3456595028270897
 30
0.0
  0
VERTEX
  5
15C28
  8
0
 10
259.9687133349333976
 20
224.3988675241396038
 30
0.0
  0
VERTEX
  5
15C29
  8
0
 10
260.0239626626703853
 20
224.4528818702320052
 30
0.0
  0
VERTEX
  5
15C2A
  8
0
 10
260.0783404121297053
 20
224.5077044345763113
 30
0.0
  0
VERTEX
  5
15C2B
  8
0
 10
260.1318444984214011
 20
224.5633371106438858
 30
0.0
  0
VERTEX
  5
15C2C
  8
0
 10
260.1844728366554023
 20
224.619781791906604
 30
0.0
  0
VERTEX
  5
15C2D
  8
0
 10
260.2362233419415816
 20
224.6770403718358864
 30
0.0
  0
VERTEX
  5
15C2E
  8
0
 10
260.2870939293899255
 20
224.7351147439034946
 30
0.0
  0
VERTEX
  5
15C2F
  8
0
 10
260.3370825141104774
 20
224.794006801581105
 30
0.0
  0
VERTEX
  5
15C30
  8
0
 10
260.3861870112131101
 20
224.8537184383405076
 30
0.0
  0
VERTEX
  5
15C31
  8
0
 10
260.4344053358078099
 20
224.9142515476530946
 30
0.0
  0
VERTEX
  5
15C32
  8
0
 10
260.481735403004393
 20
224.9756080229907127
 30
0.0
  0
VERTEX
  5
15C33
  8
0
 10
260.5281751279130162
 20
225.0377897578248962
 30
0.0
  0
VERTEX
  5
15C34
  8
0
 10
260.5737224256433819
 20
225.1007986456274068
 30
0.0
  0
VERTEX
  5
15C35
  8
0
 10
260.6183752113055903
 20
225.1646365798698923
 30
0.0
  0
VERTEX
  5
15C36
  8
0
 10
260.6621314000096845
 20
225.2293054540240007
 30
0.0
  0
VERTEX
  5
15C37
  8
0
 10
260.7049889068654807
 20
225.2948071615614083
 30
0.0
  0
SEQEND
  5
15C38
  8
0
  0
POLYLINE
  5
14CAE
  8
0
 66
     1
 10
0.0
 20
0.0
 30
0.0
  0
VERTEX
  5
15C39
  8
0
 10
261.4995862079707081
 20
227.9356746622943888
 30
0.0
  0
VERTEX
  5
15C3A
  8
0
 10
261.4995990386747167
 20
227.9366797627832
 30
0.0
  0
VERTEX
  5
15C3B
  8
0
 10
261.4996116672859898
 20
227.937684864037692
 30
0.0
  0
VERTEX
  5
15C3C
  8
0
 10
261.4996240938057781
 20
227.9386899659945129
 30
0.0
  0
VERTEX
  5
15C3D
  8
0
 10
261.4996363182352184
 20
227.939695068590197
 30
0.0
  0
VERTEX
  5
15C3E
  8
0
 10
261.4996483405751064
 20
227.940700171761705
 30
0.0
  0
VERTEX
  5
15C3F
  8
0
 10
261.4996601608268065
 20
227.9417052754455995
 30
0.0
  0
VERTEX
  5
15C40
  8
0
 10
261.4996717789915124
 20
227.9427103795786138
 30
0.0
  0
VERTEX
  5
15C41
  8
0
 10
261.4996831950699061
 20
227.9437154840975097
 30
0.0
  0
VERTEX
  5
15C42
  8
0
 10
261.4996944090634088
 20
227.9447205889389068
 30
0.0
  0
VERTEX
  5
15C43
  8
0
 10
261.4997054209731004
 20
227.9457256940393108
 30
0.0
  0
VERTEX
  5
15C44
  8
0
 10
261.4997162308000043
 20
227.9467307993359952
 30
0.0
  0
VERTEX
  5
15C45
  8
0
 10
261.499726838545314
 20
227.9477359047652953
 30
0.0
  0
VERTEX
  5
15C46
  8
0
 10
261.4997372442099959
 20
227.9487410102638876
 30
0.0
  0
VERTEX
  5
15C47
  8
0
 10
261.4997474477950732
 20
227.9497461157685052
 30
0.0
  0
VERTEX
  5
15C48
  8
0
 10
261.4997574493019101
 20
227.9507512212159952
 30
0.0
  0
VERTEX
  5
15C49
  8
0
 10
261.499767248731473
 20
227.9517563265430908
 30
0.0
  0
VERTEX
  5
15C4A
  8
0
 10
261.4997768460847851
 20
227.9527614316862127
 30
0.0
  0
VERTEX
  5
15C4B
  8
0
 10
261.4997862413629832
 20
227.9537665365822932
 30
0.0
  0
VERTEX
  5
15C4C
  8
0
 10
261.4997954345673747
 20
227.9547716411680085
 30
0.0
  0
VERTEX
  5
15C4D
  8
0
 10
261.499804425698926
 20
227.9557767453800921
 30
0.0
  0
VERTEX
  5
15C4E
  8
0
 10
261.4998132147586034
 20
227.9567818491551066
 30
0.0
  0
VERTEX
  5
15C4F
  8
0
 10
261.4998218017476006
 20
227.9577869524300127
 30
0.0
  0
VERTEX
  5
15C50
  8
0
 10
261.4998301866668271
 20
227.9587920551412026
 30
0.0
  0
VERTEX
  5
15C51
  8
0
 10
261.4998383695178177
 20
227.9597971572256938
 30
0.0
  0
VERTEX
  5
15C52
  8
0
 10
261.4998463503013113
 20
227.960802258619907
 30
0.0
  0
VERTEX
  5
15C53
  8
0
 10
261.4998541290185017
 20
227.9618073592608027
 30
0.0
  0
VERTEX
  5
15C54
  8
0
 10
261.4998617056705257
 20
227.962812459084887
 30
0.0
  0
VERTEX
  5
15C55
  8
0
 10
261.4998690802582928
 20
227.963817558029092
 30
0.0
  0
VERTEX
  5
15C56
  8
0
 10
261.4998762527832241
 20
227.9648226560298951
 30
0.0
  0
VERTEX
  5
15C57
  8
0
 10
261.4998832232461154
 20
227.9658277530242003
 30
0.0
  0
VERTEX
  5
15C58
  8
0
 10
261.4998899916482742
 20
227.9668328489485134
 30
0.0
  0
VERTEX
  5
15C59
  8
0
 10
261.4998965579910077
 20
227.9678379437395961
 30
0.0
  0
VERTEX
  5
15C5A
  8
0
 10
261.4999029222748277
 20
227.968843037334409
 30
0.0
  0
VERTEX
  5
15C5B
  8
0
 10
261.4999090845013257
 20
227.9698481296692876
 30
0.0
  0
VERTEX
  5
15C5C
  8
0
 10
261.4999150446711838
 20
227.9708532206811924
 30
0.0
  0
VERTEX
  5
15C5D
  8
0
 10
261.4999208027858799
 20
227.9718583103067999
 30
0.0
  0
VERTEX
  5
15C5E
  8
0
 10
261.4999263588463805
 20
227.9728633984827013
 30
0.0
  0
VERTEX
  5
15C5F
  8
0
 10
261.4999317128537086
 20
227.9738684851456014
 30
0.0
  0
VERTEX
  5
15C60
  8
0
 10
261.4999368648090012
 20
227.9748735702324041
 30
0.0
  0
VERTEX
  5
15C61
  8
0
 10
261.4999418147136225
 20
227.9758786536797004
 30
0.0
  0
VERTEX
  5
15C62
  8
0
 10
261.4999465625680841
 20
227.97688373542411
 30
0.0
  0
VERTEX
  5
15C63
  8
0
 10
261.4999511083739208
 20
227.9778888154023946
 30
0.0
  0
VERTEX
  5
15C64
  8
0
 10
261.4999554521322125
 20
227.9788938935514011
 30
0.0
  0
VERTEX
  5
15C65
  8
0
 10
261.4999595938439256
 20
227.979898969807607
 30
0.0
  0
VERTEX
  5
15C66
  8
0
 10
261.4999635335100834
 20
227.9809040441078878
 30
0.0
  0
VERTEX
  5
15C67
  8
0
 10
261.4999672711322205
 20
227.9819091163888913
 30
0.0
  0
VERTEX
  5
15C68
  8
0
 10
261.4999708067109054
 20
227.9829141865874078
 30
0.0
  0
VERTEX
  5
15C69
  8
0
 10
261.4999741402475024
 20
227.9839192546401136
 30
0.0
  0
VERTEX
  5
15C6A
  8
0
 10
261.4999772717432052
 20
227.9849243204834863
 30
0.0
  0
VERTEX
  5
15C6B
  8
0
 10
261.4999802011988095
 20
227.9859293840546002
 30
0.0
  0
VERTEX
  5
15C6C
  8
0
 10
261.4999829286156228
 20
227.9869344452899043
 30
0.0
  0
VERTEX
  5
15C6D
  8
0
 10
261.4999854539947819
 20
227.9879395041261887
 30
0.0
  0
VERTEX
  5
15C6E
  8
0
 10
261.49998777733731
 20
227.9889445605001015
 30
0.0
  0
VERTEX
  5
15C6F
  8
0
 10
261.499989898644003
 20
227.9899496143486033
 30
0.0
  0
VERTEX
  5
15C70
  8
0
 10
261.4999918179166229
 20
227.9909546656080011
 30
0.0
  0
VERTEX
  5
15C71
  8
0
 10
261.4999935351556815
 20
227.9919597142153123
 30
0.0
  0
VERTEX
  5
15C72
  8
0
 10
261.4999950503625996
 20
227.9929647601072134
 30
0.0
  0
VERTEX
  5
15C73
  8
0
 10
261.4999963635384006
 20
227.9939698032202102
 30
0.0
  0
VERTEX
  5
15C74
  8
0
 10
261.4999974746841076
 20
227.9949748434912067
 30
0.0
  0
VERTEX
  5
15C75
  8
0
 10
261.4999983838008006
 20
227.9959798808569076
 30
0.0
  0
VERTEX
  5
15C76
  8
0
 10
261.4999990908895029
 20
227.9969849152539041
 30
0.0
  0
VERTEX
  5
15C77
  8
0
 10
261.499999595951806
 20
227.9979899466189011
 30
0.0
  0
VERTEX
  5
15C78
  8
0
 10
261.4999998989882215
 20
227.9989949748886886
 30
0.0
  0
VERTEX
  5
15C79
  8
0
 10
261.5000000000001137
 20
228.0
 30
0.0
  0
SEQEND
  5
15C7A
  8
0
  0
POLYLINE
  5
14CAF
  8
0
 66
     1
 10
0.0
 20
0.0
 30
0.0
  0
VERTEX
  5
15C7B
  8
0
 10
261.5000000000001137
 20
262.0
 30
0.0
  0
VERTEX
  5
15C7C
  8
0
 10
261.4999998989882215
 20
262.0010050251113967
 30
0.0
  0
VERTEX
  5
15C7D
  8
0
 10
261.499999595951806
 20
262.0020100533812979
 30
0.0
  0
VERTEX
  5
15C7E
  8
0
 10
261.4999990908895029
 20
262.0030150847463233
 30
0.0
  0
VERTEX
  5
15C7F
  8
0
 10
261.4999983838008006
 20
262.0040201191433198
 30
0.0
  0
VERTEX
  5
15C80
  8
0
 10
261.4999974746838802
 20
262.0050251565090207
 30
0.0
  0
VERTEX
  5
15C81
  8
0
 10
261.4999963635384006
 20
262.0060301967799887
 30
0.0
  0
VERTEX
  5
15C82
  8
0
 10
261.4999950503625996
 20
262.0070352398931277
 30
0.0
  0
VERTEX
  5
15C83
  8
0
 10
261.4999935351556815
 20
262.0080402857848867
 30
0.0
  0
VERTEX
  5
15C84
  8
0
 10
261.4999918179166229
 20
262.0090453343922263
 30
0.0
  0
VERTEX
  5
15C85
  8
0
 10
261.499989898644003
 20
262.0100503856515957
 30
0.0
  0
VERTEX
  5
15C86
  8
0
 10
261.49998777733731
 20
262.0110554395001827
 30
0.0
  0
VERTEX
  5
15C87
  8
0
 10
261.4999854539947819
 20
262.0120604958742092
 30
0.0
  0
VERTEX
  5
15C88
  8
0
 10
261.4999829286156228
 20
262.0130655547105221
 30
0.0
  0
VERTEX
  5
15C89
  8
0
 10
261.4999802011988095
 20
262.0140706159457977
 30
0.0
  0
VERTEX
  5
15C8A
  8
0
 10
261.4999772717432052
 20
262.0150756795168832
 30
0.0
  0
VERTEX
  5
15C8B
  8
0
 10
261.4999741402475024
 20
262.0160807453603979
 30
0.0
  0
VERTEX
  5
15C8C
  8
0
 10
261.4999708067109054
 20
262.0170858134130185
 30
0.0
  0
VERTEX
  5
15C8D
  8
0
 10
261.4999672711322205
 20
262.0180908836114781
 30
0.0
  0
VERTEX
  5
15C8E
  8
0
 10
261.4999635335100834
 20
262.0190959558925101
 30
0.0
  0
VERTEX
  5
15C8F
  8
0
 10
261.4999595938439256
 20
262.0201010301927909
 30
0.0
  0
VERTEX
  5
15C90
  8
0
 10
261.4999554521322125
 20
262.0211061064491105
 30
0.0
  0
VERTEX
  5
15C91
  8
0
 10
261.4999511083739208
 20
262.0221111845979749
 30
0.0
  0
VERTEX
  5
15C92
  8
0
 10
261.4999465625680273
 20
262.0231162645764016
 30
0.0
  0
VERTEX
  5
15C93
  8
0
 10
261.4999418147136225
 20
262.0241213463207828
 30
0.0
  0
VERTEX
  5
15C94
  8
0
 10
261.4999368648090012
 20
262.0251264297680791
 30
0.0
  0
VERTEX
  5
15C95
  8
0
 10
261.4999317128537086
 20
262.0261315148549102
 30
0.0
  0
VERTEX
  5
15C96
  8
0
 10
261.4999263588463805
 20
262.0271366015178955
 30
0.0
  0
VERTEX
  5
15C97
  8
0
 10
261.4999208027858231
 20
262.0281416896937117
 30
0.0
  0
VERTEX
  5
15C98
  8
0
 10
261.4999150446711838
 20
262.029146779319376
 30
0.0
  0
VERTEX
  5
15C99
  8
0
 10
261.499909084501212
 20
262.0301518703312809
 30
0.0
  0
VERTEX
  5
15C9A
  8
0
 10
261.4999029222748277
 20
262.0311569626661026
 30
0.0
  0
VERTEX
  5
15C9B
  8
0
 10
261.4998965579907804
 20
262.0321620562609723
 30
0.0
  0
VERTEX
  5
15C9C
  8
0
 10
261.4998899916482742
 20
262.0331671510521119
 30
0.0
  0
VERTEX
  5
15C9D
  8
0
 10
261.4998832232461154
 20
262.0341722469764818
 30
0.0
  0
VERTEX
  5
15C9E
  8
0
 10
261.4998762527831104
 20
262.0351773439707017
 30
0.0
  0
VERTEX
  5
15C9F
  8
0
 10
261.4998690802582928
 20
262.0361824419716186
 30
0.0
  0
VERTEX
  5
15CA0
  8
0
 10
261.4998617056702983
 20
262.0371875409156246
 30
0.0
  0
VERTEX
  5
15CA1
  8
0
 10
261.4998541290182743
 20
262.0381926407399078
 30
0.0
  0
VERTEX
  5
15CA2
  8
0
 10
261.4998463503010839
 20
262.0391977413808036
 30
0.0
  0
VERTEX
  5
15CA3
  8
0
 10
261.4998383695175903
 20
262.040202842775102
 30
0.0
  0
VERTEX
  5
15CA4
  8
0
 10
261.4998301866668271
 20
262.0412079448594795
 30
0.0
  0
VERTEX
  5
15CA5
  8
0
 10
261.4998218017473732
 20
262.0422130475707831
 30
0.0
  0
VERTEX
  5
15CA6
  8
0
 10
261.499813214758376
 20
262.0432181508455756
 30
0.0
  0
VERTEX
  5
15CA7
  8
0
 10
261.4998044256988123
 20
262.0442232546208174
 30
0.0
  0
VERTEX
  5
15CA8
  8
0
 10
261.4997954345673747
 20
262.0452283588326736
 30
0.0
  0
VERTEX
  5
15CA9
  8
0
 10
261.4997862413629264
 20
262.0462334634185027
 30
0.0
  0
VERTEX
  5
15CAA
  8
0
 10
261.4997768460847283
 20
262.0472385683145831
 30
0.0
  0
VERTEX
  5
15CAB
  8
0
 10
261.4997672487314162
 20
262.0482436734578187
 30
0.0
  0
VERTEX
  5
15CAC
  8
0
 10
261.4997574493019101
 20
262.0492487787847722
 30
0.0
  0
VERTEX
  5
15CAD
  8
0
 10
261.4997474477950163
 20
262.0502538842322906
 30
0.0
  0
VERTEX
  5
15CAE
  8
0
 10
261.4997372442098822
 20
262.0512589897369935
 30
0.0
  0
VERTEX
  5
15CAF
  8
0
 10
261.4997268385450866
 20
262.0522640952356141
 30
0.0
  0
VERTEX
  5
15CB0
  8
0
 10
261.4997162307998906
 20
262.0532692006648858
 30
0.0
  0
VERTEX
  5
15CB1
  8
0
 10
261.4997054209728731
 20
262.054274305961485
 30
0.0
  0
VERTEX
  5
15CB2
  8
0
 10
261.4996944090632951
 20
262.055279411062088
 30
0.0
  0
VERTEX
  5
15CB3
  8
0
 10
261.4996831950696787
 20
262.056284515903485
 30
0.0
  0
VERTEX
  5
15CB4
  8
0
 10
261.499671778991285
 20
262.0572896204224094
 30
0.0
  0
VERTEX
  5
15CB5
  8
0
 10
261.4996601608266928
 20
262.0582947245554237
 30
0.0
  0
VERTEX
  5
15CB6
  8
0
 10
261.4996483405751064
 20
262.0592998282393182
 30
0.0
  0
VERTEX
  5
15CB7
  8
0
 10
261.499636318234991
 20
262.060304931410883
 30
0.0
  0
VERTEX
  5
15CB8
  8
0
 10
261.4996240938057213
 20
262.0613100340066239
 30
0.0
  0
VERTEX
  5
15CB9
  8
0
 10
261.4996116672858761
 20
262.0623151359632743
 30
0.0
  0
VERTEX
  5
15CBA
  8
0
 10
261.4995990386744893
 20
262.0633202372179085
 30
0.0
  0
VERTEX
  5
15CBB
  8
0
 10
261.4995862079704807
 20
262.0643253377066912
 30
0.0
  0
SEQEND
  5
15CBC
  8
0
  0
POLYLINE
  5
14CB0
  8
0
 66
     1
 10
0.0
 20
0.0
 30
0.0
  0
VERTEX
  5
15CBD
  8
0
 10
260.7049889068647985
 20
264.7051928384395865
 30
0.0
  0
VERTEX
  5
15CBE
  8
0
 10
260.6657915144185722
 20
264.7651860995168249
 30
0.0
  0
VERTEX
  5
15CBF
  8
0
 10
260.6258463666055718
 20
264.8244733812408072
 30
0.0
  0
VERTEX
  5
15CC0
  8
0
 10
260.5851553412812791
 20
264.8830564262793814
 30
0.0
  0
VERTEX
  5
15CC1
  8
0
 10
260.5437203163011759
 20
264.9409369772998843
 30
0.0
  0
VERTEX
  5
15CC2
  8
0
 10
260.5015431695213124
 20
264.9981167769695958
 30
0.0
  0
VERTEX
  5
15CC3
  8
0
 10
260.4586257787964882
 20
265.0545975679561934
 30
0.0
  0
VERTEX
  5
15CC4
  8
0
 10
260.4149700219829242
 20
265.1103810929271276
 30
0.0
  0
VERTEX
  5
15CC5
  8
0
 10
260.3705777769357042
 20
265.1654690945496213
 30
0.0
  0
VERTEX
  5
15CC6
  8
0
 10
260.3254509215107078
 20
265.2198633154911818
 30
0.0
  0
VERTEX
  5
15CC7
  8
0
 10
260.2795913335631894
 20
265.2735654984196003
 30
0.0
  0
VERTEX
  5
15CC8
  8
0
 10
260.2330008909488015
 20
265.3265773860019863
 30
0.0
  0
VERTEX
  5
15CC9
  8
0
 10
260.1856814715234236
 20
265.3789007209060173
 30
0.0
  0
VERTEX
  5
15CCA
  8
0
 10
260.1376349531420828
 20
265.4305372457989165
 30
0.0
  0
VERTEX
  5
15CCB
  8
0
 10
260.0888632136607725
 20
265.4814887033483046
 30
0.0
  0
VERTEX
  5
15CCC
  8
0
 10
260.039368130934804
 20
265.5317568362215184
 30
0.0
  0
VERTEX
  5
15CCD
  8
0
 10
259.9891515828197726
 20
265.5813433870861218
 30
0.0
  0
VERTEX
  5
15CCE
  8
0
 10
259.9382154471713875
 20
265.630250098609622
 30
0.0
  0
VERTEX
  5
15CCF
  8
0
 10
259.8865583961764969
 20
265.6784803505350965
 30
0.0
  0
VERTEX
  5
15CD0
  8
0
 10
259.8341216934496742
 20
265.7260627710672907
 30
0.0
  0
VERTEX
  5
15CD1
  8
0
 10
259.7809128542525059
 20
265.7729820636981231
 30
0.0
  0
VERTEX
  5
15CD2
  8
0
 10
259.7269718126311204
 20
265.8192049113895905
 30
0.0
  0
VERTEX
  5
15CD3
  8
0
 10
259.672338502631419
 20
265.8646979971035762
 30
0.0
  0
VERTEX
  5
15CD4
  8
0
 10
259.6170528582998145
 20
265.9094280038023044
 30
0.0
  0
VERTEX
  5
15CD5
  8
0
 10
259.561154813682208
 20
265.9533616144476014
 30
0.0
  0
VERTEX
  5
15CD6
  8
0
 10
259.5046843028246144
 20
265.9964655120012935
 30
0.0
  0
VERTEX
  5
15CD7
  8
0
 10
259.447681259773276
 20
266.0387063794257188
 30
0.0
  0
VERTEX
  5
15CD8
  8
0
 10
259.3901857060914153
 20
266.0800525946588095
 30
0.0
  0
VERTEX
  5
15CD9
  8
0
 10
259.332226432428115
 20
266.1205000293297758
 30
0.0
  0
VERTEX
  5
15CDA
  8
0
 10
259.2738078421293721
 20
266.1600541517245233
 30
0.0
  0
VERTEX
  5
15CDB
  8
0
 10
259.2149316042252849
 20
266.1987180949145113
 30
0.0
  0
VERTEX
  5
15CDC
  8
0
 10
259.1555993877464061
 20
266.2364949919723927
 30
0.0
  0
VERTEX
  5
15CDD
  8
0
 10
259.0958128617231182
 20
266.2733879759703086
 30
0.0
  0
VERTEX
  5
15CDE
  8
0
 10
259.0355736951855761
 20
266.3094001799804005
 30
0.0
  0
VERTEX
  5
15CDF
  8
0
 10
258.9748835571643895
 20
266.3445347370748095
 30
0.0
  0
VERTEX
  5
15CE0
  8
0
 10
258.9137441166898839
 20
266.3787947803257907
 30
0.0
  0
VERTEX
  5
15CE1
  8
0
 10
258.8521569856238784
 20
266.4121833322012094
 30
0.0
  0
VERTEX
  5
15CE2
  8
0
 10
258.7901225996968719
 20
266.4447011279054891
 30
0.0
  0
VERTEX
  5
15CE3
  8
0
 10
258.7276402955964159
 20
266.4763467579555822
 30
0.0
  0
VERTEX
  5
15CE4
  8
0
 10
258.6647093682569789
 20
266.5071187307787
 30
0.0
  0
VERTEX
  5
15CE5
  8
0
 10
258.6013291126139961
 20
266.5370155548022808
 30
0.0
  0
VERTEX
  5
15CE6
  8
0
 10
258.5374988236025047
 20
266.566035738453877
 30
0.0
  0
VERTEX
  5
15CE7
  8
0
 10
258.473217796157428
 20
266.5941777901609271
 30
0.0
  0
VERTEX
  5
15CE8
  8
0
 10
258.4084853252139737
 20
266.6214402183506991
 30
0.0
  0
VERTEX
  5
15CE9
  8
0
 10
258.3433007057072928
 20
266.6478215314509157
 30
0.0
  0
VERTEX
  5
15CEA
  8
0
 10
258.2776664225063996
 20
266.6733156452426101
 30
0.0
  0
VERTEX
  5
15CEB
  8
0
 10
258.2116142473043965
 20
266.6978991796493119
 30
0.0
  0
VERTEX
  5
15CEC
  8
0
 10
258.1451900729763906
 20
266.7215587379271824
 30
0.0
  0
VERTEX
  5
15CED
  8
0
 10
258.0784397348105017
 20
266.744282330641397
 30
0.0
  0
VERTEX
  5
15CEE
  8
0
 10
258.0114090680955883
 20
266.7660579683561082
 30
0.0
  0
VERTEX
  5
15CEF
  8
0
 10
257.9441439081199974
 20
266.7868736616367755
 30
0.0
  0
VERTEX
  5
15CF0
  8
0
 10
257.8766900901720192
 20
266.8067174210481767
 30
0.0
  0
VERTEX
  5
15CF1
  8
0
 10
257.809093449540228
 20
266.8255772571553734
 30
0.0
  0
VERTEX
  5
15CF2
  8
0
 10
257.7413998215129141
 20
266.8434411805230866
 30
0.0
  0
VERTEX
  5
15CF3
  8
0
 10
257.6736236076313276
 20
266.8603133494394228
 30
0.0
  0
VERTEX
  5
15CF4
  8
0
 10
257.6057103760767859
 20
266.8762269260290054
 30
0.0
  0
VERTEX
  5
15CF5
  8
0
 10
257.5376570458151946
 20
266.8911827260267273
 30
0.0
  0
VERTEX
  5
15CF6
  8
0
 10
257.4694635503067275
 20
266.9051798868811147
 30
0.0
  0
VERTEX
  5
15CF7
  8
0
 10
257.4011298230116154
 20
266.9182175460408075
 30
0.0
  0
VERTEX
  5
15CF8
  8
0
 10
257.3326557973899753
 20
266.9302948409543887
 30
0.0
  0
VERTEX
  5
15CF9
  8
0
 10
257.2640414069020949
 20
266.9414109090703846
 30
0.0
  0
VERTEX
  5
15CFA
  8
0
 10
257.1952865850084891
 20
266.9515648878373781
 30
0.0
  0
VERTEX
  5
15CFB
  8
0
 10
257.1263912651691044
 20
266.9607559147041229
 30
0.0
  0
VERTEX
  5
15CFC
  8
0
 10
257.0573553808442853
 20
266.9689831271189178
 30
0.0
  0
VERTEX
  5
15CFD
  8
0
 10
256.9881788654943193
 20
266.9762456625304026
 30
0.0
  0
VERTEX
  5
15CFE
  8
0
 10
256.9188616525794941
 20
266.9825426583872741
 30
0.0
  0
VERTEX
  5
15CFF
  8
0
 10
256.8494036755599268
 20
266.9878732521380016
 30
0.0
  0
VERTEX
  5
15D00
  8
0
 10
256.7798048678957912
 20
266.992236581231225
 30
0.0
  0
VERTEX
  5
15D01
  8
0
 10
256.7100651630476023
 20
266.9956317831154138
 30
0.0
  0
VERTEX
  5
15D02
  8
0
 10
256.6401844944754771
 20
266.9980579952393214
 30
0.0
  0
VERTEX
  5
15D03
  8
0
 10
256.5701627956394759
 20
266.9995143550511898
 30
0.0
  0
VERTEX
  5
15D04
  8
0
 10
256.5000000000001137
 20
267.0000000000001137
 30
0.0
  0
SEQEND
  5
15D05
  8
0
  0
POLYLINE
  5
14CB1
  8
0
 66
     1
 10
0.0
 20
0.0
 30
0.0
  0
VERTEX
  5
15D06
  8
0
 10
256.5000000000001137
 20
267.0000000000001137
 30
0.0
  0
VERTEX
  5
15D07
  8
0
 10
255.8638705974398988
 20
267.0000000000001137
 30
0.0
  0
VERTEX
  5
15D08
  8
0
 10
255.227698908115201
 20
267.0000000000001137
 30
0.0
  0
VERTEX
  5
15D09
  8
0
 10
254.5914834120274008
 20
267.0000000000001137
 30
0.0
  0
VERTEX
  5
15D0A
  8
0
 10
253.9552225891775095
 20
267.0000000000001137
 30
0.0
  0
VERTEX
  5
15D0B
  8
0
 10
253.3189149195669927
 20
267.0000000000001137
 30
0.0
  0
VERTEX
  5
15D0C
  8
0
 10
252.6825588831970038
 20
267.0000000000001137
 30
0.0
  0
VERTEX
  5
15D0D
  8
0
 10
252.0461529600688948
 20
267.0000000000001137
 30
0.0
  0
VERTEX
  5
15D0E
  8
0
 10
251.4096956301837906
 20
267.0000000000001137
 30
0.0
  0
VERTEX
  5
15D0F
  8
0
 10
250.7731853735432139
 20
267.0000000000001137
 30
0.0
  0
VERTEX
  5
15D10
  8
0
 10
250.1366206701482042
 20
267.0000000000001137
 30
0.0
  0
VERTEX
  5
15D11
  8
0
 10
249.5
 20
267.0000000000001137
 30
0.0
  0
SEQEND
  5
15D12
  8
0
  0
POLYLINE
  5
14CB2
  8
0
 66
     1
 10
0.0
 20
0.0
 30
0.0
  0
VERTEX
  5
15D13
  8
0
 10
249.5
 20
267.0000000000001137
 30
0.0
  0
VERTEX
  5
15D14
  8
0
 10
249.4344747152869957
 20
267.0004258184090986
 30
0.0
  0
VERTEX
  5
15D15
  8
0
 10
249.369073347744802
 20
267.0017022358521785
 30
0.0
  0
VERTEX
  5
15D16
  8
0
 10
249.3037956116681073
 20
267.0038276956530012
 30
0.0
  0
VERTEX
  5
15D17
  8
0
 10
249.2386412213506901
 20
267.0068006411352144
 30
0.0
  0
VERTEX
  5
15D18
  8
0
 10
249.1736098910870965
 20
267.0106195156228068
 30
0.0
  0
VERTEX
  5
15D19
  8
0
 10
249.1087013351711903
 20
267.0152827624394263
 30
0.0
  0
VERTEX
  5
15D1A
  8
0
 10
249.043915267897404
 20
267.0207888249087205
 30
0.0
  0
VERTEX
  5
15D1B
  8
0
 10
248.9792514035598003
 20
267.0271361463546214
 30
0.0
  0
VERTEX
  5
15D1C
  8
0
 10
248.9147094564528118
 20
267.0343231701007767
 30
0.0
  0
VERTEX
  5
15D1D
  8
0
 10
248.8502891408703874
 20
267.0423483394711752
 30
0.0
  0
VERTEX
  5
15D1E
  8
0
 10
248.7859901711067039
 20
267.0512100977892942
 30
0.0
  0
VERTEX
  5
15D1F
  8
0
 10
248.7218122614563072
 20
267.0609068883790087
 30
0.0
  0
VERTEX
  5
15D20
  8
0
 10
248.6577551262130044
 20
267.0714371545641939
 30
0.0
  0
VERTEX
  5
15D21
  8
0
 10
248.5938184796711994
 20
267.0827993396683269
 30
0.0
  0
VERTEX
  5
15D22
  8
0
 10
248.5300020429424137
 20
267.0949919345504782
 30
0.0
  0
VERTEX
  5
15D23
  8
0
 10
248.4663062083355101
 20
267.1080181157872175
 30
0.0
  0
VERTEX
  5
15D24
  8
0
 10
248.402731629074907
 20
267.1218828972499182
 30
0.0
  0
VERTEX
  5
15D25
  8
0
 10
248.3392787128053101
 20
267.1365895839630866
 30
0.0
  0
VERTEX
  5
15D26
  8
0
 10
248.2759478671704017
 20
267.1521414809517978
 30
0.0
  0
VERTEX
  5
15D27
  8
0
 10
248.2127394998146883
 20
267.1685418932403877
 30
0.0
  0
VERTEX
  5
15D28
  8
0
 10
248.1496540183823072
 20
267.1857941258541018
 30
0.0
  0
VERTEX
  5
15D29
  8
0
 10
248.0866918305175943
 20
267.2039014838172193
 30
0.0
  0
VERTEX
  5
15D2A
  8
0
 10
248.0238416282273022
 20
267.2228740490737096
 30
0.0
  0
VERTEX
  5
15D2B
  8
0
 10
247.9610949574395988
 20
267.2427249598803769
 30
0.0
  0
VERTEX
  5
15D2C
  8
0
 10
247.898504888656305
 20
267.2634368149472834
 30
0.0
  0
VERTEX
  5
15D2D
  8
0
 10
247.8361278243399966
 20
267.2849904470346019
 30
0.0
  0
VERTEX
  5
15D2E
  8
0
 10
247.7740201669529085
 20
267.3073666889026185
 30
0.0
  0
VERTEX
  5
15D2F
  8
0
 10
247.7122383189575032
 20
267.3305463733116767
 30
0.0
  0
VERTEX
  5
15D30
  8
0
 10
247.6508386828157029
 20
267.3545103330225174
 30
0.0
  0
VERTEX
  5
15D31
  8
0
 10
247.5898749563554873
 20
267.3792398018135259
 30
0.0
  0
VERTEX
  5
15D32
  8
0
 10
247.5293293576382041
 20
267.4047294654076836
 30
0.0
  0
VERTEX
  5
15D33
  8
0
 10
247.469182852543895
 20
267.4309812720732111
 30
0.0
  0
VERTEX
  5
15D34
  8
0
 10
247.4094354629893076
 20
267.457995371912773
 30
0.0
  0
VERTEX
  5
15D35
  8
0
 10
247.3500872108922124
 20
267.485771915029602
 30
0.0
  0
VERTEX
  5
15D36
  8
0
 10
247.2911381181694139
 20
267.5143110515264766
 30
0.0
  0
VERTEX
  5
15D37
  8
0
 10
247.2325882067385123
 20
267.5436129315069138
 30
0.0
  0
VERTEX
  5
15D38
  8
0
 10
247.1744374985165109
 20
267.5736777050738056
 30
0.0
  0
VERTEX
  5
15D39
  8
0
 10
247.1166860154208109
 20
267.6045055223299869
 30
0.0
  0
VERTEX
  5
15D3A
  8
0
 10
247.0593337793685862
 20
267.6360965333786908
 30
0.0
  0
VERTEX
  5
15D3B
  8
0
 10
247.0023808122770959
 20
267.6684508883229228
 30
0.0
  0
VERTEX
  5
15D3C
  8
0
 10
246.9458271360637127
 20
267.7015687372656885
 30
0.0
  0
VERTEX
  5
15D3D
  8
0
 10
246.8896727726454969
 20
267.7354502303101071
 30
0.0
  0
VERTEX
  5
15D3E
  8
0
 10
246.8339177439397929
 20
267.7700955175592981
 30
0.0
  0
VERTEX
  5
15D3F
  8
0
 10
246.7785620718638029
 20
267.80550474911621
 30
0.0
  0
VERTEX
  5
15D40
  8
0
 10
246.7236028473359966
 20
267.841682523320685
 30
0.0
  0
VERTEX
  5
15D41
  8
0
 10
246.6690172105330987
 20
267.8786693873756803
 30
0.0
  0
VERTEX
  5
15D42
  8
0
 10
246.614819978883304
 20
267.916459861216822
 30
0.0
  0
VERTEX
  5
15D43
  8
0
 10
246.5610357087751083
 20
267.955034856033194
 30
0.0
  0
VERTEX
  5
15D44
  8
0
 10
246.5076889565968088
 20
267.9943752830133121
 30
0.0
  0
VERTEX
  5
15D45
  8
0
 10
246.4548042787369013
 20
268.0344620533466014
 30
0.0
  0
VERTEX
  5
15D46
  8
0
 10
246.4024062315837114
 20
268.075276078221691
 30
0.0
  0
VERTEX
  5
15D47
  8
0
 10
246.3505193715253938
 20
268.1167982688277789
 30
0.0
  0
VERTEX
  5
15D48
  8
0
 10
246.2991682549503878
 20
268.1590095363536079
 30
0.0
  0
VERTEX
  5
15D49
  8
0
 10
246.2483774382469051
 20
268.2018907919882054
 30
0.0
  0
VERTEX
  5
15D4A
  8
0
 10
246.1981714778036121
 20
268.2454229469204279
 30
0.0
  0
VERTEX
  5
15D4B
  8
0
 10
246.1485749300086923
 20
268.2895869123390753
 30
0.0
  0
VERTEX
  5
15D4C
  8
0
 10
246.0996123512503004
 20
268.3343635994335159
 30
0.0
  0
VERTEX
  5
15D4D
  8
0
 10
246.0513082979169042
 20
268.3797339193922085
 30
0.0
  0
VERTEX
  5
15D4E
  8
0
 10
246.0036873263969142
 20
268.4256787834045213
 30
0.0
  0
VERTEX
  5
15D4F
  8
0
 10
245.9567636042841912
 20
268.4721839909601044
 30
0.0
  0
VERTEX
  5
15D50
  8
0
 10
245.910490588376291
 20
268.519267347453706
 30
0.0
  0
VERTEX
  5
15D51
  8
0
 10
245.8648600421583978
 20
268.566933983622107
 30
0.0
  0
VERTEX
  5
15D52
  8
0
 10
245.8198731438183131
 20
268.6151849823888256
 30
0.0
  0
VERTEX
  5
15D53
  8
0
 10
245.7755310715438952
 20
268.6640214266777775
 30
0.0
  0
VERTEX
  5
15D54
  8
0
 10
245.7318350035230026
 20
268.7134443994132766
 30
0.0
  0
VERTEX
  5
15D55
  8
0
 10
245.6887861179436925
 20
268.7634549835196935
 30
0.0
  0
VERTEX
  5
15D56
  8
0
 10
245.646385592993596
 20
268.8140542619204894
 30
0.0
  0
VERTEX
  5
15D57
  8
0
 10
245.6046346068604862
 20
268.8652433175403758
 30
0.0
  0
VERTEX
  5
15D58
  8
0
 10
245.563534337732392
 20
268.9170232333029276
 30
0.0
  0
VERTEX
  5
15D59
  8
0
 10
245.523085963797314
 20
268.9693950921324017
 30
0.0
  0
VERTEX
  5
15D5A
  8
0
 10
245.4832906632427978
 20
269.0223599769528278
 30
0.0
  0
VERTEX
  5
15D5B
  8
0
 10
245.4441496142567871
 20
269.0759189706881784
 30
0.0
  0
VERTEX
  5
15D5C
  8
0
 10
245.4056639950273109
 20
269.1300731562628243
 30
0.0
  0
VERTEX
  5
15D5D
  8
0
 10
245.3678349837421138
 20
269.1848236166005108
 30
0.0
  0
VERTEX
  5
15D5E
  8
0
 10
245.330665266727209
 20
269.2401762291581235
 30
0.0
  0
VERTEX
  5
15D5F
  8
0
 10
245.2941745019637096
 20
269.2961267981874016
 30
0.0
  0
VERTEX
  5
15D60
  8
0
 10
245.2583928333368988
 20
269.3526264178917131
 30
0.0
  0
VERTEX
  5
15D61
  8
0
 10
245.2233505439492092
 20
269.4096232152887751
 30
0.0
  0
VERTEX
  5
15D62
  8
0
 10
245.1890779169029031
 20
269.4670653173961909
 30
0.0
  0
VERTEX
  5
15D63
  8
0
 10
245.155605235299987
 20
269.5249008512316209
 30
0.0
  0
VERTEX
  5
15D64
  8
0
 10
245.1229627822430075
 20
269.5830779438122136
 30
0.0
  0
VERTEX
  5
15D65
  8
0
 10
245.0911797080015901
 20
269.6415462698092256
 30
0.0
  0
VERTEX
  5
15D66
  8
0
 10
245.0602366761964106
 20
269.700323396758904
 30
0.0
  0
VERTEX
  5
15D67
  8
0
 10
245.0301139991202888
 20
269.7594319740401261
 30
0.0
  0
VERTEX
  5
15D68
  8
0
 10
245.0008097131606917
 20
269.818871209802694
 30
0.0
  0
VERTEX
  5
15D69
  8
0
 10
244.972321854705001
 20
269.8786403121961257
 30
0.0
  0
VERTEX
  5
15D6A
  8
0
 10
244.9446484601402005
 20
269.938738489369598
 30
0.0
  0
VERTEX
  5
15D6B
  8
0
 10
244.9177875658538994
 20
269.9991649494727994
 30
0.0
  0
VERTEX
  5
15D6C
  8
0
 10
244.8917372082333088
 20
270.0599189006553047
 30
0.0
  0
VERTEX
  5
15D6D
  8
0
 10
244.8664911791242957
 20
270.1210146907628769
 30
0.0
  0
VERTEX
  5
15D6E
  8
0
 10
244.8420408328559859
 20
270.1824828948255117
 30
0.0
  0
VERTEX
  5
15D6F
  8
0
 10
244.818390895043791
 20
270.2443134660341002
 30
0.0
  0
VERTEX
  5
15D70
  8
0
 10
244.795546638295491
 20
270.3064945602629905
 30
0.0
  0
VERTEX
  5
15D71
  8
0
 10
244.7735133352194907
 20
270.3690143333864739
 30
0.0
  0
VERTEX
  5
15D72
  8
0
 10
244.7522962584239963
 20
270.431860941279183
 30
0.0
  0
VERTEX
  5
15D73
  8
0
 10
244.731900680516901
 20
270.4950225398152952
 30
0.0
  0
VERTEX
  5
15D74
  8
0
 10
244.7123318741064963
 20
270.5584872848692726
 30
0.0
  0
VERTEX
  5
15D75
  8
0
 10
244.6935951118011019
 20
270.6222433323155201
 30
0.0
  0
VERTEX
  5
15D76
  8
0
 10
244.6756956662084974
 20
270.6862788380282723
 30
0.0
  0
VERTEX
  5
15D77
  8
0
 10
244.6586388099370879
 20
270.7505819578821047
 30
0.0
  0
VERTEX
  5
15D78
  8
0
 10
244.6424298155949941
 20
270.8151408477514224
 30
0.0
  0
VERTEX
  5
15D79
  8
0
 10
244.6270739557903084
 20
270.8799436635105167
 30
0.0
  0
VERTEX
  5
15D7A
  8
0
 10
244.6125765031312085
 20
270.9449785610336789
 30
0.0
  0
VERTEX
  5
15D7B
  8
0
 10
244.5989427302260992
 20
271.0102336961955984
 30
0.0
  0
VERTEX
  5
15D7C
  8
0
 10
244.5861820214873887
 20
271.0756503245544877
 30
0.0
  0
VERTEX
  5
15D7D
  8
0
 10
244.5743029587783042
 20
271.1411488887908945
 30
0.0
  0
VERTEX
  5
15D7E
  8
0
 10
244.563305390115886
 20
271.2067284086285781
 30
0.0
  0
VERTEX
  5
15D7F
  8
0
 10
244.5531890652204936
 20
271.2723888918047805
 30
0.0
  0
VERTEX
  5
15D80
  8
0
 10
244.5439537338124865
 20
271.3381303460573122
 30
0.0
  0
VERTEX
  5
15D81
  8
0
 10
244.5355991456121103
 20
271.4039527791231876
 30
0.0
  0
VERTEX
  5
15D82
  8
0
 10
244.5281250503396961
 20
271.4698561987399898
 30
0.0
  0
VERTEX
  5
15D83
  8
0
 10
244.5215311977154045
 20
271.5358406126451882
 30
0.0
  0
VERTEX
  5
15D84
  8
0
 10
244.5158173374595947
 20
271.6019060285761952
 30
0.0
  0
VERTEX
  5
15D85
  8
0
 10
244.5109832192925978
 20
271.6680524542704234
 30
0.0
  0
VERTEX
  5
15D86
  8
0
 10
244.5070285929348017
 20
271.7342798974652851
 30
0.0
  0
VERTEX
  5
15D87
  8
0
 10
244.5039532081063101
 20
271.8005883658983066
 30
0.0
  0
VERTEX
  5
15D88
  8
0
 10
244.5017568145275106
 20
271.8669778673067867
 30
0.0
  0
VERTEX
  5
15D89
  8
0
 10
244.5004391619185071
 20
271.9334484094284221
 30
0.0
  0
VERTEX
  5
15D8A
  8
0
 10
244.5000000000001137
 20
272.0
 30
0.0
  0
SEQEND
  5
15D8B
  8
0
  0
POLYLINE
  5
14CB3
  8
0
 66
     1
 10
0.0
 20
0.0
 30
0.0
  0
VERTEX
  5
15D8C
  8
0
 10
244.5000000000001137
 20
272.0
 30
0.0
  0
VERTEX
  5
15D8D
  8
0
 10
244.5000000000001137
 20
272.910678413103426
 30
0.0
  0
VERTEX
  5
15D8E
  8
0
 10
244.5000000000001137
 20
273.8210120621326951
 30
0.0
  0
VERTEX
  5
15D8F
  8
0
 10
244.5000000000001137
 20
274.7310100305185188
 30
0.0
  0
VERTEX
  5
15D90
  8
0
 10
244.5000000000001137
 20
275.640681401691495
 30
0.0
  0
VERTEX
  5
15D91
  8
0
 10
244.5000000000001137
 20
276.550035259082108
 30
0.0
  0
VERTEX
  5
15D92
  8
0
 10
244.5000000000001137
 20
277.4590806861211263
 30
0.0
  0
VERTEX
  5
15D93
  8
0
 10
244.5000000000001137
 20
278.3678267662386929
 30
0.0
  0
VERTEX
  5
15D94
  8
0
 10
244.5000000000001137
 20
279.2762825828658038
 30
0.0
  0
VERTEX
  5
15D95
  8
0
 10
244.5000000000001137
 20
280.1844572194327725
 30
0.0
  0
VERTEX
  5
15D96
  8
0
 10
244.5000000000001137
 20
281.0923597593703107
 30
0.0
  0
VERTEX
  5
15D97
  8
0
 10
244.5000000000001137
 20
281.999999286108789
 30
0.0
  0
SEQEND
  5
15D98
  8
0
  0
POLYLINE
  5
14CB4
  8
0
 66
     1
 10
0.0
 20
0.0
 30
0.0
  0
VERTEX
  5
15D99
  8
0
 10
244.5000000000001137
 20
281.999999286108789
 30
0.0
  0
VERTEX
  5
15D9A
  8
0
 10
244.4994645536002906
 20
282.073473848609126
 30
0.0
  0
VERTEX
  5
15D9B
  8
0
 10
244.497859654636386
 20
282.1467928731862003
 30
0.0
  0
VERTEX
  5
15D9C
  8
0
 10
244.4951874949667001
 20
282.2199566298982063
 30
0.0
  0
VERTEX
  5
15D9D
  8
0
 10
244.4914502664495046
 20
282.2929653888029975
 30
0.0
  0
VERTEX
  5
15D9E
  8
0
 10
244.4866501609432135
 20
282.3658194199585978
 30
0.0
  0
VERTEX
  5
15D9F
  8
0
 10
244.4807893703060984
 20
282.4385189934229174
 30
0.0
  0
VERTEX
  5
15DA0
  8
0
 10
244.473870086396488
 20
282.5110643792540941
 30
0.0
  0
VERTEX
  5
15DA1
  8
0
 10
244.4658945010727109
 20
282.5834558475099243
 30
0.0
  0
VERTEX
  5
15DA2
  8
0
 10
244.4568648061930958
 20
282.6556936682483752
 30
0.0
  0
VERTEX
  5
15DA3
  8
0
 10
244.4467831936161133
 20
282.7277781115275843
 30
0.0
  0
VERTEX
  5
15DA4
  8
0
 10
244.4356518551998079
 20
282.7997094474054052
 30
0.0
  0
VERTEX
  5
15DA5
  8
0
 10
244.4234729828027923
 20
282.8714879459399185
 30
0.0
  0
VERTEX
  5
15DA6
  8
0
 10
244.4102487682831111
 20
282.9431138771889778
 30
0.0
  0
VERTEX
  5
15DA7
  8
0
 10
244.3959796732301015
 20
283.0145872635038131
 30
0.0
  0
VERTEX
  5
15DA8
  8
0
 10
244.3806583759092064
 20
283.0859070082545941
 30
0.0
  0
VERTEX
  5
15DA9
  8
0
 10
244.3642797712113861
 20
283.1570723264003959
 30
0.0
  0
VERTEX
  5
15DAA
  8
0
 10
244.346839216746389
 20
283.2280824988922063
 30
0.0
  0
VERTEX
  5
15DAB
  8
0
 10
244.3283320701241053
 20
283.2989368066811267
 30
0.0
  0
VERTEX
  5
15DAC
  8
0
 10
244.3087536889549085
 20
283.3696345307183151
 30
0.0
  0
VERTEX
  5
15DAD
  8
0
 10
244.2880994308484901
 20
283.4401749519548162
 30
0.0
  0
VERTEX
  5
15DAE
  8
0
 10
244.2663556294891123
 20
283.5105643788858174
 30
0.0
  0
VERTEX
  5
15DAF
  8
0
 10
244.2435263255765108
 20
283.5807638456839754
 30
0.0
  0
VERTEX
  5
15DB0
  8
0
 10
244.2196390276936881
 20
283.650697304870107
 30
0.0
  0
VERTEX
  5
15DB1
  8
0
 10
244.1947213054999963
 20
283.7202886286374905
 30
0.0
  0
VERTEX
  5
15DB2
  8
0
 10
244.1688007286562083
 20
283.789461689179177
 30
0.0
  0
VERTEX
  5
15DB3
  8
0
 10
244.1419048668219034
 20
283.858140358688388
 30
0.0
  0
VERTEX
  5
15DB4
  8
0
 10
244.1140605043464973
 20
283.9262525215689834
 30
0.0
  0
VERTEX
  5
15DB5
  8
0
 10
244.0852707484914106
 20
283.9938301373534273
 30
0.0
  0
VERTEX
  5
15DB6
  8
0
 10
244.0555310953839978
 20
284.0609021572356028
 30
0.0
  0
VERTEX
  5
15DB7
  8
0
 10
244.0248415221510072
 20
284.1274685572499834
 30
0.0
  0
VERTEX
  5
15DB8
  8
0
 10
243.9932020059191871
 20
284.1935293134308722
 30
0.0
  0
VERTEX
  5
15DB9
  8
0
 10
243.960612523815513
 20
284.2590844018127996
 30
0.0
  0
VERTEX
  5
15DBA
  8
0
 10
243.9270730529667048
 20
284.3241337984301254
 30
0.0
  0
VERTEX
  5
15DBB
  8
0
 10
243.8925835704993972
 20
284.3886774793170957
 30
0.0
  0
VERTEX
  5
15DBC
  8
0
 10
243.8571440535403951
 20
284.4527154205081843
 30
0.0
  0
VERTEX
  5
15DBD
  8
0
 10
243.8207544792167027
 20
284.5162475980380918
 30
0.0
  0
VERTEX
  5
15DBE
  8
0
 10
243.7834148246548978
 20
284.5792739879407804
 30
0.0
  0
VERTEX
  5
15DBF
  8
0
 10
243.745125066981899
 20
284.6417945662508941
 30
0.0
  0
VERTEX
  5
15DC0
  8
0
 10
243.7058851833243978
 20
284.7038093090027928
 30
0.0
  0
VERTEX
  5
15DC1
  8
0
 10
243.665695150809313
 20
284.7653181922308931
 30
0.0
  0
VERTEX
  5
15DC2
  8
0
 10
243.6245364517866108
 20
284.8263252592740855
 30
0.0
  0
VERTEX
  5
15DC3
  8
0
 10
243.5823950024413023
 20
284.8868186747562845
 30
0.0
  0
VERTEX
  5
15DC4
  8
0
 10
243.5392965821619953
 20
284.9467673710602185
 30
0.0
  0
VERTEX
  5
15DC5
  8
0
 10
243.4952674161351922
 20
285.0061401162918742
 30
0.0
  0
VERTEX
  5
15DC6
  8
0
 10
243.450333729548106
 20
285.064905678557011
 30
0.0
  0
VERTEX
  5
15DC7
  8
0
 10
243.4045217475876086
 20
285.1230328259615021
 30
0.0
  0
VERTEX
  5
15DC8
  8
0
 10
243.3578576954409129
 20
285.1804903266112206
 30
0.0
  0
VERTEX
  5
15DC9
  8
0
 10
243.3103677982948909
 20
285.2372469486119826
 30
0.0
  0
VERTEX
  5
15DCA
  8
0
 10
243.2620782813366986
 20
285.2932714600698887
 30
0.0
  0
VERTEX
  5
15DCB
  8
0
 10
243.2130153697532933
 20
285.3485326290906983
 30
0.0
  0
VERTEX
  5
15DCC
  8
0
 10
243.1632052887314899
 20
285.4029992237802844
 30
0.0
  0
VERTEX
  5
15DCD
  8
0
 10
243.1126742634587004
 20
285.4566400122445202
 30
0.0
  0
VERTEX
  5
15DCE
  8
0
 10
243.0614485191213987
 20
285.5094237625892788
 30
0.0
  0
VERTEX
  5
15DCF
  8
0
 10
243.0095461841160045
 20
285.5613337023647773
 30
0.0
  0
VERTEX
  5
15DD0
  8
0
 10
242.9569345042048099
 20
285.612436441896989
 30
0.0
  0
VERTEX
  5
15DD1
  8
0
 10
242.9036050333843093
 20
285.6627435384872911
 30
0.0
  0
VERTEX
  5
15DD2
  8
0
 10
242.8495562670335062
 20
285.7122533217212208
 30
0.0
  0
VERTEX
  5
15DD3
  8
0
 10
242.7947867005312048
 20
285.7609641211838039
 30
0.0
  0
VERTEX
  5
15DD4
  8
0
 10
242.7392948292566075
 20
285.8088742664606912
 30
0.0
  0
VERTEX
  5
15DD5
  8
0
 10
242.6830791485882912
 20
285.8559820871373063
 30
0.0
  0
VERTEX
  5
15DD6
  8
0
 10
242.6261381539052877
 20
285.9022859127990159
 30
0.0
  0
VERTEX
  5
15DD7
  8
0
 10
242.5684703405864866
 20
285.9477840730310731
 30
0.0
  0
VERTEX
  5
15DD8
  8
0
 10
242.5100742040108912
 20
285.9924748974190152
 30
0.0
  0
VERTEX
  5
15DD9
  8
0
 10
242.4509482395575048
 20
286.0363567155483793
 30
0.0
  0
VERTEX
  5
15DDA
  8
0
 10
242.3910909426051887
 20
286.0794278570044185
 30
0.0
  0
VERTEX
  5
15DDB
  8
0
 10
242.3305008085328041
 20
286.1216866513721016
 30
0.0
  0
VERTEX
  5
15DDC
  8
0
 10
242.2691779563645014
 20
286.1631302397116201
 30
0.0
  0
VERTEX
  5
15DDD
  8
0
 10
242.2072505761973957
 20
286.2036639423586735
 30
0.0
  0
VERTEX
  5
15DDE
  8
0
 10
242.1448093377991881
 20
286.2432265929563755
 30
0.0
  0
VERTEX
  5
15DDF
  8
0
 10
242.0818671976064138
 20
286.2818150788963862
 30
0.0
  0
VERTEX
  5
15DE0
  8
0
 10
242.0184371120550963
 20
286.3194262875708205
 30
0.0
  0
VERTEX
  5
15DE1
  8
0
 10
241.9545320375814015
 20
286.3560571063711109
 30
0.0
  0
VERTEX
  5
15DE2
  8
0
 10
241.8901649306216939
 20
286.3917044226895996
 30
0.0
  0
VERTEX
  5
15DE3
  8
0
 10
241.8253487476121109
 20
286.4263651239177761
 30
0.0
  0
VERTEX
  5
15DE4
  8
0
 10
241.7600964449887897
 20
286.4600360974476985
 30
0.0
  0
VERTEX
  5
15DE5
  8
0
 10
241.6944209791882088
 20
286.4927142306713108
 30
0.0
  0
VERTEX
  5
15DE6
  8
0
 10
241.6283353066463917
 20
286.5243964109803869
 30
0.0
  0
VERTEX
  5
15DE7
  8
0
 10
241.5618523837993052
 20
286.5550795257668142
 30
0.0
  0
VERTEX
  5
15DE8
  8
0
 10
241.4949851670835983
 20
286.5847604624223095
 30
0.0
  0
VERTEX
  5
15DE9
  8
0
 10
241.4277466129352092
 20
286.613436108338874
 30
0.0
  0
VERTEX
  5
15DEA
  8
0
 10
241.3601097639374018
 20
286.6411163986603015
 30
0.0
  0
VERTEX
  5
15DEB
  8
0
 10
241.2919957217127092
 20
286.6678272999174055
 30
0.0
  0
VERTEX
  5
15DEC
  8
0
 10
241.2234240828526026
 20
286.6935616908912721
 30
0.0
  0
VERTEX
  5
15DED
  8
0
 10
241.1544189953999933
 20
286.71831094315678
 30
0.0
  0
VERTEX
  5
15DEE
  8
0
 10
241.0850046073979911
 20
286.7420664282886946
 30
0.0
  0
VERTEX
  5
15DEF
  8
0
 10
241.0152050668897914
 20
286.7648195178613264
 30
0.0
  0
VERTEX
  5
15DF0
  8
0
 10
240.9450445219187031
 20
286.7865615834493269
 30
0.0
  0
VERTEX
  5
15DF1
  8
0
 10
240.8745471205274953
 20
286.8072839966274046
 30
0.0
  0
VERTEX
  5
15DF2
  8
0
 10
240.8037370107595052
 20
286.8269781289702109
 30
0.0
  0
VERTEX
  5
15DF3
  8
0
 10
240.7326383406577008
 20
286.8456353520523976
 30
0.0
  0
VERTEX
  5
15DF4
  8
0
 10
240.6612752582655901
 20
286.8632470374483887
 30
0.0
  0
VERTEX
  5
15DF5
  8
0
 10
240.5896719116256861
 20
286.8798045567331201
 30
0.0
  0
VERTEX
  5
15DF6
  8
0
 10
240.5178524487816105
 20
286.8952992814810159
 30
0.0
  0
VERTEX
  5
15DF7
  8
0
 10
240.4458458341134985
 20
286.9097232581409003
 30
0.0
  0
VERTEX
  5
15DF8
  8
0
 10
240.3737189284557019
 20
286.9230776234314817
 30
0.0
  0
VERTEX
  5
15DF9
  8
0
 10
240.3014867359804896
 20
286.9353636831548897
 30
0.0
  0
VERTEX
  5
15DFA
  8
0
 10
240.2291493137200007
 20
286.9465814297141151
 30
0.0
  0
VERTEX
  5
15DFB
  8
0
 10
240.1567067187066016
 20
286.9567308555124896
 30
0.0
  0
VERTEX
  5
15DFC
  8
0
 10
240.0841590079722039
 20
286.9658119529532883
 30
0.0
  0
VERTEX
  5
15DFD
  8
0
 10
240.0115062385490035
 20
286.9738247144396723
 30
0.0
  0
VERTEX
  5
15DFE
  8
0
 10
239.9387484674695088
 20
286.9807691323754284
 30
0.0
  0
VERTEX
  5
15DFF
  8
0
 10
239.8658857517654894
 20
286.9866451991630925
 30
0.0
  0
VERTEX
  5
15E00
  8
0
 10
239.7929181484693117
 20
286.9914529072063942
 30
0.0
  0
VERTEX
  5
15E01
  8
0
 10
239.7198457146132
 20
286.9951922489083813
 30
0.0
  0
VERTEX
  5
15E02
  8
0
 10
239.6466685072290943
 20
286.9978632166726129
 30
0.0
  0
VERTEX
  5
15E03
  8
0
 10
239.5733865833495031
 20
286.9994658029020798
 30
0.0
  0
VERTEX
  5
15E04
  8
0
 10
239.5000000000063096
 20
287.0
 30
0.0
  0
SEQEND
  5
15E05
  8
0
  0
POLYLINE
  5
14CB5
  8
0
 66
     1
 10
0.0
 20
0.0
 30
0.0
  0
VERTEX
  5
15E06
  8
0
 10
155.5000000000001137
 20
282.0
 30
0.0
  0
VERTEX
  5
15E07
  8
0
 10
155.5005354561045863
 20
282.0734745536684045
 30
0.0
  0
VERTEX
  5
15E08
  8
0
 10
155.5021403632945862
 20
282.146793559288426
 30
0.0
  0
VERTEX
  5
15E09
  8
0
 10
155.5048125298845036
 20
282.2199572886835881
 30
0.0
  0
VERTEX
  5
15E0A
  8
0
 10
155.5085497641888139
 20
282.2929660136774146
 30
0.0
  0
VERTEX
  5
15E0B
  8
0
 10
155.5133498745223051
 20
282.3658200060929175
 30
0.0
  0
VERTEX
  5
15E0C
  8
0
 10
155.5192106691989977
 20
282.4385195377540185
 30
0.0
  0
VERTEX
  5
15E0D
  8
0
 10
155.5261299565335094
 20
282.5110648804836728
 30
0.0
  0
VERTEX
  5
15E0E
  8
0
 10
155.5341055448402869
 20
282.5834563061055746
 30
0.0
  0
VERTEX
  5
15E0F
  8
0
 10
155.5431352424340048
 20
282.6556940864427929
 30
0.0
  0
VERTEX
  5
15E10
  8
0
 10
155.5532168576291951
 20
282.7277784933190787
 30
0.0
  0
VERTEX
  5
15E11
  8
0
 10
155.5643481987399923
 20
282.7997097985576147
 30
0.0
  0
VERTEX
  5
15E12
  8
0
 10
155.5765270740812127
 20
282.8714882739818108
 30
0.0
  0
VERTEX
  5
15E13
  8
0
 10
155.5897512919671897
 20
282.9431141914150203
 30
0.0
  0
VERTEX
  5
15E14
  8
0
 10
155.6040203908208071
 20
283.0145875725859241
 30
0.0
  0
VERTEX
  5
15E15
  8
0
 10
155.6193416918669072
 20
283.0859073128743262
 30
0.0
  0
VERTEX
  5
15E16
  8
0
 10
155.6357203001558105
 20
283.157072626420927
 30
0.0
  0
VERTEX
  5
15E17
  8
0
 10
155.6531608580733916
 20
283.2280827941766006
 30
0.0
  0
VERTEX
  5
15E18
  8
0
 10
155.6716680080043886
 20
283.2989370970927894
 30
0.0
  0
VERTEX
  5
15E19
  8
0
 10
155.6912463923339942
 20
283.3696348161205947
 30
0.0
  0
VERTEX
  5
15E1A
  8
0
 10
155.7119006534477137
 20
283.4401752322108905
 30
0.0
  0
VERTEX
  5
15E1B
  8
0
 10
155.7336444577256884
 20
283.5105646540669113
 30
0.0
  0
VERTEX
  5
15E1C
  8
0
 10
155.7564737645475077
 20
283.5807641160939738
 30
0.0
  0
VERTEX
  5
15E1D
  8
0
 10
155.7803610653191129
 20
283.6506975707650895
 30
0.0
  0
VERTEX
  5
15E1E
  8
0
 10
155.8052787903685044
 20
283.720288890224424
 30
0.0
  0
VERTEX
  5
15E1F
  8
0
 10
155.8311993700239952
 20
283.7894619466158019
 30
0.0
  0
VERTEX
  5
15E20
  8
0
 10
155.8580952346138986
 20
283.8581406120832753
 30
0.0
  0
VERTEX
  5
15E21
  8
0
 10
155.8859395997754973
 20
283.926252770977726
 30
0.0
  0
VERTEX
  5
15E22
  8
0
 10
155.9147293581991107
 20
283.9938303827096888
 30
0.0
  0
VERTEX
  5
15E23
  8
0
 10
155.944469013737006
 20
284.0609023984350756
 30
0.0
  0
VERTEX
  5
15E24
  8
0
 10
155.9751585892585126
 20
284.1274687941904062
 30
0.0
  0
VERTEX
  5
15E25
  8
0
 10
156.0067981076325907
 20
284.1935295460119733
 30
0.0
  0
VERTEX
  5
15E26
  8
0
 10
156.0393875917287119
 20
284.2590846299368081
 30
0.0
  0
VERTEX
  5
15E27
  8
0
 10
156.0729270644158078
 20
284.3241340220010898
 30
0.0
  0
VERTEX
  5
15E28
  8
0
 10
156.1074165485632079
 20
284.3886776982415086
 30
0.0
  0
VERTEX
  5
15E29
  8
0
 10
156.1428560670399861
 20
284.4527156346945276
 30
0.0
  0
VERTEX
  5
15E2A
  8
0
 10
156.1792456427153866
 20
284.5162478073968941
 30
0.0
  0
VERTEX
  5
15E2B
  8
0
 10
156.2165852984585115
 20
284.5792741923850144
 30
0.0
  0
VERTEX
  5
15E2C
  8
0
 10
156.2548750571386904
 20
284.6417947656952947
 30
0.0
  0
VERTEX
  5
15E2D
  8
0
 10
156.2941149416249971
 20
284.7038095033644822
 30
0.0
  0
VERTEX
  5
15E2E
  8
0
 10
156.3343049747865905
 20
284.7653183814293243
 30
0.0
  0
VERTEX
  5
15E2F
  8
0
 10
156.3754636743346964
 20
284.8263254433197744
 30
0.0
  0
VERTEX
  5
15E30
  8
0
 10
156.417605124182586
 20
284.8868188537965125
 30
0.0
  0
VERTEX
  5
15E31
  8
0
 10
156.4607035449369903
 20
284.9467675452331719
 30
0.0
  0
VERTEX
  5
15E32
  8
0
 10
156.5047327114041877
 20
285.0061402857252233
 30
0.0
  0
VERTEX
  5
15E33
  8
0
 10
156.5496663983905137
 20
285.0649058433677965
 30
0.0
  0
VERTEX
  5
15E34
  8
0
 10
156.5954783807027013
 20
285.123032986256419
 30
0.0
  0
VERTEX
  5
15E35
  8
0
 10
156.6421424331466881
 20
285.1804904824859932
 30
0.0
  0
VERTEX
  5
15E36
  8
0
 10
156.6896323305292924
 20
285.2372471001519898
 30
0.0
  0
VERTEX
  5
15E37
  8
0
 10
156.7379218476565939
 20
285.2932716073495953
 30
0.0
  0
VERTEX
  5
15E38
  8
0
 10
156.786984759335013
 20
285.3485327721739964
 30
0.0
  0
VERTEX
  5
15E39
  8
0
 10
156.8367948403711978
 20
285.4029993627203794
 30
0.0
  0
VERTEX
  5
15E3A
  8
0
 10
156.8873258655711993
 20
285.4566401470844994
 30
0.0
  0
VERTEX
  5
15E3B
  8
0
 10
156.9385516097418076
 20
285.5094238933609745
 30
0.0
  0
VERTEX
  5
15E3C
  8
0
 10
156.9904539444719092
 20
285.5613338290824004
 30
0.0
  0
VERTEX
  5
15E3D
  8
0
 10
157.0430656239450116
 20
285.612436564527286
 30
0.0
  0
VERTEX
  5
15E3E
  8
0
 10
157.0963950941522
 20
285.6627436569933138
 30
0.0
  0
VERTEX
  5
15E3F
  8
0
 10
157.150443859710208
 20
285.7122534360696022
 30
0.0
  0
VERTEX
  5
15E40
  8
0
 10
157.2052134252363089
 20
285.7609642313461791
 30
0.0
  0
VERTEX
  5
15E41
  8
0
 10
157.2607052953472078
 20
285.8088743724122196
 30
0.0
  0
VERTEX
  5
15E42
  8
0
 10
157.3169209746596948
 20
285.8559821888572969
 30
0.0
  0
VERTEX
  5
15E43
  8
0
 10
157.3738619677912141
 20
285.9022860102708137
 30
0.0
  0
VERTEX
  5
15E44
  8
0
 10
157.431529779358101
 20
285.9477841662423998
 30
0.0
  0
VERTEX
  5
15E45
  8
0
 10
157.4899259139777996
 20
285.9924749863614011
 30
0.0
  0
VERTEX
  5
15E46
  8
0
 10
157.5490518762669012
 20
286.0363568002172769
 30
0.0
  0
VERTEX
  5
15E47
  8
0
 10
157.608909170842594
 20
286.0794279373999984
 30
0.0
  0
VERTEX
  5
15E48
  8
0
 10
157.6694993023216966
 20
286.1216867274985134
 30
0.0
  0
VERTEX
  5
15E49
  8
0
 10
157.7308221516811102
 20
286.1631303115792093
 30
0.0
  0
VERTEX
  5
15E4A
  8
0
 10
157.7927495292184972
 20
286.2036640102045908
 30
0.0
  0
VERTEX
  5
15E4B
  8
0
 10
157.8551907653665012
 20
286.2432266571278774
 30
0.0
  0
VERTEX
  5
15E4C
  8
0
 10
157.9181329036215971
 20
286.2818151397008251
 30
0.0
  0
VERTEX
  5
15E4D
  8
0
 10
157.9815629874809986
 20
286.3194263452755877
 30
0.0
  0
VERTEX
  5
15E4E
  8
0
 10
158.0454680604416069
 20
286.3560571612039212
 30
0.0
  0
VERTEX
  5
15E4F
  8
0
 10
158.1098351660006074
 20
286.3917044748375815
 30
0.0
  0
VERTEX
  5
15E50
  8
0
 10
158.1746513476549012
 20
286.4263651735286089
 30
0.0
  0
VERTEX
  5
15E51
  8
0
 10
158.2399036489019011
 20
286.4600361446288161
 30
0.0
  0
VERTEX
  5
15E52
  8
0
 10
158.3055791132379113
 20
286.492714275490016
 30
0.0
  0
VERTEX
  5
15E53
  8
0
 10
158.3716647841604015
 20
286.5243964534641918
 30
0.0
  0
VERTEX
  5
15E54
  8
0
 10
158.4381477051661875
 20
286.555079565903327
 30
0.0
  0
VERTEX
  5
15E55
  8
0
 10
158.5050149197525116
 20
286.5847605001590068
 30
0.0
  0
VERTEX
  5
15E56
  8
0
 10
158.5722534714163032
 20
286.6134361435832716
 30
0.0
  0
VERTEX
  5
15E57
  8
0
 10
158.6398903175453938
 20
286.6411164313308859
 30
0.0
  0
VERTEX
  5
15E58
  8
0
 10
158.7080043566062102
 20
286.6678273300444744
 30
0.0
  0
VERTEX
  5
15E59
  8
0
 10
158.7765759920654034
 20
286.6935617185241085
 30
0.0
  0
VERTEX
  5
15E5A
  8
0
 10
158.8455810759348026
 20
286.7183109683576276
 30
0.0
  0
VERTEX
  5
15E5B
  8
0
 10
158.9149954602262085
 20
286.7420664511327004
 30
0.0
  0
VERTEX
  5
15E5C
  8
0
 10
158.9847949969521039
 20
286.7648195384376777
 30
0.0
  0
VERTEX
  5
15E5D
  8
0
 10
159.0549555381240907
 20
286.7865616018607966
 30
0.0
  0
VERTEX
  5
15E5E
  8
0
 10
159.1254529357541969
 20
286.8072840129897259
 30
0.0
  0
VERTEX
  5
15E5F
  8
0
 10
159.1962630418543938
 20
286.8269781434124184
 30
0.0
  0
VERTEX
  5
15E60
  8
0
 10
159.2673617084367947
 20
286.8456353647168839
 30
0.0
  0
VERTEX
  5
15E61
  8
0
 10
159.3387247875132005
 20
286.8632470484914734
 30
0.0
  0
VERTEX
  5
15E62
  8
0
 10
159.4103281310956959
 20
286.8798045663240259
 30
0.0
  0
VERTEX
  5
15E63
  8
0
 10
159.4821475911961954
 20
286.895299289802324
 30
0.0
  0
VERTEX
  5
15E64
  8
0
 10
159.5541542034549991
 20
286.909723265378318
 30
0.0
  0
VERTEX
  5
15E65
  8
0
 10
159.6262811067151119
 20
286.9230776296723775
 30
0.0
  0
VERTEX
  5
15E66
  8
0
 10
159.6985132967118091
 20
286.9353636884608818
 30
0.0
  0
VERTEX
  5
15E67
  8
0
 10
159.7708507164126104
 20
286.9465814341508008
 30
0.0
  0
VERTEX
  5
15E68
  8
0
 10
159.8432933087848937
 20
286.9567308591477968
 30
0.0
  0
VERTEX
  5
15E69
  8
0
 10
159.9158410167964064
 20
286.9658119558586122
 30
0.0
  0
VERTEX
  5
15E6A
  8
0
 10
159.9884937834144125
 20
286.973824716689478
 30
0.0
  0
VERTEX
  5
15E6B
  8
0
 10
160.0612515516068868
 20
286.9807691340466818
 30
0.0
  0
VERTEX
  5
15E6C
  8
0
 10
160.1341142643408091
 20
286.9866452003366817
 30
0.0
  0
VERTEX
  5
15E6D
  8
0
 10
160.207081864584211
 20
286.9914529079658223
 30
0.0
  0
VERTEX
  5
15E6E
  8
0
 10
160.280154295304186
 20
286.9951922493402776
 30
0.0
  0
VERTEX
  5
15E6F
  8
0
 10
160.3533314994685952
 20
286.9978632168666195
 30
0.0
  0
VERTEX
  5
15E70
  8
0
 10
160.4266134200447027
 20
286.9994658029510788
 30
0.0
  0
VERTEX
  5
15E71
  8
0
 10
160.500000000000199
 20
287.0
 30
0.0
  0
SEQEND
  5
15E72
  8
0
  0
POLYLINE
  5
14CB6
  8
0
 66
     1
 10
0.0
 20
0.0
 30
0.0
  0
VERTEX
  5
15E73
  8
0
 10
155.5000000000001137
 20
282.0
 30
0.0
  0
VERTEX
  5
15E74
  8
0
 10
155.5000000000001137
 20
281.092360408558477
 30
0.0
  0
VERTEX
  5
15E75
  8
0
 10
155.5000000000001137
 20
280.184457803884527
 30
0.0
  0
VERTEX
  5
15E76
  8
0
 10
155.5000000000001137
 20
279.2762831025456762
 30
0.0
  0
VERTEX
  5
15E77
  8
0
 10
155.5000000000001137
 20
278.3678272211095077
 30
0.0
  0
VERTEX
  5
15E78
  8
0
 10
155.5000000000001137
 20
277.4590810761434909
 30
0.0
  0
VERTEX
  5
15E79
  8
0
 10
155.5000000000001137
 20
276.5500355842149816
 30
0.0
  0
VERTEX
  5
15E7A
  8
0
 10
155.5000000000001137
 20
275.6406816618916764
 30
0.0
  0
VERTEX
  5
15E7B
  8
0
 10
155.5000000000001137
 20
274.7310102257411017
 30
0.0
  0
VERTEX
  5
15E7C
  8
0
 10
155.5000000000001137
 20
273.8210121923304996
 30
0.0
  0
VERTEX
  5
15E7D
  8
0
 10
155.5000000000001137
 20
272.9106784782276236
 30
0.0
  0
VERTEX
  5
15E7E
  8
0
 10
155.5000000000001137
 20
272.0
 30
0.0
  0
SEQEND
  5
15E7F
  8
0
  0
POLYLINE
  5
14CB7
  8
0
 66
     1
 10
0.0
 20
0.0
 30
0.0
  0
VERTEX
  5
15E80
  8
0
 10
155.5000000000001137
 20
272.0
 30
0.0
  0
VERTEX
  5
15E81
  8
0
 10
155.4993119837627944
 20
271.9167144134233922
 30
0.0
  0
VERTEX
  5
15E82
  8
0
 10
155.4972500440869112
 20
271.8336297898204066
 30
0.0
  0
VERTEX
  5
15E83
  8
0
 10
155.4938173445270024
 20
271.750745614568018
 30
0.0
  0
VERTEX
  5
15E84
  8
0
 10
155.4890170486372085
 20
271.668061373044111
 30
0.0
  0
VERTEX
  5
15E85
  8
0
 10
155.4828523199720109
 20
271.5855765506254897
 30
0.0
  0
VERTEX
  5
15E86
  8
0
 10
155.4753263220856923
 20
271.5032906326896978
 30
0.0
  0
VERTEX
  5
15E87
  8
0
 10
155.4664422185325918
 20
271.4212031046141078
 30
0.0
  0
VERTEX
  5
15E88
  8
0
 10
155.4562031728669922
 20
271.3393134517759222
 30
0.0
  0
VERTEX
  5
15E89
  8
0
 10
155.4446123486432896
 20
271.2576211595524001
 30
0.0
  0
VERTEX
  5
15E8A
  8
0
 10
155.4316729094157949
 20
271.1761257133210847
 30
0.0
  0
VERTEX
  5
15E8B
  8
0
 10
155.4173880187389045
 20
271.0948265984591217
 30
0.0
  0
VERTEX
  5
15E8C
  8
0
 10
155.4017602748893978
 20
271.0137221415910744
 30
0.0
  0
VERTEX
  5
15E8D
  8
0
 10
155.3847509083387877
 20
270.9327325848914825
 30
0.0
  0
VERTEX
  5
15E8E
  8
0
 10
155.3663443114351992
 20
270.8518467056288728
 30
0.0
  0
VERTEX
  5
15E8F
  8
0
 10
155.3465538809224995
 20
270.7711167986581131
 30
0.0
  0
VERTEX
  5
15E90
  8
0
 10
155.3253930135446126
 20
270.690595158834185
 30
0.0
  0
VERTEX
  5
15E91
  8
0
 10
155.3028751060454056
 20
270.610334081012013
 30
0.0
  0
VERTEX
  5
15E92
  8
0
 10
155.2790135551688024
 20
270.5303858600466924
 30
0.0
  0
VERTEX
  5
15E93
  8
0
 10
155.2538217576588124
 20
270.4508027907929772
 30
0.0
  0
VERTEX
  5
15E94
  8
0
 10
155.22731311025899
 20
270.3716371681060195
 30
0.0
  0
VERTEX
  5
15E95
  8
0
 10
155.199501009713714
 20
270.2929412868404029
 30
0.0
  0
VERTEX
  5
15E96
  8
0
 10
155.1703988527663967
 20
270.2147674418516203
 30
0.0
  0
VERTEX
  5
15E97
  8
0
 10
155.1400200361611894
 20
270.1371679279943123
 30
0.0
  0
VERTEX
  5
15E98
  8
0
 10
155.1083791608456863
 20
270.0601944642592116
 30
0.0
  0
VERTEX
  5
15E99
  8
0
 10
155.075512629470893
 20
269.983873056871289
 30
0.0
  0
VERTEX
  5
15E9A
  8
0
 10
155.0414325433378906
 20
269.908203421635676
 30
0.0
  0
VERTEX
  5
15E9B
  8
0
 10
155.0061389107484047
 20
269.833185554072486
 30
0.0
  0
VERTEX
  5
15E9C
  8
0
 10
154.969631740003507
 20
269.7588194497020027
 30
0.0
  0
VERTEX
  5
15E9D
  8
0
 10
154.9319110394048096
 20
269.6851051040438847
 30
0.0
  0
VERTEX
  5
15E9E
  8
0
 10
154.8929768172538104
 20
269.6120425126187001
 30
0.0
  0
VERTEX
  5
15E9F
  8
0
 10
154.8528290818520077
 20
269.5396316709462781
 30
0.0
  0
VERTEX
  5
15EA0
  8
0
 10
154.8114678415010133
 20
269.467872574546675
 30
0.0
  0
VERTEX
  5
15EA1
  8
0
 10
154.7688931045020979
 20
269.3967652189400042
 30
0.0
  0
VERTEX
  5
15EA2
  8
0
 10
154.7251048791569872
 20
269.3263095996464926
 30
0.0
  0
VERTEX
  5
15EA3
  8
0
 10
154.6801031737668097
 20
269.2565057121860264
 30
0.0
  0
VERTEX
  5
15EA4
  8
0
 10
154.633885731476596
 20
269.1873553881429757
 30
0.0
  0
VERTEX
  5
15EA5
  8
0
 10
154.5864403265134115
 20
269.1188905279452115
 30
0.0
  0
VERTEX
  5
15EA6
  8
0
 10
154.5377945701131921
 20
269.051153991232411
 30
0.0
  0
VERTEX
  5
15EA7
  8
0
 10
154.4879847259931012
 20
268.9841861672671826
 30
0.0
  0
VERTEX
  5
15EA8
  8
0
 10
154.4370470578703021
 20
268.9180274453123047
 30
0.0
  0
VERTEX
  5
15EA9
  8
0
 10
154.3850178294619866
 20
268.8527182146299879
 30
0.0
  0
VERTEX
  5
15EAA
  8
0
 10
154.3319333044854034
 20
268.7882988644827833
 30
0.0
  0
VERTEX
  5
15EAB
  8
0
 10
154.277829746657801
 20
268.7248097841332992
 30
0.0
  0
VERTEX
  5
15EAC
  8
0
 10
154.2227434196960871
 20
268.6622913628438027
 30
0.0
  0
VERTEX
  5
15EAD
  8
0
 10
154.1667105873179935
 20
268.6007839898771863
 30
0.0
  0
VERTEX
  5
15EAE
  8
0
 10
154.1097675132400013
 20
268.5403280544954896
 30
0.0
  0
VERTEX
  5
15EAF
  8
0
 10
154.051950461180013
 20
268.4809639459614914
 30
0.0
  0
VERTEX
  5
15EB0
  8
0
 10
153.9932836651464072
 20
268.4227128828219975
 30
0.0
  0
VERTEX
  5
15EB1
  8
0
 10
153.9337172875447095
 20
268.365486317651289
 30
0.0
  0
VERTEX
  5
15EB2
  8
0
 10
153.8732399812232075
 20
268.3092699151046077
 30
0.0
  0
VERTEX
  5
15EB3
  8
0
 10
153.8118508817321128
 20
268.2540669647311233
 30
0.0
  0
VERTEX
  5
15EB4
  8
0
 10
153.7495491246210122
 20
268.1998807560802902
 30
0.0
  0
VERTEX
  5
15EB5
  8
0
 10
153.6863338454400036
 20
268.1467145787015056
 30
0.0
  0
VERTEX
  5
15EB6
  8
0
 10
153.6222041797392137
 20
268.09457172214411
 30
0.0
  0
VERTEX
  5
15EB7
  8
0
 10
153.5571592630680868
 20
268.0434554759575008
 30
0.0
  0
VERTEX
  5
15EB8
  8
0
 10
153.4911982309768916
 20
267.9933691296909046
 30
0.0
  0
VERTEX
  5
15EB9
  8
0
 10
153.4243202190154136
 20
267.9443159728940032
 30
0.0
  0
VERTEX
  5
15EBA
  8
0
 10
153.356524362733694
 20
267.8962992951157958
 30
0.0
  0
VERTEX
  5
15EBB
  8
0
 10
153.2878097976812057
 20
267.8493223859059071
 30
0.0
  0
VERTEX
  5
15EBC
  8
0
 10
153.2182500992522023
 20
267.8034370324876932
 30
0.0
  0
VERTEX
  5
15EBD
  8
0
 10
153.148125693061786
 20
267.7588248661293733
 30
0.0
  0
VERTEX
  5
15EBE
  8
0
 10
153.0774656111987042
 20
267.7154977386455244
 30
0.0
  0
VERTEX
  5
15EBF
  8
0
 10
153.0062721617645991
 20
267.6734498291618252
 30
0.0
  0
VERTEX
  5
15EC0
  8
0
 10
152.9345476528606014
 20
267.632675316804125
 30
0.0
  0
VERTEX
  5
15EC1
  8
0
 10
152.8622943925886091
 20
267.5931683806982733
 30
0.0
  0
VERTEX
  5
15EC2
  8
0
 10
152.7895146890498097
 20
267.5549231999704034
 30
0.0
  0
VERTEX
  5
15EC3
  8
0
 10
152.7162108503459024
 20
267.5179339537464216
 30
0.0
  0
VERTEX
  5
15EC4
  8
0
 10
152.6423851845781883
 20
267.4821948211520066
 30
0.0
  0
VERTEX
  5
15EC5
  8
0
 10
152.5680399998483949
 20
267.447699981313292
 30
0.0
  0
VERTEX
  5
15EC6
  8
0
 10
152.4931776042579088
 20
267.4144436133561271
 30
0.0
  0
VERTEX
  5
15EC7
  8
0
 10
152.4178003059082016
 20
267.382419896406418
 30
0.0
  0
VERTEX
  5
15EC8
  8
0
 10
152.3418755827470932
 20
267.351619438661487
 30
0.0
  0
VERTEX
  5
15EC9
  8
0
 10
152.2653409397896098
 20
267.3220373575355211
 30
0.0
  0
VERTEX
  5
15ECA
  8
0
 10
152.1882342445599932
 20
267.2936861779631954
 30
0.0
  0
VERTEX
  5
15ECB
  8
0
 10
152.1105976496455128
 20
267.2665790189403197
 30
0.0
  0
VERTEX
  5
15ECC
  8
0
 10
152.0324733076342056
 20
267.2407289994616235
 30
0.0
  0
VERTEX
  5
15ECD
  8
0
 10
151.9539033711135119
 20
267.2161492385221777
 30
0.0
  0
VERTEX
  5
15ECE
  8
0
 10
151.8749299926710137
 20
267.192852855117394
 30
0.0
  0
VERTEX
  5
15ECF
  8
0
 10
151.7955953248946912
 20
267.1708529682422864
 30
0.0
  0
VERTEX
  5
15ED0
  8
0
 10
151.7159415203722119
 20
267.1501626968919254
 30
0.0
  0
VERTEX
  5
15ED1
  8
0
 10
151.6360107316911012
 20
267.1307951600616093
 30
0.0
  0
VERTEX
  5
15ED2
  8
0
 10
151.5558451114391119
 20
267.1127634767465224
 30
0.0
  0
VERTEX
  5
15ED3
  8
0
 10
151.4754868122037976
 20
267.0960807659416787
 30
0.0
  0
VERTEX
  5
15ED4
  8
0
 10
151.3949749613680069
 20
267.080745817278796
 30
0.0
  0
VERTEX
  5
15ED5
  8
0
 10
151.3143220906779902
 20
267.066741587051979
 30
0.0
  0
VERTEX
  5
15ED6
  8
0
 10
151.2335280670056079
 20
267.054068385903804
 30
0.0
  0
VERTEX
  5
15ED7
  8
0
 10
151.1525927087159005
 20
267.04272678423348
 30
0.0
  0
VERTEX
  5
15ED8
  8
0
 10
151.0715158341741073
 20
267.0327173524404998
 30
0.0
  0
VERTEX
  5
15ED9
  8
0
 10
150.9902972617454111
 20
267.0240406609240154
 30
0.0
  0
VERTEX
  5
15EDA
  8
0
 10
150.908936809795108
 20
267.0166972800835765
 30
0.0
  0
VERTEX
  5
15EDB
  8
0
 10
150.8274342966882955
 20
267.0106877803186194
 30
0.0
  0
VERTEX
  5
15EDC
  8
0
 10
150.7457895407902129
 20
267.0060127320282959
 30
0.0
  0
VERTEX
  5
15EDD
  8
0
 10
150.6640023604659007
 20
267.0026727056122127
 30
0.0
  0
VERTEX
  5
15EDE
  8
0
 10
150.5820725740809962
 20
267.0006682714695785
 30
0.0
  0
VERTEX
  5
15EDF
  8
0
 10
150.500000000000199
 20
267.0000000000001137
 30
0.0
  0
SEQEND
  5
15EE0
  8
0
  0
POLYLINE
  5
14CB8
  8
0
 66
     1
 10
0.0
 20
0.0
 30
0.0
  0
VERTEX
  5
15EE1
  8
0
 10
150.5000000000001137
 20
267.0000000000001137
 30
0.0
  0
VERTEX
  5
15EE2
  8
0
 10
149.8633793866567032
 20
267.0000000000001137
 30
0.0
  0
VERTEX
  5
15EE3
  8
0
 10
149.2268147400565965
 20
267.0
 30
0.0
  0
VERTEX
  5
15EE4
  8
0
 10
148.5903045402012026
 20
267.0
 30
0.0
  0
VERTEX
  5
15EE5
  8
0
 10
147.9538472670926126
 20
267.0
 30
0.0
  0
VERTEX
  5
15EE6
  8
0
 10
147.3174414007320934
 20
267.0
 30
0.0
  0
VERTEX
  5
15EE7
  8
0
 10
146.6810854211217077
 20
266.9999999999998863
 30
0.0
  0
VERTEX
  5
15EE8
  8
0
 10
146.0447778082626087
 20
266.9999999999998863
 30
0.0
  0
VERTEX
  5
15EE9
  8
0
 10
145.4085170421566033
 20
266.9999999999997726
 30
0.0
  0
VERTEX
  5
15EEA
  8
0
 10
144.7723016028054985
 20
266.9999999999997726
 30
0.0
  0
VERTEX
  5
15EEB
  8
0
 10
144.1361299702109022
 20
266.9999999999997726
 30
0.0
  0
VERTEX
  5
15EEC
  8
0
 10
143.5000006243743087
 20
266.9999999999997726
 30
0.0
  0
SEQEND
  5
15EED
  8
0
  0
POLYLINE
  5
14CB9
  8
0
 66
     1
 10
0.0
 20
0.0
 30
0.0
  0
VERTEX
  5
15EEE
  8
0
 10
143.5000006243743087
 20
266.9999999999997726
 30
0.0
  0
VERTEX
  5
15EEF
  8
0
 10
143.4233692040201902
 20
266.9994205963479885
 30
0.0
  0
VERTEX
  5
15EF0
  8
0
 10
143.3469100741579894
 20
266.9976832344041213
 30
0.0
  0
VERTEX
  5
15EF1
  8
0
 10
143.2706231182972942
 20
266.9947892164257155
 30
0.0
  0
VERTEX
  5
15EF2
  8
0
 10
143.1945082199474086
 20
266.9907398446703723
 30
0.0
  0
VERTEX
  5
15EF3
  8
0
 10
143.1185652626180911
 20
266.9855364213955795
 30
0.0
  0
VERTEX
  5
15EF4
  8
0
 10
143.0427941298187022
 20
266.9791802488592225
 30
0.0
  0
VERTEX
  5
15EF5
  8
0
 10
142.9671947050588017
 20
266.9716726293186184
 30
0.0
  0
VERTEX
  5
15EF6
  8
0
 10
142.8917668718478069
 20
266.9630148650313117
 30
0.0
  0
VERTEX
  5
15EF7
  8
0
 10
142.8165105136953059
 20
266.9532082582550743
 30
0.0
  0
VERTEX
  5
15EF8
  8
0
 10
142.7414255141108015
 20
266.9422541112473937
 30
0.0
  0
VERTEX
  5
15EF9
  8
0
 10
142.6665117566037111
 20
266.9301537262658144
 30
0.0
  0
VERTEX
  5
15EFA
  8
0
 10
142.591769124683708
 20
266.9169084055679946
 30
0.0
  0
VERTEX
  5
15EFB
  8
0
 10
142.5171975018602097
 20
266.9025194514114787
 30
0.0
  0
VERTEX
  5
15EFC
  8
0
 10
142.4427967716428043
 20
266.8869881660539249
 30
0.0
  0
VERTEX
  5
15EFD
  8
0
 10
142.3685668175409091
 20
266.8703158517527072
 30
0.0
  0
VERTEX
  5
15EFE
  8
0
 10
142.2945075230639986
 20
266.852503810765711
 30
0.0
  0
VERTEX
  5
15EFF
  8
0
 10
142.2205896402647909
 20
266.8335365761877824
 30
0.0
  0
VERTEX
  5
15F00
  8
0
 10
142.1467698300330937
 20
266.81338057738418
 30
0.0
  0
VERTEX
  5
15F01
  8
0
 10
142.0730990007380115
 20
266.7920471155636051
 30
0.0
  0
VERTEX
  5
15F02
  8
0
 10
141.9996318687524877
 20
266.7695494800403253
 30
0.0
  0
VERTEX
  5
15F03
  8
0
 10
141.926423150450006
 20
266.7459009601286084
 30
0.0
  0
VERTEX
  5
15F04
  8
0
 10
141.8535275622039933
 20
266.7211148451427789
 30
0.0
  0
VERTEX
  5
15F05
  8
0
 10
141.7809998203873079
 20
266.6952044243969908
 30
0.0
  0
VERTEX
  5
15F06
  8
0
 10
141.7088946413736039
 20
266.6681829872056255
 30
0.0
  0
VERTEX
  5
15F07
  8
0
 10
141.6372757089139895
 20
266.6400717495504864
 30
0.0
  0
VERTEX
  5
15F08
  8
0
 10
141.5662068166276129
 20
266.6109090777159736
 30
0.0
  0
VERTEX
  5
15F09
  8
0
 10
141.4956912343776878
 20
266.5807006250446989
 30
0.0
  0
VERTEX
  5
15F0A
  8
0
 10
141.4257276915770944
 20
266.5494489395287019
 30
0.0
  0
VERTEX
  5
15F0B
  8
0
 10
141.3563149176385139
 20
266.5171565691607043
 30
0.0
  0
VERTEX
  5
15F0C
  8
0
 10
141.2874516419745987
 20
266.4838260619329162
 30
0.0
  0
VERTEX
  5
15F0D
  8
0
 10
141.2191365939980017
 20
266.4494599658377183
 30
0.0
  0
VERTEX
  5
15F0E
  8
0
 10
141.1513685031216028
 20
266.4140608288674912
 30
0.0
  0
VERTEX
  5
15F0F
  8
0
 10
141.0841461644934043
 20
266.3776310748011156
 30
0.0
  0
VERTEX
  5
15F10
  8
0
 10
141.0174698851780875
 20
266.3401702705029948
 30
0.0
  0
VERTEX
  5
15F11
  8
0
 10
140.9513414841559893
 20
266.3016751259240777
 30
0.0
  0
VERTEX
  5
15F12
  8
0
 10
140.8857628461433933
 20
266.2621422268011884
 30
0.0
  0
VERTEX
  5
15F13
  8
0
 10
140.8207358558562134
 20
266.2215681588714915
 30
0.0
  0
VERTEX
  5
15F14
  8
0
 10
140.7562623980105059
 20
266.179949507871811
 30
0.0
  0
VERTEX
  5
15F15
  8
0
 10
140.6923443573224972
 20
266.1372828595394253
 30
0.0
  0
VERTEX
  5
15F16
  8
0
 10
140.6289836185081015
 20
266.0935647996112152
 30
0.0
  0
VERTEX
  5
15F17
  8
0
 10
140.5661780003729007
 20
266.048786886815094
 30
0.0
  0
VERTEX
  5
15F18
  8
0
 10
140.5039048139587976
 20
266.0029087822704241
 30
0.0
  0
VERTEX
  5
15F19
  8
0
 10
140.4422077358013894
 20
265.9559593318546717
 30
0.0
  0
VERTEX
  5
15F1A
  8
0
 10
140.3811454334297082
 20
265.9079845643037743
 30
0.0
  0
VERTEX
  5
15F1B
  8
0
 10
140.3207765743732125
 20
265.8590305083538965
 30
0.0
  0
VERTEX
  5
15F1C
  8
0
 10
140.2611598261605934
 20
265.8091431927409189
 30
0.0
  0
VERTEX
  5
15F1D
  8
0
 10
140.2023538563213947
 20
265.7583686462008927
 30
0.0
  0
VERTEX
  5
15F1E
  8
0
 10
140.1444173323845916
 20
265.7067528974699826
 30
0.0
  0
VERTEX
  5
15F1F
  8
0
 10
140.0874054861909883
 20
265.6543404971729956
 30
0.0
  0
VERTEX
  5
15F20
  8
0
 10
140.0312866650666024
 20
265.6011324758604815
 30
0.0
  0
VERTEX
  5
15F21
  8
0
 10
139.9760373373297
 20
265.5471181297680232
 30
0.0
  0
VERTEX
  5
15F22
  8
0
 10
139.9216595878704084
 20
265.492295565423774
 30
0.0
  0
VERTEX
  5
15F23
  8
0
 10
139.8681555015787126
 20
265.4366628893562279
 30
0.0
  0
VERTEX
  5
15F24
  8
0
 10
139.8155271633447967
 20
265.380218208093595
 30
0.0
  0
VERTEX
  5
15F25
  8
0
 10
139.7637766580585037
 20
265.3229596281643126
 30
0.0
  0
VERTEX
  5
15F26
  8
0
 10
139.7129060706101882
 20
265.2648852560967043
 30
0.0
  0
VERTEX
  5
15F27
  8
0
 10
139.6629174858896931
 20
265.2059931984189802
 30
0.0
  0
VERTEX
  5
15F28
  8
0
 10
139.6138129887870036
 20
265.1462815616596913
 30
0.0
  0
VERTEX
  5
15F29
  8
0
 10
139.565594664192389
 20
265.0857484523472181
 30
0.0
  0
VERTEX
  5
15F2A
  8
0
 10
139.518264596995806
 20
265.0243919770094863
 30
0.0
  0
VERTEX
  5
15F2B
  8
0
 10
139.4718248720872111
 20
264.9622102421751038
 30
0.0
  0
VERTEX
  5
15F2C
  8
0
 10
139.4262775743567886
 20
264.8992013543726785
 30
0.0
  0
VERTEX
  5
15F2D
  8
0
 10
139.3816247886946087
 20
264.8353634201300792
 30
0.0
  0
VERTEX
  5
15F2E
  8
0
 10
139.337868599990486
 20
264.7706945459760277
 30
0.0
  0
VERTEX
  5
15F2F
  8
0
 10
139.2950110931348036
 20
264.7051928384386201
 30
0.0
  0
SEQEND
  5
15F30
  8
0
  0
POLYLINE
  5
14CBA
  8
0
 66
     1
 10
0.0
 20
0.0
 30
0.0
  0
VERTEX
  5
15F31
  8
0
 10
138.5004137920294056
 20
262.0643253377057249
 30
0.0
  0
VERTEX
  5
15F32
  8
0
 10
138.500400961325397
 20
262.0633202372167716
 30
0.0
  0
VERTEX
  5
15F33
  8
0
 10
138.5003883327140954
 20
262.062315135962308
 30
0.0
  0
VERTEX
  5
15F34
  8
0
 10
138.5003759061943072
 20
262.0613100340054871
 30
0.0
  0
VERTEX
  5
15F35
  8
0
 10
138.5003636817648953
 20
262.060304931409803
 30
0.0
  0
VERTEX
  5
15F36
  8
0
 10
138.5003516594250073
 20
262.059299828238295
 30
0.0
  0
VERTEX
  5
15F37
  8
0
 10
138.5003398391733072
 20
262.0582947245544005
 30
0.0
  0
VERTEX
  5
15F38
  8
0
 10
138.5003282210086013
 20
262.0572896204213862
 30
0.0
  0
VERTEX
  5
15F39
  8
0
 10
138.5003168049302076
 20
262.0562845159025187
 30
0.0
  0
VERTEX
  5
15F3A
  8
0
 10
138.5003055909367049
 20
262.0552794110611785
 30
0.0
  0
VERTEX
  5
15F3B
  8
0
 10
138.5002945790270132
 20
262.0542743059605755
 30
0.0
  0
VERTEX
  5
15F3C
  8
0
 10
138.5002837692001094
 20
262.0532692006639763
 30
0.0
  0
VERTEX
  5
15F3D
  8
0
 10
138.5002731614547997
 20
262.0522640952347047
 30
0.0
  0
VERTEX
  5
15F3E
  8
0
 10
138.5002627557902031
 20
262.0512589897360272
 30
0.0
  0
VERTEX
  5
15F3F
  8
0
 10
138.5002525522050121
 20
262.0502538842313811
 30
0.0
  0
VERTEX
  5
15F40
  8
0
 10
138.5002425506982036
 20
262.0492487787839195
 30
0.0
  0
VERTEX
  5
15F41
  8
0
 10
138.5002327512686122
 20
262.0482436734569092
 30
0.0
  0
VERTEX
  5
15F42
  8
0
 10
138.5002231539153001
 20
262.0472385683137873
 30
0.0
  0
VERTEX
  5
15F43
  8
0
 10
138.500213758637102
 20
262.0462334634175932
 30
0.0
  0
VERTEX
  5
15F44
  8
0
 10
138.5002045654327105
 20
262.0452283588318778
 30
0.0
  0
VERTEX
  5
15F45
  8
0
 10
138.5001955743011877
 20
262.0442232546199079
 30
0.0
  0
VERTEX
  5
15F46
  8
0
 10
138.5001867852415955
 20
262.0432181508447798
 30
0.0
  0
VERTEX
  5
15F47
  8
0
 10
138.500178198252712
 20
262.0422130475698737
 30
0.0
  0
VERTEX
  5
15F48
  8
0
 10
138.5001698133332866
 20
262.0412079448587974
 30
0.0
  0
VERTEX
  5
15F49
  8
0
 10
138.5001616304824097
 20
262.0402028427743062
 30
0.0
  0
VERTEX
  5
15F4A
  8
0
 10
138.5001536496988024
 20
262.0391977413800078
 30
0.0
  0
VERTEX
  5
15F4B
  8
0
 10
138.500145870981811
 20
262.0381926407392257
 30
0.0
  0
VERTEX
  5
15F4C
  8
0
 10
138.5001382943297017
 20
262.0371875409149993
 30
0.0
  0
VERTEX
  5
15F4D
  8
0
 10
138.5001309197417925
 20
262.0361824419708228
 30
0.0
  0
VERTEX
  5
15F4E
  8
0
 10
138.5001237472170033
 20
262.0351773439700196
 30
0.0
  0
VERTEX
  5
15F4F
  8
0
 10
138.5001167767539982
 20
262.0341722469757997
 30
0.0
  0
VERTEX
  5
15F50
  8
0
 10
138.5001100083516974
 20
262.0331671510513729
 30
0.0
  0
VERTEX
  5
15F51
  8
0
 10
138.5001034420091912
 20
262.0321620562602902
 30
0.0
  0
VERTEX
  5
15F52
  8
0
 10
138.5000970777253997
 20
262.0311569626654773
 30
0.0
  0
VERTEX
  5
15F53
  8
0
 10
138.5000909154989017
 20
262.0301518703305987
 30
0.0
  0
VERTEX
  5
15F54
  8
0
 10
138.5000849553289868
 20
262.0291467793186939
 30
0.0
  0
VERTEX
  5
15F55
  8
0
 10
138.5000791972142054
 20
262.0281416896930864
 30
0.0
  0
VERTEX
  5
15F56
  8
0
 10
138.5000736411539037
 20
262.0271366015173271
 30
0.0
  0
VERTEX
  5
15F57
  8
0
 10
138.5000682871464051
 20
262.0261315148542849
 30
0.0
  0
VERTEX
  5
15F58
  8
0
 10
138.5000631351911977
 20
262.0251264297675107
 30
0.0
  0
VERTEX
  5
15F59
  8
0
 10
138.5000581852866901
 20
262.024121346320328
 30
0.0
  0
VERTEX
  5
15F5A
  8
0
 10
138.5000534374320864
 20
262.0231162645757763
 30
0.0
  0
VERTEX
  5
15F5B
  8
0
 10
138.5000488916263066
 20
262.0221111845975202
 30
0.0
  0
VERTEX
  5
15F5C
  8
0
 10
138.5000445478679865
 20
262.0211061064485989
 30
0.0
  0
VERTEX
  5
15F5D
  8
0
 10
138.5000404061563017
 20
262.0201010301922793
 30
0.0
  0
VERTEX
  5
15F5E
  8
0
 10
138.5000364664900019
 20
262.0190959558919985
 30
0.0
  0
VERTEX
  5
15F5F
  8
0
 10
138.5000327288680069
 20
262.018090883610796
 30
0.0
  0
VERTEX
  5
15F60
  8
0
 10
138.5000291932892083
 20
262.0170858134123932
 30
0.0
  0
VERTEX
  5
15F61
  8
0
 10
138.5000258597526113
 20
262.0160807453598864
 30
0.0
  0
VERTEX
  5
15F62
  8
0
 10
138.5000227282569938
 20
262.0150756795164284
 30
0.0
  0
VERTEX
  5
15F63
  8
0
 10
138.5000197988013895
 20
262.0140706159451724
 30
0.0
  0
VERTEX
  5
15F64
  8
0
 10
138.5000170713846046
 20
262.0130655547100105
 30
0.0
  0
VERTEX
  5
15F65
  8
0
 10
138.5000145460053886
 20
262.0120604958735839
 30
0.0
  0
VERTEX
  5
15F66
  8
0
 10
138.5000122226630026
 20
262.011055439499728
 30
0.0
  0
VERTEX
  5
15F67
  8
0
 10
138.5000101013561107
 20
262.0100503856511978
 30
0.0
  0
VERTEX
  5
15F68
  8
0
 10
138.5000081820836044
 20
262.0090453343918284
 30
0.0
  0
VERTEX
  5
15F69
  8
0
 10
138.5000064648444891
 20
262.0080402857843751
 30
0.0
  0
VERTEX
  5
15F6A
  8
0
 10
138.5000049496375993
 20
262.007035239892673
 30
0.0
  0
VERTEX
  5
15F6B
  8
0
 10
138.500003636461912
 20
262.0060301967794771
 30
0.0
  0
VERTEX
  5
15F6C
  8
0
 10
138.500002525316205
 20
262.0050251565086228
 30
0.0
  0
VERTEX
  5
15F6D
  8
0
 10
138.500001616199512
 20
262.0040201191429787
 30
0.0
  0
VERTEX
  5
15F6E
  8
0
 10
138.5000009091106108
 20
262.0030150847459822
 30
0.0
  0
VERTEX
  5
15F6F
  8
0
 10
138.5000004040485067
 20
262.0020100533810137
 30
0.0
  0
VERTEX
  5
15F70
  8
0
 10
138.5000001010120059
 20
262.0010050251111124
 30
0.0
  0
VERTEX
  5
15F71
  8
0
 10
138.5000000000001137
 20
261.9999999999997726
 30
0.0
  0
SEQEND
  5
15F72
  8
0
  0
POLYLINE
  5
14CBB
  8
0
 66
     1
 10
0.0
 20
0.0
 30
0.0
  0
VERTEX
  5
15F73
  8
0
 10
138.5
 20
227.999999999999801
 30
0.0
  0
VERTEX
  5
15F74
  8
0
 10
138.5000001010118069
 20
227.9989949748884044
 30
0.0
  0
VERTEX
  5
15F75
  8
0
 10
138.5000004040483077
 20
227.9979899466187021
 30
0.0
  0
VERTEX
  5
15F76
  8
0
 10
138.5000009091104118
 20
227.9969849152535915
 30
0.0
  0
VERTEX
  5
15F77
  8
0
 10
138.500001616199313
 20
227.9959798808565949
 30
0.0
  0
VERTEX
  5
15F78
  8
0
 10
138.500002525316205
 20
227.9949748434908088
 30
0.0
  0
VERTEX
  5
15F79
  8
0
 10
138.5000036364617131
 20
227.9939698032198976
 30
0.0
  0
VERTEX
  5
15F7A
  8
0
 10
138.5000049496375141
 20
227.9929647601069007
 30
0.0
  0
VERTEX
  5
15F7B
  8
0
 10
138.5000064648444038
 20
227.9919597142149996
 30
0.0
  0
VERTEX
  5
15F7C
  8
0
 10
138.5000081820834907
 20
227.9909546656076884
 30
0.0
  0
VERTEX
  5
15F7D
  8
0
 10
138.500010101355997
 20
227.9899496143482054
 30
0.0
  0
VERTEX
  5
15F7E
  8
0
 10
138.5000122226628889
 20
227.9889445604997888
 30
0.0
  0
VERTEX
  5
15F7F
  8
0
 10
138.5000145460053034
 20
227.9879395041257055
 30
0.0
  0
VERTEX
  5
15F80
  8
0
 10
138.5000170713844057
 20
227.9869344452895064
 30
0.0
  0
VERTEX
  5
15F81
  8
0
 10
138.5000197988013042
 20
227.9859293840542023
 30
0.0
  0
VERTEX
  5
15F82
  8
0
 10
138.5000227282569085
 20
227.9849243204830032
 30
0.0
  0
VERTEX
  5
15F83
  8
0
 10
138.5000258597524123
 20
227.9839192546396021
 30
0.0
  0
VERTEX
  5
15F84
  8
0
 10
138.5000291932890946
 20
227.9829141865868962
 30
0.0
  0
VERTEX
  5
15F85
  8
0
 10
138.5000327288678079
 20
227.9819091163884934
 30
0.0
  0
VERTEX
  5
15F86
  8
0
 10
138.5000364664900019
 20
227.9809040441074046
 30
0.0
  0
VERTEX
  5
15F87
  8
0
 10
138.5000404061561881
 20
227.9798989698072091
 30
0.0
  0
VERTEX
  5
15F88
  8
0
 10
138.5000445478679865
 20
227.9788938935508895
 30
0.0
  0
VERTEX
  5
15F89
  8
0
 10
138.5000488916261929
 20
227.9778888154019114
 30
0.0
  0
VERTEX
  5
15F8A
  8
0
 10
138.5000534374320864
 20
227.9768837354235131
 30
0.0
  0
VERTEX
  5
15F8B
  8
0
 10
138.5000581852866901
 20
227.9758786536791035
 30
0.0
  0
VERTEX
  5
15F8C
  8
0
 10
138.5000631351911125
 20
227.9748735702318072
 30
0.0
  0
VERTEX
  5
15F8D
  8
0
 10
138.5000682871464051
 20
227.9738684851450898
 30
0.0
  0
VERTEX
  5
15F8E
  8
0
 10
138.5000736411539037
 20
227.9728633984821045
 30
0.0
  0
VERTEX
  5
15F8F
  8
0
 10
138.5000791972142054
 20
227.9718583103062031
 30
0.0
  0
VERTEX
  5
15F90
  8
0
 10
138.5000849553289868
 20
227.9708532206805955
 30
0.0
  0
VERTEX
  5
15F91
  8
0
 10
138.5000909154989017
 20
227.9698481296686907
 30
0.0
  0
VERTEX
  5
15F92
  8
0
 10
138.5000970777253997
 20
227.9688430373336985
 30
0.0
  0
VERTEX
  5
15F93
  8
0
 10
138.5001034420091912
 20
227.9678379437389992
 30
0.0
  0
VERTEX
  5
15F94
  8
0
 10
138.5001100083518111
 20
227.9668328489478881
 30
0.0
  0
VERTEX
  5
15F95
  8
0
 10
138.5001167767539982
 20
227.9658277530234898
 30
0.0
  0
VERTEX
  5
15F96
  8
0
 10
138.5001237472170033
 20
227.964822656029213
 30
0.0
  0
VERTEX
  5
15F97
  8
0
 10
138.5001309197417925
 20
227.9638175580284098
 30
0.0
  0
VERTEX
  5
15F98
  8
0
 10
138.5001382943299006
 20
227.9628124590842901
 30
0.0
  0
VERTEX
  5
15F99
  8
0
 10
138.500145870981811
 20
227.9618073592600922
 30
0.0
  0
VERTEX
  5
15F9A
  8
0
 10
138.5001536496988024
 20
227.9608022586191964
 30
0.0
  0
VERTEX
  5
15F9B
  8
0
 10
138.5001616304824097
 20
227.959797157224898
 30
0.0
  0
VERTEX
  5
15F9C
  8
0
 10
138.5001698133334003
 20
227.958792055140492
 30
0.0
  0
VERTEX
  5
15F9D
  8
0
 10
138.5001781982527973
 20
227.9577869524291884
 30
0.0
  0
VERTEX
  5
15F9E
  8
0
 10
138.5001867852415955
 20
227.956781849154396
 30
0.0
  0
VERTEX
  5
15F9F
  8
0
 10
138.5001955743013866
 20
227.9557767453792962
 30
0.0
  0
VERTEX
  5
15FA0
  8
0
 10
138.5002045654327958
 20
227.954771641167298
 30
0.0
  0
VERTEX
  5
15FA1
  8
0
 10
138.500213758637102
 20
227.9537665365814973
 30
0.0
  0
VERTEX
  5
15FA2
  8
0
 10
138.5002231539154138
 20
227.9527614316853885
 30
0.0
  0
VERTEX
  5
15FA3
  8
0
 10
138.5002327512686975
 20
227.9517563265422098
 30
0.0
  0
VERTEX
  5
15FA4
  8
0
 10
138.5002425506982036
 20
227.9507512212153131
 30
0.0
  0
VERTEX
  5
15FA5
  8
0
 10
138.5002525522050121
 20
227.9497461157677947
 30
0.0
  0
VERTEX
  5
15FA6
  8
0
 10
138.5002627557902883
 20
227.9487410102630918
 30
0.0
  0
VERTEX
  5
15FA7
  8
0
 10
138.5002731614549134
 20
227.9477359047643859
 30
0.0
  0
VERTEX
  5
15FA8
  8
0
 10
138.5002837692001094
 20
227.9467307993351994
 30
0.0
  0
VERTEX
  5
15FA9
  8
0
 10
138.5002945790270985
 20
227.9457256940386003
 30
0.0
  0
VERTEX
  5
15FAA
  8
0
 10
138.5003055909367902
 20
227.944720588937912
 30
0.0
  0
VERTEX
  5
15FAB
  8
0
 10
138.5003168049302076
 20
227.9437154840964865
 30
0.0
  0
VERTEX
  5
15FAC
  8
0
 10
138.5003282210089139
 20
227.9427103795775906
 30
0.0
  0
VERTEX
  5
15FAD
  8
0
 10
138.5003398391733924
 20
227.9417052754446047
 30
0.0
  0
VERTEX
  5
15FAE
  8
0
 10
138.5003516594252062
 20
227.9407001717607955
 30
0.0
  0
VERTEX
  5
15FAF
  8
0
 10
138.500363681765009
 20
227.9396950685892875
 30
0.0
  0
VERTEX
  5
15FB0
  8
0
 10
138.5003759061943924
 20
227.9386899659934897
 30
0.0
  0
VERTEX
  5
15FB1
  8
0
 10
138.5003883327142091
 20
227.9376848640366973
 30
0.0
  0
VERTEX
  5
15FB2
  8
0
 10
138.5004009613255107
 20
227.9366797627822052
 30
0.0
  0
VERTEX
  5
15FB3
  8
0
 10
138.5004137920294056
 20
227.9356746622933088
 30
0.0
  0
SEQEND
  5
15FB4
  8
0
  0
POLYLINE
  5
14CBC
  8
0
 66
     1
 10
0.0
 20
0.0
 30
0.0
  0
VERTEX
  5
15FB5
  8
0
 10
139.2950110931350878
 20
225.2948071615604988
 30
0.0
  0
VERTEX
  5
15FB6
  8
0
 10
139.3342084855813994
 20
225.2348139004834024
 30
0.0
  0
VERTEX
  5
15FB7
  8
0
 10
139.3741536333943998
 20
225.1755266187591928
 30
0.0
  0
VERTEX
  5
15FB8
  8
0
 10
139.4148446587186925
 20
225.1169435737207039
 30
0.0
  0
VERTEX
  5
15FB9
  8
0
 10
139.4562796836985967
 20
225.0590630227002009
 30
0.0
  0
VERTEX
  5
15FBA
  8
0
 10
139.4984568304786876
 20
225.0018832230304042
 30
0.0
  0
VERTEX
  5
15FBB
  8
0
 10
139.5413742212033981
 20
224.9454024320438066
 30
0.0
  0
VERTEX
  5
15FBC
  8
0
 10
139.5850299780171042
 20
224.8896189070729861
 30
0.0
  0
VERTEX
  5
15FBD
  8
0
 10
139.6294222230642958
 20
224.8345309054504071
 30
0.0
  0
VERTEX
  5
15FBE
  8
0
 10
139.6745490784894059
 20
224.7801366845087898
 30
0.0
  0
VERTEX
  5
15FBF
  8
0
 10
139.7204086664368106
 20
224.7264345015803997
 30
0.0
  0
VERTEX
  5
15FC0
  8
0
 10
139.7669991090511132
 20
224.6734226139980137
 30
0.0
  0
VERTEX
  5
15FC1
  8
0
 10
139.8143185284766048
 20
224.6210992790940963
 30
0.0
  0
VERTEX
  5
15FC2
  8
0
 10
139.8623650468578887
 20
224.5694627542011119
 30
0.0
  0
VERTEX
  5
15FC3
  8
0
 10
139.9111367863393127
 20
224.5185112966518091
 30
0.0
  0
VERTEX
  5
15FC4
  8
0
 10
139.960631869065196
 20
224.4682431637785101
 30
0.0
  0
VERTEX
  5
15FC5
  8
0
 10
140.010848417180199
 20
224.4186566129139067
 30
0.0
  0
VERTEX
  5
15FC6
  8
0
 10
140.0617845528286125
 20
224.3697499013904064
 30
0.0
  0
VERTEX
  5
15FC7
  8
0
 10
140.1134416038235884
 20
224.3215196494649035
 30
0.0
  0
VERTEX
  5
15FC8
  8
0
 10
140.165878306550411
 20
224.2739372289327946
 30
0.0
  0
VERTEX
  5
15FC9
  8
0
 10
140.2190871457476931
 20
224.2270179363019054
 30
0.0
  0
VERTEX
  5
15FCA
  8
0
 10
140.2730281873691069
 20
224.1807950886104948
 30
0.0
  0
VERTEX
  5
15FCB
  8
0
 10
140.3276614973688083
 20
224.1353020028963954
 30
0.0
  0
VERTEX
  5
15FCC
  8
0
 10
140.3829471417004129
 20
224.0905719961976956
 30
0.0
  0
VERTEX
  5
15FCD
  8
0
 10
140.4388451863181047
 20
224.0466383855525123
 30
0.0
  0
VERTEX
  5
15FCE
  8
0
 10
140.4953156971754993
 20
224.0035344879987065
 30
0.0
  0
VERTEX
  5
15FCF
  8
0
 10
140.5523187402268093
 20
223.9612936205743949
 30
0.0
  0
VERTEX
  5
15FD0
  8
0
 10
140.6098142939086983
 20
223.9199474053411905
 30
0.0
  0
VERTEX
  5
15FD1
  8
0
 10
140.6677735675719134
 20
223.8794999706701105
 30
0.0
  0
VERTEX
  5
15FD2
  8
0
 10
140.7261921578705994
 20
223.8399458482757041
 30
0.0
  0
VERTEX
  5
15FD3
  8
0
 10
140.7850683957746867
 20
223.8012819050856024
 30
0.0
  0
VERTEX
  5
15FD4
  8
0
 10
140.8444006122535939
 20
223.7635050080276926
 30
0.0
  0
VERTEX
  5
15FD5
  8
0
 10
140.9041871382769102
 20
223.7266120240296914
 30
0.0
  0
VERTEX
  5
15FD6
  8
0
 10
140.9644263048143955
 20
223.6905998200197132
 30
0.0
  0
VERTEX
  5
15FD7
  8
0
 10
141.0251164428356105
 20
223.6554652629251905
 30
0.0
  0
VERTEX
  5
15FD8
  8
0
 10
141.0862558833100024
 20
223.6212052196742093
 30
0.0
  0
VERTEX
  5
15FD9
  8
0
 10
141.1478430143760932
 20
223.5878166677987053
 30
0.0
  0
VERTEX
  5
15FDA
  8
0
 10
141.2098774003029007
 20
223.5552988720943119
 30
0.0
  0
VERTEX
  5
15FDB
  8
0
 10
141.2723597044036978
 20
223.5236532420443893
 30
0.0
  0
VERTEX
  5
15FDC
  8
0
 10
141.3352906317431064
 20
223.4928812692211864
 30
0.0
  0
VERTEX
  5
15FDD
  8
0
 10
141.3986708873860039
 20
223.4629844451976055
 30
0.0
  0
VERTEX
  5
15FDE
  8
0
 10
141.462501176397609
 20
223.4339642615460093
 30
0.0
  0
VERTEX
  5
15FDF
  8
0
 10
141.5267822038427141
 20
223.4058222098389876
 30
0.0
  0
VERTEX
  5
15FE0
  8
0
 10
141.5915146747861115
 20
223.3785597816491872
 30
0.0
  0
VERTEX
  5
15FE1
  8
0
 10
141.6566992942929062
 20
223.352178468548999
 30
0.0
  0
VERTEX
  5
15FE2
  8
0
 10
141.7223335774937141
 20
223.3266843547575036
 30
0.0
  0
VERTEX
  5
15FE3
  8
0
 10
141.7883857526956888
 20
223.3021008203506028
 30
0.0
  0
VERTEX
  5
15FE4
  8
0
 10
141.8548099270236094
 20
223.2784412620727039
 30
0.0
  0
VERTEX
  5
15FE5
  8
0
 10
141.921560265189413
 20
223.2557176693586882
 30
0.0
  0
VERTEX
  5
15FE6
  8
0
 10
141.988590931904298
 20
223.2339420316438918
 30
0.0
  0
VERTEX
  5
15FE7
  8
0
 10
142.0558560918798889
 20
223.2131263383631961
 30
0.0
  0
VERTEX
  5
15FE8
  8
0
 10
142.1233099098278103
 20
223.1932825789517096
 30
0.0
  0
VERTEX
  5
15FE9
  8
0
 10
142.1909065504598004
 20
223.1744227428445129
 30
0.0
  0
VERTEX
  5
15FEA
  8
0
 10
142.2586001784870007
 20
223.1565588194769987
 30
0.0
  0
VERTEX
  5
15FEB
  8
0
 10
142.3263763923687009
 20
223.1396866505604919
 30
0.0
  0
VERTEX
  5
15FEC
  8
0
 10
142.3942896239232141
 20
223.1237730739709093
 30
0.0
  0
VERTEX
  5
15FED
  8
0
 10
142.4623429541848054
 20
223.1088172739733011
 30
0.0
  0
VERTEX
  5
15FEE
  8
0
 10
142.5305364496931873
 20
223.0948201131189137
 30
0.0
  0
VERTEX
  5
15FEF
  8
0
 10
142.598870176988413
 20
223.0817824539591925
 30
0.0
  0
VERTEX
  5
15FF0
  8
0
 10
142.6673442026099963
 20
223.0697051590454976
 30
0.0
  0
VERTEX
  5
15FF1
  8
0
 10
142.7359585930977914
 20
223.0585890909295017
 30
0.0
  0
VERTEX
  5
15FF2
  8
0
 10
142.8047134149915109
 20
223.0484351121625082
 30
0.0
  0
VERTEX
  5
15FF3
  8
0
 10
142.8736087348308104
 20
223.0392440852957066
 30
0.0
  0
VERTEX
  5
15FF4
  8
0
 10
142.942644619155601
 20
223.031016872880997
 30
0.0
  0
VERTEX
  5
15FF5
  8
0
 10
143.0118211345057091
 20
223.0237543374695122
 30
0.0
  0
VERTEX
  5
15FF6
  8
0
 10
143.0811383474205911
 20
223.0174573416126123
 30
0.0
  0
VERTEX
  5
15FF7
  8
0
 10
143.1505963244401016
 20
223.0121267478619131
 30
0.0
  0
VERTEX
  5
15FF8
  8
0
 10
143.2201951321040951
 20
223.0077634187686044
 30
0.0
  0
VERTEX
  5
15FF9
  8
0
 10
143.2899348369525114
 20
223.004368216884501
 30
0.0
  0
VERTEX
  5
15FFA
  8
0
 10
143.3598155055246934
 20
223.0019420047605934
 30
0.0
  0
VERTEX
  5
15FFB
  8
0
 10
143.4298372043606093
 20
223.0004856449486113
 30
0.0
  0
VERTEX
  5
15FFC
  8
0
 10
143.5
 20
222.999999999999801
 30
0.0
  0
SEQEND
  5
15FFD
  8
0
  0
POLYLINE
  5
14CBD
  8
0
 66
     1
 10
0.0
 20
0.0
 30
0.0
  0
VERTEX
  5
15FFE
  8
0
 10
143.5
 20
222.999999999999801
 30
0.0
  0
VERTEX
  5
15FFF
  8
0
 10
144.1361294025601865
 20
222.999999999999801
 30
0.0
  0
VERTEX
  5
16000
  8
0
 10
144.772301091884799
 20
222.999999999999801
 30
0.0
  0
VERTEX
  5
16001
  8
0
 10
145.4085165879727981
 20
222.999999999999801
 30
0.0
  0
VERTEX
  5
16002
  8
0
 10
146.0447774108224053
 20
222.999999999999801
 30
0.0
  0
VERTEX
  5
16003
  8
0
 10
146.6810850804330926
 20
222.9999999999998863
 30
0.0
  0
VERTEX
  5
16004
  8
0
 10
147.3174411168031099
 20
222.9999999999998863
 30
0.0
  0
VERTEX
  5
16005
  8
0
 10
147.9538470399311905
 20
223.0
 30
0.0
  0
VERTEX
  5
16006
  8
0
 10
148.5903043698162946
 20
223.0
 30
0.0
  0
VERTEX
  5
16007
  8
0
 10
149.2268146264570134
 20
223.0
 30
0.0
  0
VERTEX
  5
16008
  8
0
 10
149.8633793298519947
 20
223.0
 30
0.0
  0
VERTEX
  5
16009
  8
0
 10
150.5000000000001137
 20
223.0
 30
0.0
  0
SEQEND
  5
1600A
  8
0
  0
POLYLINE
  5
14CBE
  8
0
 66
     1
 10
0.0
 20
0.0
 30
0.0
  0
VERTEX
  5
1600B
  8
0
 10
150.5000000000001137
 20
223.0
 30
0.0
  0
VERTEX
  5
1600C
  8
0
 10
150.5655252847132033
 20
222.9995741815909867
 30
0.0
  0
VERTEX
  5
1600D
  8
0
 10
150.6309266522553116
 20
222.9982977641479067
 30
0.0
  0
VERTEX
  5
1600E
  8
0
 10
150.6962043883320064
 20
222.9961723043471977
 30
0.0
  0
VERTEX
  5
1600F
  8
0
 10
150.7613587786493952
 20
222.993199358864814
 30
0.0
  0
VERTEX
  5
16010
  8
0
 10
150.8263901089129888
 20
222.9893804843771932
 30
0.0
  0
VERTEX
  5
16011
  8
0
 10
150.8912986648288097
 20
222.9847172375606021
 30
0.0
  0
VERTEX
  5
16012
  8
0
 10
150.956084732102795
 20
222.979211175091308
 30
0.0
  0
VERTEX
  5
16013
  8
0
 10
151.0207485964403133
 20
222.9728638536452934
 30
0.0
  0
VERTEX
  5
16014
  8
0
 10
151.0852905435473019
 20
222.9656768298991096
 30
0.0
  0
VERTEX
  5
16015
  8
0
 10
151.1497108591296126
 20
222.9576516605287964
 30
0.0
  0
VERTEX
  5
16016
  8
0
 10
151.2140098288934098
 20
222.9487899022107058
 30
0.0
  0
VERTEX
  5
16017
  8
0
 10
151.2781877385438065
 20
222.939093111620906
 30
0.0
  0
VERTEX
  5
16018
  8
0
 10
151.3422448737871946
 20
222.9285628454358914
 30
0.0
  0
VERTEX
  5
16019
  8
0
 10
151.4061815203288859
 20
222.9172006603315879
 30
0.0
  0
VERTEX
  5
1601A
  8
0
 10
151.469997957057501
 20
222.9050080654494082
 30
0.0
  0
VERTEX
  5
1601B
  8
0
 10
151.5336937916646036
 20
222.8919818842126972
 30
0.0
  0
VERTEX
  5
1601C
  8
0
 10
151.597268370925093
 20
222.8781171027499965
 30
0.0
  0
VERTEX
  5
1601D
  8
0
 10
151.6607212871948036
 20
222.8634104160367997
 30
0.0
  0
VERTEX
  5
1601E
  8
0
 10
151.724052132829712
 20
222.8478585190482022
 30
0.0
  0
VERTEX
  5
1601F
  8
0
 10
151.7872605001853969
 20
222.8314581067594133
 30
0.0
  0
VERTEX
  5
16020
  8
0
 10
151.8503459816176928
 20
222.8142058741458129
 30
0.0
  0
VERTEX
  5
16021
  8
0
 10
151.9133081694826046
 20
222.7960985161826954
 30
0.0
  0
VERTEX
  5
16022
  8
0
 10
151.9761583717728968
 20
222.7771259509262052
 30
0.0
  0
VERTEX
  5
16023
  8
0
 10
152.0389050425607138
 20
222.7572750401195094
 30
0.0
  0
VERTEX
  5
16024
  8
0
 10
152.1014951113438087
 20
222.7365631850526029
 30
0.0
  0
VERTEX
  5
16025
  8
0
 10
152.1638721756600887
 20
222.7150095529653129
 30
0.0
  0
VERTEX
  5
16026
  8
0
 10
152.2259798330470062
 20
222.6926333110972962
 30
0.0
  0
VERTEX
  5
16027
  8
0
 10
152.2877616810426105
 20
222.6694536266880107
 30
0.0
  0
VERTEX
  5
16028
  8
0
 10
152.3491613171842118
 20
222.645489666977312
 30
0.0
  0
VERTEX
  5
16029
  8
0
 10
152.4101250436445127
 20
222.6207601981863036
 30
0.0
  0
VERTEX
  5
1602A
  8
0
 10
152.4706706423617106
 20
222.5952705345920037
 30
0.0
  0
VERTEX
  5
1602B
  8
0
 10
152.5308171474561902
 20
222.5690187279265899
 30
0.0
  0
VERTEX
  5
1602C
  8
0
 10
152.5905645370106072
 20
222.5420046280869997
 30
0.0
  0
VERTEX
  5
1602D
  8
0
 10
152.6499127891077023
 20
222.514228084970199
 30
0.0
  0
VERTEX
  5
1602E
  8
0
 10
152.7088618818305008
 20
222.4856889484732108
 30
0.0
  0
VERTEX
  5
1602F
  8
0
 10
152.7674117932614024
 20
222.456387068492802
 30
0.0
  0
VERTEX
  5
16030
  8
0
 10
152.8255625014834038
 20
222.4263222949261092
 30
0.0
  0
VERTEX
  5
16031
  8
0
 10
152.8833139845791038
 20
222.3954944776698994
 30
0.0
  0
VERTEX
  5
16032
  8
0
 10
152.9406662206313001
 20
222.3639034666211955
 30
0.0
  0
VERTEX
  5
16033
  8
0
 10
152.9976191877229041
 20
222.331549111676992
 30
0.0
  0
VERTEX
  5
16034
  8
0
 10
153.0541728639362873
 20
222.2984312627341978
 30
0.0
  0
VERTEX
  5
16035
  8
0
 10
153.1103272273543041
 20
222.2645497696898076
 30
0.0
  0
VERTEX
  5
16036
  8
0
 10
153.1660822560600934
 20
222.2299044824405883
 30
0.0
  0
VERTEX
  5
16037
  8
0
 10
153.2214379281361119
 20
222.1944952508837048
 30
0.0
  0
VERTEX
  5
16038
  8
0
 10
153.2763971526638045
 20
222.1583174766792013
 30
0.0
  0
VERTEX
  5
16039
  8
0
 10
153.3309827894669013
 20
222.121330612624206
 30
0.0
  0
VERTEX
  5
1603A
  8
0
 10
153.385180021116696
 20
222.0835401387830927
 30
0.0
  0
VERTEX
  5
1603B
  8
0
 10
153.4389642912248917
 20
222.0449651439668912
 30
0.0
  0
VERTEX
  5
1603C
  8
0
 10
153.4923110434031912
 20
222.0056247169866026
 30
0.0
  0
VERTEX
  5
1603D
  8
0
 10
153.5451957212630987
 20
221.9655379466533134
 30
0.0
  0
VERTEX
  5
1603E
  8
0
 10
153.5975937684162886
 20
221.9247239217781953
 30
0.0
  0
VERTEX
  5
1603F
  8
0
 10
153.6494806284746062
 20
221.8832017311721074
 30
0.0
  0
VERTEX
  5
16040
  8
0
 10
153.7008317450496122
 20
221.8409904636463068
 30
0.0
  0
VERTEX
  5
16041
  8
0
 10
153.7516225617530097
 20
221.7981092080117946
 30
0.0
  0
VERTEX
  5
16042
  8
0
 10
153.8018285221965016
 20
221.7545770530796005
 30
0.0
  0
VERTEX
  5
16043
  8
0
 10
153.8514250699915067
 20
221.7104130876608963
 30
0.0
  0
VERTEX
  5
16044
  8
0
 10
153.9003876487496996
 20
221.6656364005663988
 30
0.0
  0
VERTEX
  5
16045
  8
0
 10
153.9486917020832095
 20
221.6202660806075926
 30
0.0
  0
VERTEX
  5
16046
  8
0
 10
153.9963126736031995
 20
221.5743212165953082
 30
0.0
  0
VERTEX
  5
16047
  8
0
 10
154.0432363957158088
 20
221.5278160090398956
 30
0.0
  0
VERTEX
  5
16048
  8
0
 10
154.0895094116237942
 20
221.4807326525460951
 30
0.0
  0
VERTEX
  5
16049
  8
0
 10
154.1351399578416022
 20
221.4330660163778077
 30
0.0
  0
VERTEX
  5
1604A
  8
0
 10
154.1801268561816869
 20
221.3848150176112028
 30
0.0
  0
VERTEX
  5
1604B
  8
0
 10
154.22446892845619
 20
221.3359785733221941
 30
0.0
  0
VERTEX
  5
1604C
  8
0
 10
154.2681649964769122
 20
221.286555600586496
 30
0.0
  0
VERTEX
  5
1604D
  8
0
 10
154.3112138820563928
 20
221.2365450164803065
 30
0.0
  0
VERTEX
  5
1604E
  8
0
 10
154.3536144070064893
 20
221.1859457380793117
 30
0.0
  0
VERTEX
  5
1604F
  8
0
 10
154.3953653931395991
 20
221.1347566824595958
 30
0.0
  0
VERTEX
  5
16050
  8
0
 10
154.436465662267608
 20
221.0829767666971009
 30
0.0
  0
VERTEX
  5
16051
  8
0
 10
154.4769140362027997
 20
221.030604907867712
 30
0.0
  0
VERTEX
  5
16052
  8
0
 10
154.5167093367572875
 20
220.9776400230472859
 30
0.0
  0
VERTEX
  5
16053
  8
0
 10
154.5558503857430139
 20
220.9240810293117079
 30
0.0
  0
VERTEX
  5
16054
  8
0
 10
154.5943360049726039
 20
220.8699268437372893
 30
0.0
  0
VERTEX
  5
16055
  8
0
 10
154.6321650162578862
 20
220.8151763833996029
 30
0.0
  0
VERTEX
  5
16056
  8
0
 10
154.6693347332727058
 20
220.7598237708419049
 30
0.0
  0
VERTEX
  5
16057
  8
0
 10
154.7058254980362051
 20
220.7038732018127121
 30
0.0
  0
VERTEX
  5
16058
  8
0
 10
154.7416071666631012
 20
220.6473735821082869
 30
0.0
  0
VERTEX
  5
16059
  8
0
 10
154.7766494560507908
 20
220.5903767847111965
 30
0.0
  0
VERTEX
  5
1605A
  8
0
 10
154.8109220830972106
 20
220.5329346826038943
 30
0.0
  0
VERTEX
  5
1605B
  8
0
 10
154.8443947646998993
 20
220.4750991487686065
 30
0.0
  0
VERTEX
  5
1605C
  8
0
 10
154.8770372177569925
 20
220.4169220561877864
 30
0.0
  0
VERTEX
  5
1605D
  8
0
 10
154.9088202919984099
 20
220.3584537301908028
 30
0.0
  0
VERTEX
  5
1605E
  8
0
 10
154.9397633238035894
 20
220.299676603241295
 30
0.0
  0
VERTEX
  5
1605F
  8
0
 10
154.9698860008797112
 20
220.2405680259599023
 30
0.0
  0
VERTEX
  5
16060
  8
0
 10
154.9991902868393083
 20
220.181128790197306
 30
0.0
  0
VERTEX
  5
16061
  8
0
 10
155.027678145294999
 20
220.1213596878041017
 30
0.0
  0
VERTEX
  5
16062
  8
0
 10
155.0553515398594868
 20
220.0612615106304872
 30
0.0
  0
VERTEX
  5
16063
  8
0
 10
155.0822124341459016
 20
220.0008350505272006
 30
0.0
  0
VERTEX
  5
16064
  8
0
 10
155.1082627917664922
 20
219.94008109934461
 30
0.0
  0
VERTEX
  5
16065
  8
0
 10
155.1335088208757043
 20
219.8789853092372084
 30
0.0
  0
VERTEX
  5
16066
  8
0
 10
155.1579591671440141
 20
219.8175171051744883
 30
0.0
  0
VERTEX
  5
16067
  8
0
 10
155.181609104956209
 20
219.7556865339658998
 30
0.0
  0
VERTEX
  5
16068
  8
0
 10
155.204453361704509
 20
219.6935054397370095
 30
0.0
  0
VERTEX
  5
16069
  8
0
 10
155.2264866647805093
 20
219.6309856666134976
 30
0.0
  0
VERTEX
  5
1606A
  8
0
 10
155.24770374157589
 20
219.5681390587207886
 30
0.0
  0
VERTEX
  5
1606B
  8
0
 10
155.268099319483099
 20
219.5049774601847048
 30
0.0
  0
VERTEX
  5
1606C
  8
0
 10
155.28766812589339
 20
219.441512715130699
 30
0.0
  0
VERTEX
  5
1606D
  8
0
 10
155.3064048881990118
 20
219.3777566676845083
 30
0.0
  0
VERTEX
  5
1606E
  8
0
 10
155.3243043337913889
 20
219.3137211619716993
 30
0.0
  0
VERTEX
  5
1606F
  8
0
 10
155.3413611900629121
 20
219.24941804211781
 30
0.0
  0
VERTEX
  5
16070
  8
0
 10
155.3575701844048069
 20
219.1848591522486061
 30
0.0
  0
VERTEX
  5
16071
  8
0
 10
155.3729260442096063
 20
219.120056336489597
 30
0.0
  0
VERTEX
  5
16072
  8
0
 10
155.3874234968685926
 20
219.0550214389664063
 30
0.0
  0
VERTEX
  5
16073
  8
0
 10
155.4010572697739008
 20
218.9897663038046005
 30
0.0
  0
VERTEX
  5
16074
  8
0
 10
155.4138179785126113
 20
218.9243496754455123
 30
0.0
  0
VERTEX
  5
16075
  8
0
 10
155.4256970412216958
 20
218.8588511112091055
 30
0.0
  0
VERTEX
  5
16076
  8
0
 10
155.4366946098841993
 20
218.7932715913715072
 30
0.0
  0
VERTEX
  5
16077
  8
0
 10
155.4468109347793927
 20
218.727611108195191
 30
0.0
  0
VERTEX
  5
16078
  8
0
 10
155.4560462661875135
 20
218.6618696539428868
 30
0.0
  0
VERTEX
  5
16079
  8
0
 10
155.4644008543878044
 20
218.5960472208770113
 30
0.0
  0
VERTEX
  5
1607A
  8
0
 10
155.4718749496603891
 20
218.5301438012600954
 30
0.0
  0
VERTEX
  5
1607B
  8
0
 10
155.4784688022847092
 20
218.464159387354897
 30
0.0
  0
VERTEX
  5
1607C
  8
0
 10
155.4841826625404906
 20
218.3980939714238048
 30
0.0
  0
VERTEX
  5
1607D
  8
0
 10
155.4890167807074874
 20
218.3319475457296903
 30
0.0
  0
VERTEX
  5
1607E
  8
0
 10
155.4929714070653972
 20
218.2657201025348002
 30
0.0
  0
VERTEX
  5
1607F
  8
0
 10
155.4960467918936899
 20
218.1994116341018071
 30
0.0
  0
VERTEX
  5
16080
  8
0
 10
155.498243185472603
 20
218.1330221326932985
 30
0.0
  0
VERTEX
  5
16081
  8
0
 10
155.4995608380814929
 20
218.0665515905718053
 30
0.0
  0
VERTEX
  5
16082
  8
0
 10
155.5000000000001137
 20
218.0
 30
0.0
  0
SEQEND
  5
16083
  8
0
  0
POLYLINE
  5
14CBF
  8
0
 66
     1
 10
0.0
 20
0.0
 30
0.0
  0
VERTEX
  5
16084
  8
0
 10
155.5000000000001137
 20
218.0
 30
0.0
  0
VERTEX
  5
16085
  8
0
 10
155.5000000000001137
 20
217.0893215868966877
 30
0.0
  0
VERTEX
  5
16086
  8
0
 10
155.5000000000001137
 20
216.1789879378673902
 30
0.0
  0
VERTEX
  5
16087
  8
0
 10
155.5000000000001137
 20
215.2689899694815097
 30
0.0
  0
VERTEX
  5
16088
  8
0
 10
155.5000000000001137
 20
214.359318598308505
 30
0.0
  0
VERTEX
  5
16089
  8
0
 10
155.5000000000001137
 20
213.449964740917892
 30
0.0
  0
VERTEX
  5
1608A
  8
0
 10
155.5000000000001137
 20
212.5409193138789874
 30
0.0
  0
VERTEX
  5
1608B
  8
0
 10
155.5000000000001137
 20
211.6321732337613071
 30
0.0
  0
VERTEX
  5
1608C
  8
0
 10
155.5000000000001137
 20
210.723717417134111
 30
0.0
  0
VERTEX
  5
1608D
  8
0
 10
155.5000000000001137
 20
209.8155427805671991
 30
0.0
  0
VERTEX
  5
1608E
  8
0
 10
155.5000000000001137
 20
208.9076402406296893
 30
0.0
  0
VERTEX
  5
1608F
  8
0
 10
155.5000000000001137
 20
208.000000713891211
 30
0.0
  0
SEQEND
  5
16090
  8
0
  0
POLYLINE
  5
14CC0
  8
0
 66
     1
 10
0.0
 20
0.0
 30
0.0
  0
VERTEX
  5
16091
  8
0
 10
91.9999999999999289
 20
156.9237198361296066
 30
0.0
  0
VERTEX
  5
16092
  8
0
 10
91.999466230278756
 20
156.9122011057143879
 30
0.0
  0
VERTEX
  5
16093
  8
0
 10
91.9978663487452195
 20
156.9008742346763086
 30
0.0
  0
VERTEX
  5
16094
  8
0
 10
91.995202502965995
 20
156.8897384313584098
 30
0.0
  0
VERTEX
  5
16095
  8
0
 10
91.9914768405078007
 20
156.8787929041039035
 30
0.0
  0
VERTEX
  5
16096
  8
0
 10
91.9866915089373123
 20
156.8680368612562859
 30
0.0
  0
VERTEX
  5
16097
  8
0
 10
91.9808486558212621
 20
156.8574695111587971
 30
0.0
  0
VERTEX
  5
16098
  8
0
 10
91.9739504287263259
 20
156.8470900621547059
 30
0.0
  0
VERTEX
  5
16099
  8
0
 10
91.9659989752190938
 20
156.8368977225873948
 30
0.0
  0
VERTEX
  5
1609A
  8
0
 10
91.9569964428664264
 20
156.826891700800104
 30
0.0
  0
VERTEX
  5
1609B
  8
0
 10
91.9469449792350133
 20
156.8170712051361875
 30
0.0
  0
VERTEX
  5
1609C
  8
0
 10
91.9358467318913881
 20
156.807435443938914
 30
0.0
  0
VERTEX
  5
1609D
  8
0
 10
91.9237038484024112
 20
156.7979836255516091
 30
0.0
  0
VERTEX
  5
1609E
  8
0
 10
91.9105184763346443
 20
156.788714958317513
 30
0.0
  0
VERTEX
  5
1609F
  8
0
 10
91.8962910449978949
 20
156.7796289693525011
 30
0.0
  0
VERTEX
  5
160A0
  8
0
 10
91.8810142523702211
 20
156.7707266089065001
 30
0.0
  0
VERTEX
  5
160A1
  8
0
 10
91.8646829951763948
 20
156.7620084056775909
 30
0.0
  0
VERTEX
  5
160A2
  8
0
 10
91.8472926295393393
 20
156.7534748025402109
 30
0.0
  0
VERTEX
  5
160A3
  8
0
 10
91.8288385115819352
 20
156.7451262423685137
 30
0.0
  0
VERTEX
  5
160A4
  8
0
 10
91.8093159974270634
 20
156.7369631680367945
 30
0.0
  0
VERTEX
  5
160A5
  8
0
 10
91.7887204431975618
 20
156.7289860224194911
 30
0.0
  0
VERTEX
  5
160A6
  8
0
 10
91.7670372578024143
 20
156.7211951810569133
 30
0.0
  0
VERTEX
  5
160A7
  8
0
 10
91.7442692405322902
 20
156.7135954716740969
 30
0.0
  0
VERTEX
  5
160A8
  8
0
 10
91.7204437884447685
 20
156.7061944774542894
 30
0.0
  0
VERTEX
  5
160A9
  8
0
 10
91.6955883637095042
 20
156.6989997865323119
 30
0.0
  0
VERTEX
  5
160AA
  8
0
 10
91.6697304284966208
 20
156.6920189870423883
 30
0.0
  0
VERTEX
  5
160AB
  8
0
 10
91.6428974449758016
 20
156.6852596671191975
 30
0.0
  0
VERTEX
  5
160AC
  8
0
 10
91.6151161242844836
 20
156.6787289066180051
 30
0.0
  0
VERTEX
  5
160AD
  8
0
 10
91.5863902416366358
 20
156.6724210763254064
 30
0.0
  0
VERTEX
  5
160AE
  8
0
 10
91.556715568341474
 20
156.6663321073380075
 30
0.0
  0
VERTEX
  5
160AF
  8
0
 10
91.5260920558715156
 20
156.6604617725888886
 30
0.0
  0
VERTEX
  5
160B0
  8
0
 10
91.4945196556994347
 20
156.6548098450111013
 30
0.0
  0
VERTEX
  5
160B1
  8
0
 10
91.461998319297777
 20
156.6493760975378109
 30
0.0
  0
VERTEX
  5
160B2
  8
0
 10
91.4285279981390744
 20
156.6441603031018985
 30
0.0
  0
VERTEX
  5
160B3
  8
0
 10
91.3941086436960575
 20
156.6391622346365011
 30
0.0
  0
VERTEX
  5
160B4
  8
0
 10
91.3587402074412012
 20
156.6343816650748977
 30
0.0
  0
VERTEX
  5
160B5
  8
0
 10
91.3224226408470656
 20
156.6298183673499977
 30
0.0
  0
VERTEX
  5
160B6
  8
0
 10
91.2851558953863531
 20
156.6254721143947961
 30
0.0
  0
VERTEX
  5
160B7
  8
0
 10
91.2469399225315385
 20
156.6213426791424865
 30
0.0
  0
VERTEX
  5
160B8
  8
0
 10
91.2077746737552815
 20
156.6174298345262059
 30
0.0
  0
VERTEX
  5
160B9
  8
0
 10
91.1676601005301137
 20
156.613733353478807
 30
0.0
  0
VERTEX
  5
160BA
  8
0
 10
91.1265759973207139
 20
156.6102549658791077
 30
0.0
  0
VERTEX
  5
160BB
  8
0
 10
91.0845056674292408
 20
156.6069982727921968
 30
0.0
  0
VERTEX
  5
160BC
  8
0
 10
91.0414749307103648
 20
156.6039643007638062
 30
0.0
  0
VERTEX
  5
160BD
  8
0
 10
90.9975100870019133
 20
156.6011540395703037
 30
0.0
  0
VERTEX
  5
160BE
  8
0
 10
90.9526374361416856
 20
156.5985684789885966
 30
0.0
  0
VERTEX
  5
160BF
  8
0
 10
90.9068832779674949
 20
156.5962086087951946
 30
0.0
  0
VERTEX
  5
160C0
  8
0
 10
90.8602739123170409
 20
156.5940754187668063
 30
0.0
  0
VERTEX
  5
160C1
  8
0
 10
90.8128356390281937
 20
156.5921698986799981
 30
0.0
  0
VERTEX
  5
160C2
  8
0
 10
90.7645947579387524
 20
156.5904930383115925
 30
0.0
  0
VERTEX
  5
160C3
  8
0
 10
90.7155775688864736
 20
156.5890458274382127
 30
0.0
  0
VERTEX
  5
160C4
  8
0
 10
90.6658103717091848
 20
156.5878292558365104
 30
0.0
  0
VERTEX
  5
160C5
  8
0
 10
90.615319466244614
 20
156.5868443132829952
 30
0.0
  0
VERTEX
  5
160C6
  8
0
 10
90.5641311523305887
 20
156.5860919895546033
 30
0.0
  0
VERTEX
  5
160C7
  8
0
 10
90.5122638624380187
 20
156.5855722043164064
 30
0.0
  0
VERTEX
  5
160C8
  8
0
 10
90.4596862643574013
 20
156.5852793528412121
 30
0.0
  0
VERTEX
  5
160C9
  8
0
 10
90.406390141619795
 20
156.5852129105462893
 30
0.0
  0
VERTEX
  5
160CA
  8
0
 10
90.352373986473836
 20
156.5853734036460878
 30
0.0
  0
VERTEX
  5
160CB
  8
0
 10
90.2976362911678621
 20
156.5857613583544037
 30
0.0
  0
VERTEX
  5
160CC
  8
0
 10
90.2421755479505237
 20
156.5863773008852036
 30
0.0
  0
VERTEX
  5
160CD
  8
0
 10
90.185990249070187
 20
156.5872217574525109
 30
0.0
  0
VERTEX
  5
160CE
  8
0
 10
90.1290788867754031
 20
156.5882952542704913
 30
0.0
  0
VERTEX
  5
160CF
  8
0
 10
90.0714399533145951
 20
156.5895983175529125
 30
0.0
  0
VERTEX
  5
160D0
  8
0
 10
90.0130719409364275
 20
156.5911314735139115
 30
0.0
  0
VERTEX
  5
160D1
  8
0
 10
89.9539733418891814
 20
156.5928952483673982
 30
0.0
  0
VERTEX
  5
160D2
  8
0
 10
89.8941426484215071
 20
156.5948901683275096
 30
0.0
  0
VERTEX
  5
160D3
  8
0
 10
89.8335783527817711
 20
156.5971167596080988
 30
0.0
  0
VERTEX
  5
160D4
  8
0
 10
89.7722804326773201
 20
156.5995755063509876
 30
0.0
  0
VERTEX
  5
160D5
  8
0
 10
89.7103667013824975
 20
156.6022632716945964
 30
0.0
  0
VERTEX
  5
160D6
  8
0
 10
89.6479227288252218
 20
156.6051769427147065
 30
0.0
  0
VERTEX
  5
160D7
  8
0
 10
89.5849633876625262
 20
156.6083152372667939
 30
0.0
  0
VERTEX
  5
160D8
  8
0
 10
89.521503550551472
 20
156.6116768732065907
 30
0.0
  0
VERTEX
  5
160D9
  8
0
 10
89.4575580901491207
 20
156.6152605683896866
 30
0.0
  0
VERTEX
  5
160DA
  8
0
 10
89.3931418791123917
 20
156.6190650406716998
 30
0.0
  0
VERTEX
  5
160DB
  8
0
 10
89.328269790098517
 20
156.6230890079083053
 30
0.0
  0
VERTEX
  5
160DC
  8
0
 10
89.2629566957643448
 20
156.6273311879550079
 30
0.0
  0
VERTEX
  5
160DD
  8
0
 10
89.1972174687670076
 20
156.6317902986675961
 30
0.0
  0
VERTEX
  5
160DE
  8
0
 10
89.1310669817634533
 20
156.6364650579014892
 30
0.0
  0
VERTEX
  5
160DF
  8
0
 10
89.0645201074108854
 20
156.6413541835125045
 30
0.0
  0
VERTEX
  5
160E0
  8
0
 10
88.9975917183661238
 20
156.6464563933560044
 30
0.0
  0
VERTEX
  5
160E1
  8
0
 10
88.9302966872863863
 20
156.6517704052878059
 30
0.0
  0
VERTEX
  5
160E2
  8
0
 10
88.8626084625504262
 20
156.6572987026285091
 30
0.0
  0
VERTEX
  5
160E3
  8
0
 10
88.7944448092875405
 20
156.6630489909358062
 30
0.0
  0
VERTEX
  5
160E4
  8
0
 10
88.7258240469013089
 20
156.6690199861866972
 30
0.0
  0
VERTEX
  5
160E5
  8
0
 10
88.6567691822241244
 20
156.6752099815487895
 30
0.0
  0
VERTEX
  5
160E6
  8
0
 10
88.5873032220882948
 20
156.6816172701900882
 30
0.0
  0
VERTEX
  5
160E7
  8
0
 10
88.5174491733259714
 20
156.6882401452783995
 30
0.0
  0
VERTEX
  5
160E8
  8
0
 10
88.4472300427696041
 20
156.6950768999815864
 30
0.0
  0
VERTEX
  5
160E9
  8
0
 10
88.3766688372513158
 20
156.702125827467512
 30
0.0
  0
VERTEX
  5
160EA
  8
0
 10
88.3057885636035849
 20
156.7093852209040961
 30
0.0
  0
VERTEX
  5
160EB
  8
0
 10
88.2346122286585341
 20
156.7168533734590028
 30
0.0
  0
VERTEX
  5
160EC
  8
0
 10
88.1631628392485709
 20
156.7245285783004078
 30
0.0
  0
VERTEX
  5
160ED
  8
0
 10
88.0914634022058749
 20
156.7324091285962027
 30
0.0
  0
VERTEX
  5
160EE
  8
0
 10
88.0195369243628534
 20
156.7404933175139092
 30
0.0
  0
VERTEX
  5
160EF
  8
0
 10
87.9474121401333093
 20
156.7487785320400917
 30
0.0
  0
VERTEX
  5
160F0
  8
0
 10
87.8751646448485388
 20
156.757254263729692
 30
0.0
  0
VERTEX
  5
160F1
  8
0
 10
87.8028118956663661
 20
156.7659182555123039
 30
0.0
  0
VERTEX
  5
160F2
  8
0
 10
87.7303539453929915
 20
156.7747709044614055
 30
0.0
  0
VERTEX
  5
160F3
  8
0
 10
87.6577908468345584
 20
156.7838126076501908
 30
0.0
  0
VERTEX
  5
160F4
  8
0
 10
87.5851226527972813
 20
156.7930437621521946
 30
0.0
  0
VERTEX
  5
160F5
  8
0
 10
87.5123494160873037
 20
156.8024647650408099
 30
0.0
  0
VERTEX
  5
160F6
  8
0
 10
87.4394711895107548
 20
156.8120760133892873
 30
0.0
  0
VERTEX
  5
160F7
  8
0
 10
87.3664880258738492
 20
156.8218779042711049
 30
0.0
  0
VERTEX
  5
160F8
  8
0
 10
87.2933999779828014
 20
156.8318708347597124
 30
0.0
  0
VERTEX
  5
160F9
  8
0
 10
87.2202070986436979
 20
156.8420552019283889
 30
0.0
  0
VERTEX
  5
160FA
  8
0
 10
87.1469094406627391
 20
156.8524314028506979
 30
0.0
  0
VERTEX
  5
160FB
  8
0
 10
87.0735070568460969
 20
156.8629998345998047
 30
0.0
  0
VERTEX
  5
160FC
  8
0
 10
86.9999999999999289
 20
156.8737608942491875
 30
0.0
  0
SEQEND
  5
160FD
  8
0
  0
POLYLINE
  5
14CC1
  8
0
 66
     1
 10
0.0
 20
0.0
 30
0.0
  0
VERTEX
  5
160FE
  8
0
 10
73.4999999999999289
 20
158.3196087648074126
 30
0.0
  0
VERTEX
  5
160FF
  8
0
 10
73.4148014993377842
 20
158.3130191983279076
 30
0.0
  0
VERTEX
  5
16100
  8
0
 10
73.3316314626629691
 20
158.3057547900534132
 30
0.0
  0
VERTEX
  5
16101
  8
0
 10
73.2520052840462768
 20
158.2973176900445935
 30
0.0
  0
VERTEX
  5
16102
  8
0
 10
73.1759139252390725
 20
158.2877359262114965
 30
0.0
  0
VERTEX
  5
16103
  8
0
 10
73.1030665203404055
 20
158.2771347475199946
 30
0.0
  0
VERTEX
  5
16104
  8
0
 10
73.033172203449567
 20
158.2656394029361024
 30
0.0
  0
VERTEX
  5
16105
  8
0
 10
72.9659401086656061
 20
158.2533751414260053
 30
0.0
  0
VERTEX
  5
16106
  8
0
 10
72.901079370087686
 20
158.240467211955405
 30
0.0
  0
VERTEX
  5
16107
  8
0
 10
72.8382991218149414
 20
158.2270408634904015
 30
0.0
  0
VERTEX
  5
16108
  8
0
 10
72.7773608242881522
 20
158.2132008926743083
 30
0.0
  0
VERTEX
  5
16109
  8
0
 10
72.7182632967613358
 20
158.1989593218638106
 30
0.0
  0
VERTEX
  5
1610A
  8
0
 10
72.6610726267980596
 20
158.1843018808613124
 30
0.0
  0
VERTEX
  5
1610B
  8
0
 10
72.6058549063330787
 20
158.1692142977607034
 30
0.0
  0
VERTEX
  5
1610C
  8
0
 10
72.5526762273013901
 20
158.1536823006559018
 30
0.0
  0
VERTEX
  5
1610D
  8
0
 10
72.5016026816377348
 20
158.1376916176409111
 30
0.0
  0
VERTEX
  5
1610E
  8
0
 10
72.4527003612769249
 20
158.1212279768095925
 30
0.0
  0
VERTEX
  5
1610F
  8
0
 10
72.4060408420694444
 20
158.1042783862727958
 30
0.0
  0
VERTEX
  5
16110
  8
0
 10
72.3617436487445502
 20
158.0868410460313953
 30
0.0
  0
VERTEX
  5
16111
  8
0
 10
72.3199530875293988
 20
158.0689199404089891
 30
0.0
  0
VERTEX
  5
16112
  8
0
 10
72.2808136722463246
 20
158.0505191021844098
 30
0.0
  0
VERTEX
  5
16113
  8
0
 10
72.2444699167175912
 20
158.031642564136888
 30
0.0
  0
VERTEX
  5
16114
  8
0
 10
72.2110663347656327
 20
158.0122943590455122
 30
0.0
  0
VERTEX
  5
16115
  8
0
 10
72.1807474402127127
 20
157.9924785196888877
 30
0.0
  0
VERTEX
  5
16116
  8
0
 10
72.1536465685804842
 20
157.9722000139618103
 30
0.0
  0
VERTEX
  5
16117
  8
0
 10
72.129680825939019
 20
157.951481898331707
 30
0.0
  0
VERTEX
  5
16118
  8
0
 10
72.1085716183749099
 20
157.9303636004559905
 30
0.0
  0
VERTEX
  5
16119
  8
0
 10
72.090033292380312
 20
157.9088851385594126
 30
0.0
  0
VERTEX
  5
1611A
  8
0
 10
72.0737801944474938
 20
157.8870865308664122
 30
0.0
  0
VERTEX
  5
1611B
  8
0
 10
72.0595266710688378
 20
157.8650077956015139
 30
0.0
  0
VERTEX
  5
1611C
  8
0
 10
72.0469870687365415
 20
157.8426889509892987
 30
0.0
  0
VERTEX
  5
1611D
  8
0
 10
72.0358757339428735
 20
157.820170015254206
 30
0.0
  0
VERTEX
  5
1611E
  8
0
 10
72.025907013180074
 20
157.7974910066211862
 30
0.0
  0
VERTEX
  5
1611F
  8
0
 10
72.0167952529404829
 20
157.7746919433143944
 30
0.0
  0
VERTEX
  5
16120
  8
0
 10
72.0082547997163829
 20
157.7518128435584117
 30
0.0
  0
VERTEX
  5
16121
  8
0
 10
71.9999999999999289
 20
157.7288937255779899
 30
0.0
  0
SEQEND
  5
16122
  8
0
  0
POLYLINE
  5
14CC2
  8
0
 66
     1
 10
0.0
 20
0.0
 30
0.0
  0
VERTEX
  5
16123
  8
0
 10
71.9999999999999289
 20
157.7288937255779899
 30
0.0
  0
VERTEX
  5
16124
  8
0
 10
71.9999999999999289
 20
157.5944462022744119
 30
0.0
  0
VERTEX
  5
16125
  8
0
 10
71.9999999999999289
 20
157.4597361332135108
 30
0.0
  0
VERTEX
  5
16126
  8
0
 10
71.9999999999999289
 20
157.3247706488641029
 30
0.0
  0
VERTEX
  5
16127
  8
0
 10
71.9999999999999289
 20
157.1895568796950045
 30
0.0
  0
VERTEX
  5
16128
  8
0
 10
71.9999999999999289
 20
157.0541019561750886
 30
0.0
  0
VERTEX
  5
16129
  8
0
 10
71.9999999999999289
 20
156.9184130087732001
 30
0.0
  0
VERTEX
  5
1612A
  8
0
 10
71.9999999999999289
 20
156.7824971679580131
 30
0.0
  0
VERTEX
  5
1612B
  8
0
 10
71.9999999999999289
 20
156.6463615641987133
 30
0.0
  0
VERTEX
  5
1612C
  8
0
 10
71.9999999999999289
 20
156.5100133279638044
 30
0.0
  0
VERTEX
  5
1612D
  8
0
 10
71.9999999999999289
 20
156.373459589722188
 30
0.0
  0
VERTEX
  5
1612E
  8
0
 10
71.9999999999999289
 20
156.236707479942794
 30
0.0
  0
SEQEND
  5
1612F
  8
0
  0
POLYLINE
  5
14CC3
  8
0
 66
     1
 10
0.0
 20
0.0
 30
0.0
  0
VERTEX
  5
16130
  8
0
 10
71.9999999999999289
 20
156.236707479942794
 30
0.0
  0
VERTEX
  5
16131
  8
0
 10
71.9994205963481022
 20
156.2202685199237919
 30
0.0
  0
VERTEX
  5
16132
  8
0
 10
71.997683234404235
 20
156.2039604952207981
 30
0.0
  0
VERTEX
  5
16133
  8
0
 10
71.9947892164257723
 20
156.1877828797944119
 30
0.0
  0
VERTEX
  5
16134
  8
0
 10
71.9907398446704292
 20
156.1717351476046929
 30
0.0
  0
VERTEX
  5
16135
  8
0
 10
71.9855364213956932
 20
156.1558167726120132
 30
0.0
  0
VERTEX
  5
16136
  8
0
 10
71.9791802488592083
 20
156.1400272287766882
 30
0.0
  0
VERTEX
  5
16137
  8
0
 10
71.9716726293185474
 20
156.1243659900590899
 30
0.0
  0
VERTEX
  5
16138
  8
0
 10
71.9630148650312407
 20
156.1088325304195905
 30
0.0
  0
VERTEX
  5
16139
  8
0
 10
71.9532082582549606
 20
156.0934263238183064
 30
0.0
  0
VERTEX
  5
1613A
  8
0
 10
71.94225411124728
 20
156.0781468442156097
 30
0.0
  0
VERTEX
  5
1613B
  8
0
 10
71.9301537262657007
 20
156.0629935655720999
 30
0.0
  0
VERTEX
  5
1613C
  8
0
 10
71.9169084055677956
 20
156.0479659618478081
 30
0.0
  0
VERTEX
  5
1613D
  8
0
 10
71.9025194514113082
 20
156.0330635070029928
 30
0.0
  0
VERTEX
  5
1613E
  8
0
 10
71.8869881660536976
 20
156.0182856749981113
 30
0.0
  0
VERTEX
  5
1613F
  8
0
 10
71.8703158517525367
 20
156.0036319397935074
 30
0.0
  0
VERTEX
  5
16140
  8
0
 10
71.8525038107654836
 20
155.9891017753494111
 30
0.0
  0
VERTEX
  5
16141
  8
0
 10
71.8335365761875551
 20
155.974689653358098
 30
0.0
  0
VERTEX
  5
16142
  8
0
 10
71.8133805773838958
 20
155.9603883234223929
 30
0.0
  0
VERTEX
  5
16143
  8
0
 10
71.7920471155633209
 20
155.9462073735693934
 30
0.0
  0
VERTEX
  5
16144
  8
0
 10
71.7695494800400837
 20
155.9321570599479969
 30
0.0
  0
VERTEX
  5
16145
  8
0
 10
71.745900960128381
 20
155.9182476387074132
 30
0.0
  0
VERTEX
  5
16146
  8
0
 10
71.7211148451425515
 20
155.9044893659965965
 30
0.0
  0
VERTEX
  5
16147
  8
0
 10
71.6952044243968061
 20
155.890892497964586
 30
0.0
  0
VERTEX
  5
16148
  8
0
 10
71.6681829872053697
 20
155.8774672907605066
 30
0.0
  0
VERTEX
  5
16149
  8
0
 10
71.6400717548858665
 20
155.8642253261494943
 30
0.0
  0
VERTEX
  5
1614A
  8
0
 10
71.6109091106650339
 20
155.85117692574741
 30
0.0
  0
VERTEX
  5
1614B
  8
0
 10
71.5807007028842435
 20
155.8383219083164022
 30
0.0
  0
VERTEX
  5
1614C
  8
0
 10
71.5494490724479988
 20
155.8256593534466106
 30
0.0
  0
VERTEX
  5
1614D
  8
0
 10
71.5171567602606046
 20
155.8131883407276916
 30
0.0
  0
VERTEX
  5
1614E
  8
0
 10
71.4838263072264226
 20
155.8009079497495861
 30
0.0
  0
VERTEX
  5
1614F
  8
0
 10
71.4494602542498569
 20
155.7888172601022063
 30
0.0
  0
VERTEX
  5
16150
  8
0
 10
71.4140611422353118
 20
155.7769153513756066
 30
0.0
  0
VERTEX
  5
16151
  8
0
 10
71.3776313881688793
 20
155.7652013260928072
 30
0.0
  0
VERTEX
  5
16152
  8
0
 10
71.3401705589151902
 20
155.7536748142483987
 30
0.0
  0
VERTEX
  5
16153
  8
0
 10
71.301675371217641
 20
155.7423359733066093
 30
0.0
  0
VERTEX
  5
16154
  8
0
 10
71.2621424179011456
 20
155.7311849836659121
 30
0.0
  0
VERTEX
  5
16155
  8
0
 10
71.2215682917908026
 20
155.7202220257242971
 30
0.0
  0
VERTEX
  5
16156
  8
0
 10
71.1799495857115829
 20
155.7094472798804077
 30
0.0
  0
VERTEX
  5
16157
  8
0
 10
71.1372828924884857
 20
155.6988609265320065
 30
0.0
  0
VERTEX
  5
16158
  8
0
 10
71.0935648049464817
 20
155.6884631460777086
 30
0.0
  0
VERTEX
  5
16159
  8
0
 10
71.0487868868150372
 20
155.678253598085405
 30
0.0
  0
VERTEX
  5
1615A
  8
0
 10
71.0029087822703104
 20
155.6682297500491927
 30
0.0
  0
VERTEX
  5
1615B
  8
0
 10
70.955959331854487
 20
155.6583984261017974
 30
0.0
  0
VERTEX
  5
1615C
  8
0
 10
70.9079845643036606
 20
155.6487684605301069
 30
0.0
  0
VERTEX
  5
1615D
  8
0
 10
70.8590305083536833
 20
155.6393486876210943
 30
0.0
  0
VERTEX
  5
1615E
  8
0
 10
70.8091431927407484
 20
155.6301479416619031
 30
0.0
  0
VERTEX
  5
1615F
  8
0
 10
70.758368646200779
 20
155.6211750569393075
 30
0.0
  0
VERTEX
  5
16160
  8
0
 10
70.7067528974698547
 20
155.6124388677403942
 30
0.0
  0
VERTEX
  5
16161
  8
0
 10
70.6543404971729387
 20
155.6039475833422046
 30
0.0
  0
VERTEX
  5
16162
  8
0
 10
70.6011324758604815
 20
155.595694047489701
 30
0.0
  0
VERTEX
  5
16163
  8
0
 10
70.5471181297678953
 20
155.5876736730687071
 30
0.0
  0
VERTEX
  5
16164
  8
0
 10
70.4922955654236887
 20
155.5798866915407075
 30
0.0
  0
VERTEX
  5
16165
  8
0
 10
70.4366628893561142
 20
155.5723333343674142
 30
0.0
  0
VERTEX
  5
16166
  8
0
 10
70.3802182080934813
 20
155.5650138330103971
 30
0.0
  0
VERTEX
  5
16167
  8
0
 10
70.3229596281641705
 20
155.5579284189313967
 30
0.0
  0
VERTEX
  5
16168
  8
0
 10
70.2648852560965906
 20
155.5510773235922102
 30
0.0
  0
VERTEX
  5
16169
  8
0
 10
70.2059931984189234
 20
155.5444607784542939
 30
0.0
  0
VERTEX
  5
1616A
  8
0
 10
70.1462815616596345
 20
155.5380790149793881
 30
0.0
  0
VERTEX
  5
1616B
  8
0
 10
70.0857484523469907
 20
155.5319322646292051
 30
0.0
  0
VERTEX
  5
1616C
  8
0
 10
70.0243919770093726
 20
155.5260207588653998
 30
0.0
  0
VERTEX
  5
1616D
  8
0
 10
69.9622102421751606
 20
155.5203447291495991
 30
0.0
  0
VERTEX
  5
1616E
  8
0
 10
69.8992013543725506
 20
155.5149044069434865
 30
0.0
  0
VERTEX
  5
1616F
  8
0
 10
69.8353634201300792
 20
155.5097000237086036
 30
0.0
  0
VERTEX
  5
16170
  8
0
 10
69.7706945459759282
 20
155.5047318109070034
 30
0.0
  0
VERTEX
  5
16171
  8
0
 10
69.7051928384385064
 20
155.5
 30
0.0
  0
SEQEND
  5
16172
  8
0
  0
POLYLINE
  5
14CC4
  8
0
 66
     1
 10
0.0
 20
0.0
 30
0.0
  0
VERTEX
  5
16173
  8
0
 10
67.0643253377056539
 20
155.5
 30
0.0
  0
VERTEX
  5
16174
  8
0
 10
67.0603049314097603
 20
155.5002369926147878
 30
0.0
  0
VERTEX
  5
16175
  8
0
 10
67.0562845159025755
 20
155.5004746504706077
 30
0.0
  0
VERTEX
  5
16176
  8
0
 10
67.0522640952347047
 20
155.500712973336789
 30
0.0
  0
VERTEX
  5
16177
  8
0
 10
67.048243673456966
 20
155.5009519609824906
 30
0.0
  0
VERTEX
  5
16178
  8
0
 10
67.0442232546199648
 20
155.5011916131767862
 30
0.0
  0
VERTEX
  5
16179
  8
0
 10
67.040202842774363
 20
155.5014319296890903
 30
0.0
  0
VERTEX
  5
1617A
  8
0
 10
67.0361824419709365
 20
155.5016729102883914
 30
0.0
  0
VERTEX
  5
1617B
  8
0
 10
67.0321620562603329
 20
155.5019145547439905
 30
0.0
  0
VERTEX
  5
1617C
  8
0
 10
67.0281416896932569
 20
155.5021568628253021
 30
0.0
  0
VERTEX
  5
1617D
  8
0
 10
67.024121346320328
 20
155.5023998343012011
 30
0.0
  0
VERTEX
  5
1617E
  8
0
 10
67.0201010301923361
 20
155.5026434689409882
 30
0.0
  0
VERTEX
  5
1617F
  8
0
 10
67.016080745359929
 20
155.5028877665139078
 30
0.0
  0
VERTEX
  5
16180
  8
0
 10
67.0120604958738113
 20
155.5031327267892038
 30
0.0
  0
VERTEX
  5
16181
  8
0
 10
67.0080402857846593
 20
155.5033783495360069
 30
0.0
  0
VERTEX
  5
16182
  8
0
 10
67.0040201191431493
 20
155.5036246345235043
 30
0.0
  0
VERTEX
  5
16183
  8
0
 10
66.9999999999999289
 20
155.5038715815209969
 30
0.0
  0
SEQEND
  5
16184
  8
0
  0
POLYLINE
  5
14CC5
  8
0
 66
     1
 10
0.0
 20
0.0
 30
0.0
  0
VERTEX
  5
16185
  8
0
 10
66.9999999999999289
 20
155.5038715815209969
 30
0.0
  0
VERTEX
  5
16186
  8
0
 10
65.9375
 20
155.5672922023505009
 30
0.0
  0
VERTEX
  5
16187
  8
0
 10
64.875
 20
155.6268254935766038
 30
0.0
  0
VERTEX
  5
16188
  8
0
 10
63.8125
 20
155.682443262214008
 30
0.0
  0
VERTEX
  5
16189
  8
0
 10
62.75
 20
155.7341173152780129
 30
0.0
  0
VERTEX
  5
1618A
  8
0
 10
61.6875
 20
155.7818194597834065
 30
0.0
  0
VERTEX
  5
1618B
  8
0
 10
60.625
 20
155.825521502745687
 30
0.0
  0
VERTEX
  5
1618C
  8
0
 10
59.5625
 20
155.8651952511796139
 30
0.0
  0
VERTEX
  5
1618D
  8
0
 10
58.5
 20
155.9008125121002877
 30
0.0
  0
VERTEX
  5
1618E
  8
0
 10
57.4375
 20
155.9323450925230077
 30
0.0
  0
VERTEX
  5
1618F
  8
0
 10
56.375
 20
155.9597647994625049
 30
0.0
  0
VERTEX
  5
16190
  8
0
 10
55.3125
 20
155.9830434399341925
 30
0.0
  0
VERTEX
  5
16191
  8
0
 10
54.25
 20
156.0021528209528867
 30
0.0
  0
VERTEX
  5
16192
  8
0
 10
53.1875
 20
156.0170647495338017
 30
0.0
  0
VERTEX
  5
16193
  8
0
 10
52.125
 20
156.0277510326920094
 30
0.0
  0
VERTEX
  5
16194
  8
0
 10
51.0625
 20
156.0341834774424967
 30
0.0
  0
VERTEX
  5
16195
  8
0
 10
49.9999999999999289
 20
156.0363338908003925
 30
0.0
  0
VERTEX
  5
16196
  8
0
 10
48.9374999999999289
 20
156.0341834774424967
 30
0.0
  0
VERTEX
  5
16197
  8
0
 10
47.8749999999999289
 20
156.0277510326920094
 30
0.0
  0
VERTEX
  5
16198
  8
0
 10
46.8124999999999432
 20
156.0170647495338869
 30
0.0
  0
VERTEX
  5
16199
  8
0
 10
45.7499999999999289
 20
156.0021528209528867
 30
0.0
  0
VERTEX
  5
1619A
  8
0
 10
44.6874999999999289
 20
155.9830434399341925
 30
0.0
  0
VERTEX
  5
1619B
  8
0
 10
43.6249999999999289
 20
155.9597647994625902
 30
0.0
  0
VERTEX
  5
1619C
  8
0
 10
42.5624999999999289
 20
155.9323450925230077
 30
0.0
  0
VERTEX
  5
1619D
  8
0
 10
41.4999999999999432
 20
155.9008125121004014
 30
0.0
  0
VERTEX
  5
1619E
  8
0
 10
40.4374999999999289
 20
155.8651952511796992
 30
0.0
  0
VERTEX
  5
1619F
  8
0
 10
39.3749999999999503
 20
155.825521502745687
 30
0.0
  0
VERTEX
  5
161A0
  8
0
 10
38.3124999999999503
 20
155.7818194597836055
 30
0.0
  0
VERTEX
  5
161A1
  8
0
 10
37.2499999999999432
 20
155.7341173152780129
 30
0.0
  0
VERTEX
  5
161A2
  8
0
 10
36.1874999999999503
 20
155.6824432622140932
 30
0.0
  0
VERTEX
  5
161A3
  8
0
 10
35.1249999999999432
 20
155.626825493576689
 30
0.0
  0
VERTEX
  5
161A4
  8
0
 10
34.0624999999999503
 20
155.5672922023506999
 30
0.0
  0
VERTEX
  5
161A5
  8
0
 10
32.9999999999999432
 20
155.5038715815211106
 30
0.0
  0
SEQEND
  5
161A6
  8
0
  0
POLYLINE
  5
14CC6
  8
0
 66
     1
 10
0.0
 20
0.0
 30
0.0
  0
VERTEX
  5
161A7
  8
0
 10
32.9999999999999432
 20
155.5038715815211106
 30
0.0
  0
VERTEX
  5
161A8
  8
0
 10
32.9959798808566802
 20
155.5036246345237032
 30
0.0
  0
VERTEX
  5
161A9
  8
0
 10
32.9919597142151133
 20
155.5033783495360069
 30
0.0
  0
VERTEX
  5
161AA
  8
0
 10
32.9879395041259116
 20
155.5031327267892891
 30
0.0
  0
VERTEX
  5
161AB
  8
0
 10
32.9839192546397229
 20
155.502887766513993
 30
0.0
  0
VERTEX
  5
161AC
  8
0
 10
32.9798989698072091
 20
155.5026434689411019
 30
0.0
  0
VERTEX
  5
161AD
  8
0
 10
32.9758786536791604
 20
155.5023998343012863
 30
0.0
  0
VERTEX
  5
161AE
  8
0
 10
32.9718583103062315
 20
155.5021568628253021
 30
0.0
  0
VERTEX
  5
161AF
  8
0
 10
32.9678379437390774
 20
155.5019145547439905
 30
0.0
  0
VERTEX
  5
161B0
  8
0
 10
32.9638175580284383
 20
155.5016729102885051
 30
0.0
  0
VERTEX
  5
161B1
  8
0
 10
32.9597971572249477
 20
155.5014319296890903
 30
0.0
  0
VERTEX
  5
161B2
  8
0
 10
32.9557767453793105
 20
155.5011916131767862
 30
0.0
  0
VERTEX
  5
161B3
  8
0
 10
32.9517563265422382
 20
155.5009519609824906
 30
0.0
  0
VERTEX
  5
161B4
  8
0
 10
32.9477359047644427
 20
155.500712973336789
 30
0.0
  0
VERTEX
  5
161B5
  8
0
 10
32.9437154840965221
 20
155.5004746504706077
 30
0.0
  0
VERTEX
  5
161B6
  8
0
 10
32.9396950685892875
 20
155.5002369926147878
 30
0.0
  0
VERTEX
  5
161B7
  8
0
 10
32.9356746622933088
 20
155.5
 30
0.0
  0
SEQEND
  5
161B8
  8
0
  0
POLYLINE
  5
14CC7
  8
0
 66
     1
 10
0.0
 20
0.0
 30
0.0
  0
VERTEX
  5
161B9
  8
0
 10
30.29480716156041
 20
155.5
 30
0.0
  0
VERTEX
  5
161BA
  8
0
 10
30.2348139004832284
 20
155.5043223942550128
 30
0.0
  0
VERTEX
  5
161BB
  8
0
 10
30.1755266187591396
 20
155.508842279225405
 30
0.0
  0
VERTEX
  5
161BC
  8
0
 10
30.1169435737205617
 20
155.5135594004624124
 30
0.0
  0
VERTEX
  5
161BD
  8
0
 10
30.0590630227001192
 20
155.5184735035169865
 30
0.0
  0
VERTEX
  5
161BE
  8
0
 10
30.0018832230303509
 20
155.5235843339403061
 30
0.0
  0
VERTEX
  5
161BF
  8
0
 10
29.9454024320437497
 20
155.528891637283408
 30
0.0
  0
VERTEX
  5
161C0
  8
0
 10
29.8896189070729292
 20
155.5343951590971869
 30
0.0
  0
VERTEX
  5
161C1
  8
0
 10
29.8345309054503787
 20
155.5400946449329922
 30
0.0
  0
VERTEX
  5
161C2
  8
0
 10
29.780136684508701
 20
155.5459898403416901
 30
0.0
  0
VERTEX
  5
161C3
  8
0
 10
29.7264345015803393
 20
155.5520804908744026
 30
0.0
  0
VERTEX
  5
161C4
  8
0
 10
29.6734226139979604
 20
155.5583663420823939
 30
0.0
  0
VERTEX
  5
161C5
  8
0
 10
29.6210992790940395
 20
155.5648471395165018
 30
0.0
  0
VERTEX
  5
161C6
  8
0
 10
29.5694627542011403
 20
155.5715226287277915
 30
0.0
  0
VERTEX
  5
161C7
  8
0
 10
29.5185112966517487
 20
155.5783925552674134
 30
0.0
  0
VERTEX
  5
161C8
  8
0
 10
29.4682431637784816
 20
155.5854566646864896
 30
0.0
  0
VERTEX
  5
161C9
  8
0
 10
29.4186566129138782
 20
155.592714702536
 30
0.0
  0
VERTEX
  5
161CA
  8
0
 10
29.3697499013904384
 20
155.6001664143670098
 30
0.0
  0
VERTEX
  5
161CB
  8
0
 10
29.3215196494649
 20
155.6078121116808006
 30
0.0
  0
VERTEX
  5
161CC
  8
0
 10
29.2739372289327093
 20
155.6156625347663862
 30
0.0
  0
VERTEX
  5
161CD
  8
0
 10
29.2270179363019409
 20
155.6237174552771023
 30
0.0
  0
VERTEX
  5
161CE
  8
0
 10
29.1807950886104699
 20
155.6319710270961139
 30
0.0
  0
VERTEX
  5
161CF
  8
0
 10
29.1353020028964202
 20
155.640417404107211
 30
0.0
  0
VERTEX
  5
161D0
  8
0
 10
29.0905719961977489
 20
155.6490507401937009
 30
0.0
  0
VERTEX
  5
161D1
  8
0
 10
29.0466383855525088
 20
155.6578651892394873
 30
0.0
  0
VERTEX
  5
161D2
  8
0
 10
29.00353448799871
 20
155.6668549051277068
 30
0.0
  0
VERTEX
  5
161D3
  8
0
 10
28.9612936205743416
 20
155.6760140417420075
 30
0.0
  0
VERTEX
  5
161D4
  8
0
 10
28.9199474053411905
 20
155.685336623727693
 30
0.0
  0
VERTEX
  5
161D5
  8
0
 10
28.8794999706701709
 20
155.6948172287686987
 30
0.0
  0
VERTEX
  5
161D6
  8
0
 10
28.8399458482756508
 20
155.7044549139862113
 30
0.0
  0
VERTEX
  5
161D7
  8
0
 10
28.8012819050855491
 20
155.7142494619469062
 30
0.0
  0
VERTEX
  5
161D8
  8
0
 10
28.7635050080276784
 20
155.7242006552176861
 30
0.0
  0
VERTEX
  5
161D9
  8
0
 10
28.7266120240297482
 20
155.7343082763653968
 30
0.0
  0
VERTEX
  5
161DA
  8
0
 10
28.6905998200196493
 20
155.7445721079567136
 30
0.0
  0
VERTEX
  5
161DB
  8
0
 10
28.6554652629252509
 20
155.7549919325585961
 30
0.0
  0
VERTEX
  5
161DC
  8
0
 10
28.6212052196742093
 20
155.7655675327378901
 30
0.0
  0
VERTEX
  5
161DD
  8
0
 10
28.5878166677987906
 20
155.7762987087922966
 30
0.0
  0
VERTEX
  5
161DE
  8
0
 10
28.5552988720944008
 20
155.7871856627401996
 30
0.0
  0
VERTEX
  5
161DF
  8
0
 10
28.5236532420444213
 20
155.7982289949354993
 30
0.0
  0
VERTEX
  5
161E0
  8
0
 10
28.4928812692213
 20
155.8094293227858032
 30
0.0
  0
VERTEX
  5
161E1
  8
0
 10
28.4629844451977192
 20
155.8207872636988895
 30
0.0
  0
VERTEX
  5
161E2
  8
0
 10
28.4339642615461194
 20
155.8323034350825935
 30
0.0
  0
VERTEX
  5
161E3
  8
0
 10
28.4058222098391298
 20
155.8439784543446081
 30
0.0
  0
VERTEX
  5
161E4
  8
0
 10
28.3785597816492405
 20
155.8558129388925977
 30
0.0
  0
VERTEX
  5
161E5
  8
0
 10
28.352178468549031
 20
155.8678075061343975
 30
0.0
  0
VERTEX
  5
161E6
  8
0
 10
28.3266843547575107
 20
155.8799624343390064
 30
0.0
  0
VERTEX
  5
161E7
  8
0
 10
28.3021008203506916
 20
155.8922730266021972
 30
0.0
  0
VERTEX
  5
161E8
  8
0
 10
28.2784412620727608
 20
155.9047308156297902
 30
0.0
  0
VERTEX
  5
161E9
  8
0
 10
28.2557176693587806
 20
155.917327241115089
 30
0.0
  0
VERTEX
  5
161EA
  8
0
 10
28.2339420316438883
 20
155.9300537427517952
 30
0.0
  0
VERTEX
  5
161EB
  8
0
 10
28.2131263383631712
 20
155.942901760232786
 30
0.0
  0
VERTEX
  5
161EC
  8
0
 10
28.1932825789517096
 20
155.9558627332515925
 30
0.0
  0
VERTEX
  5
161ED
  8
0
 10
28.1744227428446301
 20
155.9689281015014899
 30
0.0
  0
VERTEX
  5
161EE
  8
0
 10
28.1565588194770307
 20
155.9820893046758101
 30
0.0
  0
VERTEX
  5
161EF
  8
0
 10
28.1396866505605807
 20
155.9953433154624065
 30
0.0
  0
VERTEX
  5
161F0
  8
0
 10
28.1237730739710514
 20
156.0086996662008971
 30
0.0
  0
VERTEX
  5
161F1
  8
0
 10
28.1088172739733295
 20
156.0221592668131052
 30
0.0
  0
VERTEX
  5
161F2
  8
0
 10
28.0948201131189386
 20
156.0357225056590096
 30
0.0
  0
VERTEX
  5
161F3
  8
0
 10
28.0817824539591889
 20
156.0493897710985038
 30
0.0
  0
VERTEX
  5
161F4
  8
0
 10
28.0697051590456113
 20
156.0631614514915952
 30
0.0
  0
VERTEX
  5
161F5
  8
0
 10
28.0585890909295586
 20
156.0770379351984047
 30
0.0
  0
VERTEX
  5
161F6
  8
0
 10
28.0484351121625686
 20
156.0910196105785985
 30
0.0
  0
VERTEX
  5
161F7
  8
0
 10
28.0392440852958806
 20
156.1051068659924113
 30
0.0
  0
VERTEX
  5
161F8
  8
0
 10
28.0310168728810787
 20
156.1193000897997081
 30
0.0
  0
VERTEX
  5
161F9
  8
0
 10
28.0237543374695406
 20
156.133599670360411
 30
0.0
  0
VERTEX
  5
161FA
  8
0
 10
28.0174573416127188
 20
156.1480059960344136
 30
0.0
  0
VERTEX
  5
161FB
  8
0
 10
28.0121267478619984
 20
156.1625194551818083
 30
0.0
  0
VERTEX
  5
161FC
  8
0
 10
28.0077634187687785
 20
156.1771404361626878
 30
0.0
  0
VERTEX
  5
161FD
  8
0
 10
28.0043682168845294
 20
156.1918693273368035
 30
0.0
  0
VERTEX
  5
161FE
  8
0
 10
28.0019420047607284
 20
156.2067065170641058
 30
0.0
  0
VERTEX
  5
161FF
  8
0
 10
28.0004856449487001
 20
156.2216523937046873
 30
0.0
  0
VERTEX
  5
16200
  8
0
 10
27.9999999999999396
 20
156.2367073456184983
 30
0.0
  0
SEQEND
  5
16201
  8
0
  0
POLYLINE
  5
14CC8
  8
0
 66
     1
 10
0.0
 20
0.0
 30
0.0
  0
VERTEX
  5
16202
  8
0
 10
27.9999999999999396
 20
156.2367073456184983
 30
0.0
  0
VERTEX
  5
16203
  8
0
 10
27.9999999999999396
 20
156.3734594677852101
 30
0.0
  0
VERTEX
  5
16204
  8
0
 10
27.9999999999999396
 20
156.5100132183841026
 30
0.0
  0
VERTEX
  5
16205
  8
0
 10
27.9999999999999396
 20
156.64636146694491
 30
0.0
  0
VERTEX
  5
16206
  8
0
 10
27.9999999999999396
 20
156.7824970829967128
 30
0.0
  0
VERTEX
  5
16207
  8
0
 10
27.9999999999999396
 20
156.9184129360689894
 30
0.0
  0
VERTEX
  5
16208
  8
0
 10
27.9999999999999396
 20
157.0541018956911046
 30
0.0
  0
VERTEX
  5
16209
  8
0
 10
27.9999999999999396
 20
157.1895568313923945
 30
0.0
  0
VERTEX
  5
1620A
  8
0
 10
27.9999999999999396
 20
157.3247706127023946
 30
0.0
  0
VERTEX
  5
1620B
  8
0
 10
27.9999999999999396
 20
157.4597361091504126
 30
0.0
  0
VERTEX
  5
1620C
  8
0
 10
27.9999999999999396
 20
157.5944461902658986
 30
0.0
  0
VERTEX
  5
1620D
  8
0
 10
27.9999999999999396
 20
157.7288937255779899
 30
0.0
  0
SEQEND
  5
1620E
  8
0
  0
POLYLINE
  5
14CC9
  8
0
 66
     1
 10
0.0
 20
0.0
 30
0.0
  0
VERTEX
  5
1620F
  8
0
 10
27.9999999999999396
 20
157.7288937255779899
 30
0.0
  0
VERTEX
  5
16210
  8
0
 10
27.9943444175854808
 20
157.7519960179151894
 30
0.0
  0
VERTEX
  5
16211
  8
0
 10
27.9882719799882693
 20
157.7750471939139061
 30
0.0
  0
VERTEX
  5
16212
  8
0
 10
27.9813658320257517
 20
157.7979961372357138
 30
0.0
  0
VERTEX
  5
16213
  8
0
 10
27.9732091185150615
 20
157.8207917315421014
 30
0.0
  0
VERTEX
  5
16214
  8
0
 10
27.9633849842735991
 20
157.8433828604948133
 30
0.0
  0
VERTEX
  5
16215
  8
0
 10
27.9514765741186615
 20
157.865718407755196
 30
0.0
  0
VERTEX
  5
16216
  8
0
 10
27.9370670328675601
 20
157.887747256984909
 30
0.0
  0
VERTEX
  5
16217
  8
0
 10
27.9197497445573504
 20
157.9094191466600137
 30
0.0
  0
VERTEX
  5
16218
  8
0
 10
27.8993631848403609
 20
157.9307042765657059
 30
0.0
  0
VERTEX
  5
16219
  8
0
 10
27.8759963699446409
 20
157.9515937626999005
 30
0.0
  0
VERTEX
  5
1621A
  8
0
 10
27.8497496452752706
 20
157.9720796668690923
 30
0.0
  0
VERTEX
  5
1621B
  8
0
 10
27.8207233562374086
 20
157.9921540508796909
 30
0.0
  0
VERTEX
  5
1621C
  8
0
 10
27.7890178482362593
 20
158.0118089765383047
 30
0.0
  0
VERTEX
  5
1621D
  8
0
 10
27.7547334666770098
 20
158.0310365056512865
 30
0.0
  0
VERTEX
  5
1621E
  8
0
 10
27.7179705569647616
 20
158.0498287000251878
 30
0.0
  0
VERTEX
  5
1621F
  8
0
 10
27.6788209372120413
 20
158.0681793434137887
 30
0.0
  0
VERTEX
  5
16220
  8
0
 10
27.637340645810081
 20
158.0860894446994962
 30
0.0
  0
VERTEX
  5
16221
  8
0
 10
27.5935763383293384
 20
158.1035619074721126
 30
0.0
  0
VERTEX
  5
16222
  8
0
 10
27.5475746703040194
 20
158.1205996353286025
 30
0.0
  0
VERTEX
  5
16223
  8
0
 10
27.4993822972681983
 20
158.1372055318659022
 30
0.0
  0
VERTEX
  5
16224
  8
0
 10
27.4490458747561696
 20
158.1533825006810901
 30
0.0
  0
VERTEX
  5
16225
  8
0
 10
27.3966120583020292
 20
158.1691334453711022
 30
0.0
  0
VERTEX
  5
16226
  8
0
 10
27.3421242944333507
 20
158.1844600681924931
 30
0.0
  0
VERTEX
  5
16227
  8
0
 10
27.2855396379393405
 20
158.1993317293434131
 30
0.0
  0
VERTEX
  5
16228
  8
0
 10
27.2267211218697298
 20
158.2136825905562034
 30
0.0
  0
VERTEX
  5
16229
  8
0
 10
27.1655270408398408
 20
158.2274450396587895
 30
0.0
  0
VERTEX
  5
1622A
  8
0
 10
27.10181568946496
 20
158.2405514644788127
 30
0.0
  0
VERTEX
  5
1622B
  8
0
 10
27.0354453623604094
 20
158.2529342528438008
 30
0.0
  0
VERTEX
  5
1622C
  8
0
 10
26.9662743541415608
 20
158.2645257925815088
 30
0.0
  0
VERTEX
  5
1622D
  8
0
 10
26.8941609594237399
 20
158.2752584715198054
 30
0.0
  0
VERTEX
  5
1622E
  8
0
 10
26.8190736513944294
 20
158.2851014131929901
 30
0.0
  0
VERTEX
  5
1622F
  8
0
 10
26.7414897606583999
 20
158.2941934042239893
 30
0.0
  0
VERTEX
  5
16230
  8
0
 10
26.6620334223972613
 20
158.3027221787741894
 30
0.0
  0
VERTEX
  5
16231
  8
0
 10
26.5813287857860701
 20
158.3108754756704002
 30
0.0
  0
VERTEX
  5
16232
  8
0
 10
26.4999999999998899
 20
158.3188410337398011
 30
0.0
  0
SEQEND
  5
16233
  8
0
  0
POLYLINE
  5
14CCA
  8
0
 66
     1
 10
0.0
 20
0.0
 30
0.0
  0
VERTEX
  5
16234
  8
0
 10
13.0000007138911506
 20
156.8737609996211972
 30
0.0
  0
VERTEX
  5
16235
  8
0
 10
12.9265261513909309
 20
156.863004644914696
 30
0.0
  0
VERTEX
  5
16236
  8
0
 10
12.8532071268137997
 20
156.8524480102811083
 30
0.0
  0
VERTEX
  5
16237
  8
0
 10
12.7800433701018505
 20
156.8420902962508023
 30
0.0
  0
VERTEX
  5
16238
  8
0
 10
12.7070346111970593
 20
156.8319307033538053
 30
0.0
  0
VERTEX
  5
16239
  8
0
 10
12.6341805800414608
 20
156.8219684321203999
 30
0.0
  0
VERTEX
  5
1623A
  8
0
 10
12.5614810065770808
 20
156.8122026830806135
 30
0.0
  0
VERTEX
  5
1623B
  8
0
 10
12.4889356207459592
 20
156.8026326567648994
 30
0.0
  0
VERTEX
  5
1623C
  8
0
 10
12.4165441524901308
 20
156.7932575537033131
 30
0.0
  0
VERTEX
  5
1623D
  8
0
 10
12.3443063317515698
 20
156.7840765744259954
 30
0.0
  0
VERTEX
  5
1623E
  8
0
 10
12.2722218884723606
 20
156.7750889194632009
 30
0.0
  0
VERTEX
  5
1623F
  8
0
 10
12.2002905525945398
 20
156.7662937893450987
 30
0.0
  0
VERTEX
  5
16240
  8
0
 10
12.1285120540600797
 20
156.7576903846018013
 30
0.0
  0
VERTEX
  5
16241
  8
0
 10
12.0568861228110205
 20
156.7492779057635914
 30
0.0
  0
VERTEX
  5
16242
  8
0
 10
11.9854127364962402
 20
156.7410558889702088
 30
0.0
  0
VERTEX
  5
16243
  8
0
 10
11.9140929917453509
 20
156.7330253696530065
 30
0.0
  0
VERTEX
  5
16244
  8
0
 10
11.8429276735995508
 20
156.7251869406321987
 30
0.0
  0
VERTEX
  5
16245
  8
0
 10
11.7719175011077404
 20
156.7175411044237023
 30
0.0
  0
VERTEX
  5
16246
  8
0
 10
11.7010631933188094
 20
156.7100883635436048
 30
0.0
  0
VERTEX
  5
16247
  8
0
 10
11.6303654692816796
 20
156.7028292205079083
 30
0.0
  0
VERTEX
  5
16248
  8
0
 10
11.5598250480452407
 20
156.6957641778325865
 30
0.0
  0
VERTEX
  5
16249
  8
0
 10
11.4894356211141808
 20
156.6888941354220037
 30
0.0
  0
VERTEX
  5
1624A
  8
0
 10
11.4192361543160192
 20
156.6822238486975039
 30
0.0
  0
VERTEX
  5
1624B
  8
0
 10
11.3493026951298894
 20
156.6757598082510867
 30
0.0
  0
VERTEX
  5
1624C
  8
0
 10
11.2797113713625095
 20
156.669508506808512
 30
0.0
  0
VERTEX
  5
1624D
  8
0
 10
11.2105383108207608
 20
156.6634764370953121
 30
0.0
  0
VERTEX
  5
1624E
  8
0
 10
11.1418596413114397
 20
156.6576700918369909
 30
0.0
  0
VERTEX
  5
1624F
  8
0
 10
11.0737474784310095
 20
156.6520954978396105
 30
0.0
  0
VERTEX
  5
16250
  8
0
 10
11.0061698626465692
 20
156.6467471573502905
 30
0.0
  0
VERTEX
  5
16251
  8
0
 10
10.9390978427644008
 20
156.6416213137638067
 30
0.0
  0
VERTEX
  5
16252
  8
0
 10
10.8725314427500095
 20
156.6367177772644084
 30
0.0
  0
VERTEX
  5
16253
  8
0
 10
10.8064706865690692
 20
156.632036358036089
 30
0.0
  0
VERTEX
  5
16254
  8
0
 10
10.7409155981872004
 20
156.6275768662628991
 30
0.0
  0
VERTEX
  5
16255
  8
0
 10
10.6758662015699297
 20
156.6233391121292016
 30
0.0
  0
VERTEX
  5
16256
  8
0
 10
10.6113225206829007
 20
156.619322905818791
 30
0.0
  0
VERTEX
  5
16257
  8
0
 10
10.5472845794917003
 20
156.615528057516002
 30
0.0
  0
VERTEX
  5
16258
  8
0
 10
10.4837524019619597
 20
156.6119543774047997
 30
0.0
  0
VERTEX
  5
16259
  8
0
 10
10.4207260120592196
 20
156.608601675669405
 30
0.0
  0
VERTEX
  5
1625A
  8
0
 10
10.3582054337491591
 20
156.6054697624938115
 30
0.0
  0
VERTEX
  5
1625B
  8
0
 10
10.2961906909972605
 20
156.6025584480622115
 30
0.0
  0
VERTEX
  5
1625C
  8
0
 10
10.2346818077692205
 20
156.5998675425585986
 30
0.0
  0
VERTEX
  5
1625D
  8
0
 10
10.1736747407259092
 20
156.5973991379399024
 30
0.0
  0
VERTEX
  5
1625E
  8
0
 10
10.1131813252436604
 20
156.5951570314645949
 30
0.0
  0
VERTEX
  5
1625F
  8
0
 10
10.0532326289396696
 20
156.5931416839420081
 30
0.0
  0
VERTEX
  5
16260
  8
0
 10
9.9938598837080672
 20
156.5913535111913859
 30
0.0
  0
VERTEX
  5
16261
  8
0
 10
9.9350943214429872
 20
156.5897929290325976
 30
0.0
  0
VERTEX
  5
16262
  8
0
 10
9.8769671740384979
 20
156.5884603532850861
 30
0.0
  0
VERTEX
  5
16263
  8
0
 10
9.8195096733887812
 20
156.5873561997684078
 30
0.0
  0
VERTEX
  5
16264
  8
0
 10
9.7627530513879037
 20
156.5864808843024036
 30
0.0
  0
VERTEX
  5
16265
  8
0
 10
9.7067285399300545
 20
156.5858348227064027
 30
0.0
  0
VERTEX
  5
16266
  8
0
 10
9.6514673709092431
 20
156.5854184308001038
 30
0.0
  0
VERTEX
  5
16267
  8
0
 10
9.5970007762196552
 20
156.5852321244030065
 30
0.0
  0
VERTEX
  5
16268
  8
0
 10
9.5433599877554212
 20
156.5852763193348949
 30
0.0
  0
VERTEX
  5
16269
  8
0
 10
9.4905762374106644
 20
156.585551431415098
 30
0.0
  0
VERTEX
  5
1626A
  8
0
 10
9.4386662976352795
 20
156.5860570389540101
 30
0.0
  0
VERTEX
  5
1626B
  8
0
 10
9.3875635581030696
 20
156.5867885927424084
 30
0.0
  0
VERTEX
  5
1626C
  8
0
 10
9.337256461512764
 20
156.5877458244949878
 30
0.0
  0
VERTEX
  5
1626D
  8
0
 10
9.2877466782789462
 20
156.5889293101049873
 30
0.0
  0
VERTEX
  5
1626E
  8
0
 10
9.2390358788163081
 20
156.5903396254662994
 30
0.0
  0
VERTEX
  5
1626F
  8
0
 10
9.1911257335393621
 20
156.591977346472305
 30
0.0
  0
VERTEX
  5
16270
  8
0
 10
9.1440179128627506
 20
156.593843049016499
 30
0.0
  0
VERTEX
  5
16271
  8
0
 10
9.0977140872010391
 20
156.5959373089926032
 30
0.0
  0
VERTEX
  5
16272
  8
0
 10
9.0522159269689286
 20
156.5982607022941977
 30
0.0
  0
VERTEX
  5
16273
  8
0
 10
9.0075251025809262
 20
156.6008138048148055
 30
0.0
  0
VERTEX
  5
16274
  8
0
 10
8.9636432844516172
 20
156.6035971924478076
 30
0.0
  0
VERTEX
  5
16275
  8
0
 10
8.9205721429957521
 20
156.6066114410872103
 30
0.0
  0
VERTEX
  5
16276
  8
0
 10
8.8783133486277848
 20
156.6098571266261104
 30
0.0
  0
VERTEX
  5
16277
  8
0
 10
8.8368697602884332
 20
156.6133347465421082
 30
0.0
  0
VERTEX
  5
16278
  8
0
 10
8.7963360576412661
 20
156.6170383605310121
 30
0.0
  0
VERTEX
  5
16279
  8
0
 10
8.7567734070436245
 20
156.620963048890502
 30
0.0
  0
VERTEX
  5
1627A
  8
0
 10
8.7181849211035551
 20
156.625107492503588
 30
0.0
  0
VERTEX
  5
1627B
  8
0
 10
8.6805737124292932
 20
156.6294703722531949
 30
0.0
  0
VERTEX
  5
1627C
  8
0
 10
8.6439428936288891
 20
156.6340503690225034
 30
0.0
  0
VERTEX
  5
1627D
  8
0
 10
8.6082955773105141
 20
156.6388461636944953
 30
0.0
  0
VERTEX
  5
1627E
  8
0
 10
8.5736348760822807
 20
156.643856437152408
 30
0.0
  0
VERTEX
  5
1627F
  8
0
 10
8.5399639025523015
 20
156.6490798702791949
 30
0.0
  0
VERTEX
  5
16280
  8
0
 10
8.507285769328746
 20
156.6545151439580081
 30
0.0
  0
VERTEX
  5
16281
  8
0
 10
8.4756035890196664
 20
156.660160939072
 30
0.0
  0
VERTEX
  5
16282
  8
0
 10
8.4449204742332995
 20
156.6660159365040954
 30
0.0
  0
VERTEX
  5
16283
  8
0
 10
8.4152395375777473
 20
156.6720788171375034
 30
0.0
  0
VERTEX
  5
16284
  8
0
 10
8.3865638916610692
 20
156.678348261855291
 30
0.0
  0
VERTEX
  5
16285
  8
0
 10
8.3588836013397554
 20
156.6848272729149016
 30
0.0
  0
VERTEX
  5
16286
  8
0
 10
8.3321727000827064
 20
156.6915246723791029
 30
0.0
  0
VERTEX
  5
16287
  8
0
 10
8.3064383091087262
 20
156.698438802771193
 30
0.0
  0
VERTEX
  5
16288
  8
0
 10
8.2816890568431631
 20
156.7055675178459921
 30
0.0
  0
VERTEX
  5
16289
  8
0
 10
8.2579335717113622
 20
156.7129086713580932
 30
0.0
  0
VERTEX
  5
1628A
  8
0
 10
8.2351804821387873
 20
156.720460117062288
 30
0.0
  0
VERTEX
  5
1628B
  8
0
 10
8.2134384165507281
 20
156.7282197087133113
 30
0.0
  0
VERTEX
  5
1628C
  8
0
 10
8.1927160033726523
 20
156.7361853000658982
 30
0.0
  0
VERTEX
  5
1628D
  8
0
 10
8.1730218710297891
 20
156.7443547448746983
 30
0.0
  0
VERTEX
  5
1628E
  8
0
 10
8.1543646479476593
 20
156.7527258968945034
 30
0.0
  0
VERTEX
  5
1628F
  8
0
 10
8.1367529625515544
 20
156.7612966098799916
 30
0.0
  0
VERTEX
  5
16290
  8
0
 10
8.1201954432668781
 20
156.7700647375858978
 30
0.0
  0
VERTEX
  5
16291
  8
0
 10
8.1047007185190392
 20
156.7790281337670137
 30
0.0
  0
VERTEX
  5
16292
  8
0
 10
8.0902767418592134
 20
156.7881837950208137
 30
0.0
  0
VERTEX
  5
16293
  8
0
 10
8.0769223765685183
 20
156.7975214300458902
 30
0.0
  0
VERTEX
  5
16294
  8
0
 10
8.0646363168451671
 20
156.8070389073353965
 30
0.0
  0
VERTEX
  5
16295
  8
0
 10
8.0534185702859418
 20
156.8167366432080883
 30
0.0
  0
VERTEX
  5
16296
  8
0
 10
8.0432691444875672
 20
156.8266150539828061
 30
0.0
  0
VERTEX
  5
16297
  8
0
 10
8.0341880470467082
 20
156.8366745559785898
 30
0.0
  0
VERTEX
  5
16298
  8
0
 10
8.0261752855601571
 20
156.8469155655139105
 30
0.0
  0
VERTEX
  5
16299
  8
0
 10
8.0192308676246267
 20
156.8573384989076089
 30
0.0
  0
VERTEX
  5
1629A
  8
0
 10
8.0133548008369075
 20
156.8679437724788954
 30
0.0
  0
VERTEX
  5
1629B
  8
0
 10
8.0085470927936058
 20
156.878731802546298
 30
0.0
  0
VERTEX
  5
1629C
  8
0
 10
8.0048077510915618
 20
156.8897030054286006
 30
0.0
  0
VERTEX
  5
1629D
  8
0
 10
8.0021367833274422
 20
156.900857797444786
 30
0.0
  0
VERTEX
  5
1629E
  8
0
 10
8.0005341970979771
 20
156.912196594913496
 30
0.0
  0
VERTEX
  5
1629F
  8
0
 10
7.9999999999999423
 20
156.9237198141537135
 30
0.0
  0
SEQEND
  5
162A0
  8
0
  0
POLYLINE
  5
14CCB
  8
0
 66
     1
 10
0.0
 20
0.0
 30
0.0
 70
     1
  0
VERTEX
  5
162A1
  8
0
 10
56.9999999999997726
 20
158.0068837498446896
 30
0.0
  0
VERTEX
  5
162A2
  8
0
 10
56.9998520357273009
 20
158.0124791020849102
 30
0.0
  0
VERTEX
  5
162A3
  8
0
 10
56.9994086638741422
 20
158.018071799825691
 30
0.0
  0
VERTEX
  5
162A4
  8
0
 10
56.9986706658863724
 20
158.0236618531914132
 30
0.0
  0
VERTEX
  5
162A5
  8
0
 10
56.9976388232104867
 20
158.0292492723062026
 30
0.0
  0
VERTEX
  5
162A6
  8
0
 10
56.9963139172925111
 20
158.0348340672942982
 30
0.0
  0
VERTEX
  5
162A7
  8
0
 10
56.9946967295788909
 20
158.0404162482799109
 30
0.0
  0
VERTEX
  5
162A8
  8
0
 10
56.992788041515837
 20
158.0459958253871946
 30
0.0
  0
VERTEX
  5
162A9
  8
0
 10
56.9905886345495105
 20
158.0515728087403033
 30
0.0
  0
VERTEX
  5
162AA
  8
0
 10
56.9880992901262928
 20
158.057147208463789
 30
0.0
  0
VERTEX
  5
162AB
  8
0
 10
56.985320789692409
 20
158.0627190346812938
 30
0.0
  0
VERTEX
  5
162AC
  8
0
 10
56.9822539146941409
 20
158.0682882975173982
 30
0.0
  0
VERTEX
  5
162AD
  8
0
 10
56.9788994465776568
 20
158.0738550070961139
 30
0.0
  0
VERTEX
  5
162AE
  8
0
 10
56.975258166789267
 20
158.0794191735417087
 30
0.0
  0
VERTEX
  5
162AF
  8
0
 10
56.971330856775289
 20
158.084980806978308
 30
0.0
  0
VERTEX
  5
162B0
  8
0
 10
56.9671182979819335
 20
158.090539917530208
 30
0.0
  0
VERTEX
  5
162B1
  8
0
 10
56.9626212718554186
 20
158.0960965153217046
 30
0.0
  0
VERTEX
  5
162B2
  8
0
 10
56.9578347283274979
 20
158.1016536263223031
 30
0.0
  0
VERTEX
  5
162B3
  8
0
 10
56.9527539510856471
 20
158.1072133061381066
 30
0.0
  0
VERTEX
  5
162B4
  8
0
 10
56.947380222209631
 20
158.1127741093474128
 30
0.0
  0
VERTEX
  5
162B5
  8
0
 10
56.9417148237794208
 20
158.1183345905290878
 30
0.0
  0
VERTEX
  5
162B6
  8
0
 10
56.9357590378747176
 20
158.1238933042610881
 30
0.0
  0
VERTEX
  5
162B7
  8
0
 10
56.9295141465754568
 20
158.1294488051221094
 30
0.0
  0
VERTEX
  5
162B8
  8
0
 10
56.9229814319614817
 20
158.1349996476903925
 30
0.0
  0
VERTEX
  5
162B9
  8
0
 10
56.9161621761126071
 20
158.1405443865446898
 30
0.0
  0
VERTEX
  5
162BA
  8
0
 10
56.9090576611086902
 20
158.1460815762632137
 30
0.0
  0
VERTEX
  5
162BB
  8
0
 10
56.9016691690295602
 20
158.151609771424404
 30
0.0
  0
VERTEX
  5
162BC
  8
0
 10
56.8939979819551311
 20
158.1571275266068142
 30
0.0
  0
VERTEX
  5
162BD
  8
0
 10
56.8860453819651823
 20
158.1626333963889124
 30
0.0
  0
VERTEX
  5
162BE
  8
0
 10
56.8778126511395428
 20
158.1681259353489111
 30
0.0
  0
VERTEX
  5
162BF
  8
0
 10
56.8693010715581408
 20
158.1736036980655058
 30
0.0
  0
VERTEX
  5
162C0
  8
0
 10
56.8605119253007771
 20
158.179065239116909
 30
0.0
  0
VERTEX
  5
162C1
  8
0
 10
56.8514464944473019
 20
158.1845091130817877
 30
0.0
  0
VERTEX
  5
162C2
  8
0
 10
56.8421139159935933
 20
158.1899312987347912
 30
0.0
  0
VERTEX
  5
162C3
  8
0
 10
56.8325225703151204
 20
158.1953287282435099
 30
0.0
  0
VERTEX
  5
162C4
  8
0
 10
56.8226726045609212
 20
158.200701386275199
 30
0.0
  0
VERTEX
  5
162C5
  8
0
 10
56.8125641658800689
 20
158.2060492574973978
 30
0.0
  0
VERTEX
  5
162C6
  8
0
 10
56.8021974014217221
 20
158.2113723265773899
 30
0.0
  0
VERTEX
  5
162C7
  8
0
 10
56.791572458334997
 20
158.2166705781826863
 30
0.0
  0
VERTEX
  5
162C8
  8
0
 10
56.7806894837689313
 20
158.2219439969807127
 30
0.0
  0
VERTEX
  5
162C9
  8
0
 10
56.76954862487257
 20
158.2271925676386957
 30
0.0
  0
VERTEX
  5
162CA
  8
0
 10
56.7581500287951712
 20
158.2324162748240894
 30
0.0
  0
VERTEX
  5
162CB
  8
0
 10
56.7464938426857017
 20
158.2376151032044902
 30
0.0
  0
VERTEX
  5
162CC
  8
0
 10
56.7345802136932704
 20
158.242789037447011
 30
0.0
  0
VERTEX
  5
162CD
  8
0
 10
56.7224092889670715
 20
158.2479380622193901
 30
0.0
  0
VERTEX
  5
162CE
  8
0
 10
56.7099812156561001
 20
158.2530621621887974
 30
0.0
  0
VERTEX
  5
162CF
  8
0
 10
56.6972961409094793
 20
158.258161322022687
 30
0.0
  0
VERTEX
  5
162D0
  8
0
 10
56.6843542118763111
 20
158.2632355263885131
 30
0.0
  0
VERTEX
  5
162D1
  8
0
 10
56.6711555757057113
 20
158.2682847599535023
 30
0.0
  0
VERTEX
  5
162D2
  8
0
 10
56.657688737149499
 20
158.2733114194188886
 30
0.0
  0
VERTEX
  5
162D3
  8
0
 10
56.64394581810636
 20
158.2783166347632005
 30
0.0
  0
VERTEX
  5
162D4
  8
0
 10
56.6299323914455428
 20
158.2832984905703029
 30
0.0
  0
VERTEX
  5
162D5
  8
0
 10
56.6156540300363531
 20
158.288255071423805
 30
0.0
  0
VERTEX
  5
162D6
  8
0
 10
56.6011163067481604
 20
158.2931844619077992
 30
0.0
  0
VERTEX
  5
162D7
  8
0
 10
56.5863247944501495
 20
158.2980847466058094
 30
0.0
  0
VERTEX
  5
162D8
  8
0
 10
56.5712850660117397
 20
158.3029540101020984
 30
0.0
  0
VERTEX
  5
162D9
  8
0
 10
56.5560026943021512
 20
158.3077903369801049
 30
0.0
  0
VERTEX
  5
162DA
  8
0
 10
56.540483252190711
 20
158.3125918118238076
 30
0.0
  0
VERTEX
  5
162DB
  8
0
 10
56.5247323125467389
 20
158.317356519216986
 30
0.0
  0
VERTEX
  5
162DC
  8
0
 10
56.5087554482395333
 20
158.3220825437433916
 30
0.0
  0
VERTEX
  5
162DD
  8
0
 10
56.4925582321383075
 20
158.326767969987003
 30
0.0
  0
VERTEX
  5
162DE
  8
0
 10
56.4761462371125234
 20
158.3314108825315998
 30
0.0
  0
VERTEX
  5
162DF
  8
0
 10
56.459525036031323
 20
158.3360093659609049
 30
0.0
  0
VERTEX
  5
162E0
  8
0
 10
56.4256773071801305
 20
158.3450653838091
 30
0.0
  0
VERTEX
  5
162E1
  8
0
 10
56.3910417862104367
 20
158.3539321160075133
 30
0.0
  0
VERTEX
  5
162E2
  8
0
 10
56.3556140500897413
 20
158.3626152816887895
 30
0.0
  0
VERTEX
  5
162E3
  8
0
 10
56.3193919362854629
 20
158.3711139975096955
 30
0.0
  0
VERTEX
  5
162E4
  8
0
 10
56.2823732822650413
 20
158.3794273801260033
 30
0.0
  0
VERTEX
  5
162E5
  8
0
 10
56.2445559254958312
 20
158.3875545461941101
 30
0.0
  0
VERTEX
  5
162E6
  8
0
 10
56.2059377034452083
 20
158.3954946123702996
 30
0.0
  0
VERTEX
  5
162E7
  8
0
 10
56.1665164535805417
 20
158.4032466953107985
 30
0.0
  0
VERTEX
  5
162E8
  8
0
 10
56.126290013369271
 20
158.4108099116718051
 30
0.0
  0
VERTEX
  5
162E9
  8
0
 10
56.0852552394311274
 20
158.4181787618286137
 30
0.0
  0
VERTEX
  5
162EA
  8
0
 10
56.0434519311643271
 20
158.4253417471502985
 30
0.0
  0
VERTEX
  5
162EB
  8
0
 10
56.0009423402035935
 20
158.4322889857843961
 30
0.0
  0
VERTEX
  5
162EC
  8
0
 10
55.9577887181837923
 20
158.4390105958781021
 30
0.0
  0
VERTEX
  5
162ED
  8
0
 10
55.9140533167396185
 20
158.4454966955786119
 30
0.0
  0
VERTEX
  5
162EE
  8
0
 10
55.8697983875060089
 20
158.4517374030332917
 30
0.0
  0
VERTEX
  5
162EF
  8
0
 10
55.8250861821176088
 20
158.4577228363893937
 30
0.0
  0
VERTEX
  5
162F0
  8
0
 10
55.7799789522093832
 20
158.4634431137943125
 30
0.0
  0
VERTEX
  5
162F1
  8
0
 10
55.7344144061811875
 20
158.4689026820649929
 30
0.0
  0
VERTEX
  5
162F2
  8
0
 10
55.6883147689289189
 20
158.4741103287223041
 30
0.0
  0
VERTEX
  5
162F3
  8
0
 10
55.6417190668311719
 20
158.4790626829687028
 30
0.0
  0
VERTEX
  5
162F4
  8
0
 10
55.5946663262664131
 20
158.4837563740067878
 30
0.0
  0
VERTEX
  5
162F5
  8
0
 10
55.547195573613287
 20
158.4881880310391864
 30
0.0
  0
VERTEX
  5
162F6
  8
0
 10
55.499345835250331
 20
158.4923542832682983
 30
0.0
  0
VERTEX
  5
162F7
  8
0
 10
55.4511561375560902
 20
158.496251759896694
 30
0.0
  0
VERTEX
  5
162F8
  8
0
 10
55.4026655069091092
 20
158.4998770901270859
 30
0.0
  0
VERTEX
  5
162F9
  8
0
 10
55.3539129696879328
 20
158.5032269031619023
 30
0.0
  0
VERTEX
  5
162FA
  8
0
 10
55.3049375522711628
 20
158.5062978282037989
 30
0.0
  0
VERTEX
  5
162FB
  8
0
 10
55.255778281037351
 20
158.5090864944550049
 30
0.0
  0
VERTEX
  5
162FC
  8
0
 10
55.2064741823649996
 20
158.5115895311186023
 30
0.0
  0
VERTEX
  5
162FD
  8
0
 10
55.1570642826326889
 20
158.5138035673969057
 30
0.0
  0
VERTEX
  5
162FE
  8
0
 10
55.1075876082190419
 20
158.5157252324922865
 30
0.0
  0
VERTEX
  5
162FF
  8
0
 10
55.0580831855025323
 20
158.5173511556075141
 30
0.0
  0
VERTEX
  5
16300
  8
0
 10
55.0085900408617618
 20
158.518677965945102
 30
0.0
  0
VERTEX
  5
16301
  8
0
 10
54.9590384444827009
 20
158.5197073998768929
 30
0.0
  0
VERTEX
  5
16302
  8
0
 10
54.9093742480025568
 20
158.5204429278635132
 30
0.0
  0
VERTEX
  5
16303
  8
0
 10
54.8596598499767083
 20
158.5208837802389894
 30
0.0
  0
VERTEX
  5
16304
  8
0
 10
54.8099576489603919
 20
158.5210291873382005
 30
0.0
  0
VERTEX
  5
16305
  8
0
 10
54.7603300435089295
 20
158.5208783794957128
 30
0.0
  0
VERTEX
  5
16306
  8
0
 10
54.710839432177572
 20
158.5204305870460075
 30
0.0
  0
VERTEX
  5
16307
  8
0
 10
54.6615482135217121
 20
158.5196850403237931
 30
0.0
  0
VERTEX
  5
16308
  8
0
 10
54.6125187860965795
 20
158.5186409696636076
 30
0.0
  0
VERTEX
  5
16309
  8
0
 10
54.5638351757788698
 20
158.5173026565599059
 30
0.0
  0
VERTEX
  5
1630A
  8
0
 10
54.515539324609172
 20
158.5156753671851959
 30
0.0
  0
VERTEX
  5
1630B
  8
0
 10
54.4676305053885699
 20
158.5137598088911943
 30
0.0
  0
VERTEX
  5
1630C
  8
0
 10
54.4201079909183889
 20
158.5115566890293906
 30
0.0
  0
VERTEX
  5
1630D
  8
0
 10
54.37297105399972
 20
158.5090667149517003
 30
0.0
  0
VERTEX
  5
1630E
  8
0
 10
54.3262189674337606
 20
158.5062905940096982
 30
0.0
  0
VERTEX
  5
1630F
  8
0
 10
54.2798510040217934
 20
158.5032290335551863
 30
0.0
  0
VERTEX
  5
16310
  8
0
 10
54.23386643656481
 20
158.4998827409397109
 30
0.0
  0
VERTEX
  5
16311
  8
0
 10
54.1882623931114011
 20
158.4962475675064013
 30
0.0
  0
VERTEX
  5
16312
  8
0
 10
54.1430794744039119
 20
158.4923241598474135
 30
0.0
  0
VERTEX
  5
16313
  8
0
 10
54.0983821622846222
 20
158.4881204181884868
 30
0.0
  0
VERTEX
  5
16314
  8
0
 10
54.0542349385956911
 20
158.4836442427553891
 30
0.0
  0
VERTEX
  5
16315
  8
0
 10
54.010702285179427
 20
158.4789035337740017
 30
0.0
  0
VERTEX
  5
16316
  8
0
 10
53.96784868387806
 20
158.4739061914696094
 30
0.0
  0
VERTEX
  5
16317
  8
0
 10
53.9257386165338204
 20
158.4686601160686052
 30
0.0
  0
VERTEX
  5
16318
  8
0
 10
53.9049825586712927
 20
158.4659462722771082
 30
0.0
  0
VERTEX
  5
16319
  8
0
 10
53.8844365649888886
 20
158.4631732077961033
 30
0.0
  0
VERTEX
  5
1631A
  8
0
 10
53.8439289659964899
 20
158.4574483517201884
 30
0.0
  0
VERTEX
  5
1631B
  8
0
 10
53.8041603856873323
 20
158.451483054771586
 30
0.0
  0
VERTEX
  5
1631C
  8
0
 10
53.7651324999698232
 20
158.445277149970309
 30
0.0
  0
VERTEX
  5
1631D
  8
0
 10
53.726846984752342
 20
158.4388304703365122
 30
0.0
  0
VERTEX
  5
1631E
  8
0
 10
53.6893055159433104
 20
158.4321428488900949
 30
0.0
  0
VERTEX
  5
1631F
  8
0
 10
53.6525097694512283
 20
158.4252141186512972
 30
0.0
  0
VERTEX
  5
16320
  8
0
 10
53.6164614211844466
 20
158.4180441126401035
 30
0.0
  0
VERTEX
  5
16321
  8
0
 10
53.5811621470514794
 20
158.4106326638764131
 30
0.0
  0
VERTEX
  5
16322
  8
0
 10
53.5638237178351915
 20
158.4068425696623876
 30
0.0
  0
VERTEX
  5
16323
  8
0
 10
53.5467328026008005
 20
158.4030048347912896
 30
0.0
  0
VERTEX
  5
16324
  8
0
 10
53.5298896923251206
 20
158.3991199422210912
 30
0.0
  0
VERTEX
  5
16325
  8
0
 10
53.513294677984959
 20
158.3951883749091962
 30
0.0
  0
VERTEX
  5
16326
  8
0
 10
53.49694805055708
 20
158.3912106158134065
 30
0.0
  0
VERTEX
  5
16327
  8
0
 10
53.4808501010181772
 20
158.3871871478912112
 30
0.0
  0
VERTEX
  5
16328
  8
0
 10
53.4650011203451498
 20
158.383118454100412
 30
0.0
  0
VERTEX
  5
16329
  8
0
 10
53.4494013995146773
 20
158.379005017398697
 30
0.0
  0
VERTEX
  5
1632A
  8
0
 10
53.4340512295035523
 20
158.3748473207434131
 30
0.0
  0
VERTEX
  5
1632B
  8
0
 10
53.4189509012886106
 20
158.3706458470925043
 30
0.0
  0
VERTEX
  5
1632C
  8
0
 10
53.4041007058465311
 20
158.3664010794034027
 30
0.0
  0
VERTEX
  5
1632D
  8
0
 10
53.3895009341541709
 20
158.3621135006337965
 30
0.0
  0
VERTEX
  5
1632E
  8
0
 10
53.3751518771882729
 20
158.3577835937414022
 30
0.0
  0
VERTEX
  5
1632F
  8
0
 10
53.3610538259256302
 20
158.3534118416839078
 30
0.0
  0
VERTEX
  5
16330
  8
0
 10
53.3472070713429503
 20
158.3489987274186888
 30
0.0
  0
VERTEX
  5
16331
  8
0
 10
53.3336119044171326
 20
158.3445447339036036
 30
0.0
  0
VERTEX
  5
16332
  8
0
 10
53.3202604895321883
 20
158.3400464370625969
 30
0.0
  0
VERTEX
  5
16333
  8
0
 10
53.3071470576706403
 20
158.3355010418692927
 30
0.0
  0
VERTEX
  5
16334
  8
0
 10
53.2942749997068717
 20
158.3309099748560982
 30
0.0
  0
VERTEX
  5
16335
  8
0
 10
53.2816477065153435
 20
158.3262746625549937
 30
0.0
  0
VERTEX
  5
16336
  8
0
 10
53.2692685689703396
 20
158.3215965314984999
 30
0.0
  0
VERTEX
  5
16337
  8
0
 10
53.2571409779463423
 20
158.3168770082187109
 30
0.0
  0
VERTEX
  5
16338
  8
0
 10
53.2452683243176921
 20
158.3121175192478063
 30
0.0
  0
VERTEX
  5
16339
  8
0
 10
53.2336539989588573
 20
158.3073194911181076
 30
0.0
  0
VERTEX
  5
1633A
  8
0
 10
53.2223013927441571
 20
158.3024843503619081
 30
0.0
  0
VERTEX
  5
1633B
  8
0
 10
53.2112138965480312
 20
158.297613523511302
 30
0.0
  0
VERTEX
  5
1633C
  8
0
 10
53.2003949012448629
 20
158.2927084370986961
 30
0.0
  0
VERTEX
  5
1633D
  8
0
 10
53.1898477977089783
 20
158.2877705176562984
 30
0.0
  0
VERTEX
  5
1633E
  8
0
 10
53.1795759768148812
 20
158.282801191716203
 30
0.0
  0
VERTEX
  5
1633F
  8
0
 10
53.1695828294369193
 20
158.2778018858107885
 30
0.0
  0
VERTEX
  5
16340
  8
0
 10
53.1598717464494825
 20
158.2727740264722911
 30
0.0
  0
VERTEX
  5
16341
  8
0
 10
53.1504461187269612
 20
158.2677190402328904
 30
0.0
  0
VERTEX
  5
16342
  8
0
 10
53.1413080210318682
 20
158.2626399815520131
 30
0.0
  0
VERTEX
  5
16343
  8
0
 10
53.1324570219303922
 20
158.2575389921780129
 30
0.0
  0
VERTEX
  5
16344
  8
0
 10
53.1238927530022806
 20
158.252416129576801
 30
0.0
  0
VERTEX
  5
16345
  8
0
 10
53.1156148458272099
 20
158.2472714512140897
 30
0.0
  0
VERTEX
  5
16346
  8
0
 10
53.1076229319850199
 20
158.2421050145555057
 30
0.0
  0
VERTEX
  5
16347
  8
0
 10
53.0999166430553373
 20
158.2369168770667898
 30
0.0
  0
VERTEX
  5
16348
  8
0
 10
53.0924956106179593
 20
158.2317070962139098
 30
0.0
  0
VERTEX
  5
16349
  8
0
 10
53.0853594662526689
 20
158.2264757294624076
 30
0.0
  0
VERTEX
  5
1634A
  8
0
 10
53.0785078415391922
 20
158.2212228342781941
 30
0.0
  0
VERTEX
  5
1634B
  8
0
 10
53.0719403680572483
 20
158.2159484681268964
 30
0.0
  0
VERTEX
  5
1634C
  8
0
 10
53.0656566773865919
 20
158.2106526884741982
 30
0.0
  0
VERTEX
  5
1634D
  8
0
 10
53.0596564011069489
 20
158.2053355527860106
 30
0.0
  0
VERTEX
  5
1634E
  8
0
 10
53.0539391707981665
 20
158.1999971185281026
 30
0.0
  0
VERTEX
  5
1634F
  8
0
 10
53.0485046180398285
 20
158.1946374431661013
 30
0.0
  0
VERTEX
  5
16350
  8
0
 10
53.0433523744118318
 20
158.189256584165804
 30
0.0
  0
VERTEX
  5
16351
  8
0
 10
53.0384820714938314
 20
158.1838545989930083
 30
0.0
  0
VERTEX
  5
16352
  8
0
 10
53.0338951964372924
 20
158.1784300523866023
 30
0.0
  0
VERTEX
  5
16353
  8
0
 10
53.0295942014310029
 20
158.1729823542148949
 30
0.0
  0
VERTEX
  5
16354
  8
0
 10
53.0255801656108474
 20
158.1675128296373032
 30
0.0
  0
VERTEX
  5
16355
  8
0
 10
53.0218541681127817
 20
158.1620228038136133
 30
0.0
  0
VERTEX
  5
16356
  8
0
 10
53.0184172880727118
 20
158.1565136019032138
 30
0.0
  0
VERTEX
  5
16357
  8
0
 10
53.0152706046266005
 20
158.1509865490656068
 30
0.0
  0
VERTEX
  5
16358
  8
0
 10
53.0124151969102826
 20
158.1454429704604081
 30
0.0
  0
VERTEX
  5
16359
  8
0
 10
53.0098521440597068
 20
158.139884191247404
 30
0.0
  0
VERTEX
  5
1635A
  8
0
 10
53.0075825252108075
 20
158.1343115365858125
 30
0.0
  0
VERTEX
  5
1635B
  8
0
 10
53.0056074194994835
 20
158.1287263316353915
 30
0.0
  0
VERTEX
  5
1635C
  8
0
 10
53.0039279060616693
 20
158.1231299015555862
 30
0.0
  0
VERTEX
  5
1635D
  8
0
 10
53.0025450640332565
 20
158.1175235715060126
 30
0.0
  0
VERTEX
  5
1635E
  8
0
 10
53.0014599725501512
 20
158.111908666646201
 30
0.0
  0
VERTEX
  5
1635F
  8
0
 10
53.0006737107482309
 20
158.1062865121357106
 30
0.0
  0
VERTEX
  5
16360
  8
0
 10
53.0001873577635294
 20
158.100658433134214
 30
0.0
  0
VERTEX
  5
16361
  8
0
 10
53.0000019927318107
 20
158.0950257548010995
 30
0.0
  0
VERTEX
  5
16362
  8
0
 10
53.0001154696892698
 20
158.0893948081391045
 30
0.0
  0
VERTEX
  5
16363
  8
0
 10
53.0005244203213692
 20
158.0837710522189923
 30
0.0
  0
VERTEX
  5
16364
  8
0
 10
53.0012280902379231
 20
158.0781545043028018
 30
0.0
  0
VERTEX
  5
16365
  8
0
 10
53.0022257250488877
 20
158.0725451816522877
 30
0.0
  0
VERTEX
  5
16366
  8
0
 10
53.0035165703640772
 20
158.066943101529489
 30
0.0
  0
VERTEX
  5
16367
  8
0
 10
53.0050998717934476
 20
158.0613482811963024
 30
0.0
  0
VERTEX
  5
16368
  8
0
 10
53.0069748749469269
 20
158.0557607379145111
 30
0.0
  0
VERTEX
  5
16369
  8
0
 10
53.0091408254343222
 20
158.0501804889462107
 30
0.0
  0
VERTEX
  5
1636A
  8
0
 10
53.0115969688655326
 20
158.0446075515530993
 30
0.0
  0
VERTEX
  5
1636B
  8
0
 10
53.0143425508505288
 20
158.0390419429971871
 30
0.0
  0
VERTEX
  5
1636C
  8
0
 10
53.0173768169991604
 20
158.0334836805405132
 30
0.0
  0
VERTEX
  5
1636D
  8
0
 10
53.0206990129213409
 20
158.0279327814446049
 30
0.0
  0
VERTEX
  5
1636E
  8
0
 10
53.0243083842269698
 20
158.0223892629718137
 30
0.0
  0
VERTEX
  5
1636F
  8
0
 10
53.0282041765258896
 20
158.016853142383809
 30
0.0
  0
VERTEX
  5
16370
  8
0
 10
53.0323856354279997
 20
158.0113244369424876
 30
0.0
  0
VERTEX
  5
16371
  8
0
 10
53.0368520065432421
 20
158.0058031639098886
 30
0.0
  0
VERTEX
  5
16372
  8
0
 10
53.0416083073511686
 20
158.0002862982096019
 30
0.0
  0
VERTEX
  5
16373
  8
0
 10
53.04665924594822
 20
157.9947717281085033
 30
0.0
  0
VERTEX
  5
16374
  8
0
 10
53.0520036038699416
 20
157.9892608408823946
 30
0.0
  0
VERTEX
  5
16375
  8
0
 10
53.0576401626518503
 20
157.983755023807305
 30
0.0
  0
VERTEX
  5
16376
  8
0
 10
53.0635677038296905
 20
157.9782556641590077
 30
0.0
  0
VERTEX
  5
16377
  8
0
 10
53.0697850089387586
 20
157.9727641492135888
 30
0.0
  0
VERTEX
  5
16378
  8
0
 10
53.0762908595147422
 20
157.9672818662471059
 30
0.0
  0
VERTEX
  5
16379
  8
0
 10
53.0830840370931583
 20
157.9618102025353892
 30
0.0
  0
VERTEX
  5
1637A
  8
0
 10
53.0901633232095378
 20
157.956350545354411
 30
0.0
  0
VERTEX
  5
1637B
  8
0
 10
53.0975274993993906
 20
157.9509042819800015
 30
0.0
  0
VERTEX
  5
1637C
  8
0
 10
53.105175347198319
 20
157.9454727996883889
 30
0.0
  0
VERTEX
  5
1637D
  8
0
 10
53.1131056481418611
 20
157.9400574857552897
 30
0.0
  0
VERTEX
  5
1637E
  8
0
 10
53.1213171837655267
 20
157.9346597274567898
 30
0.0
  0
VERTEX
  5
1637F
  8
0
 10
53.1298087356048399
 20
157.9292809120688048
 30
0.0
  0
VERTEX
  5
16380
  8
0
 10
53.1385790851954312
 20
157.923922426867307
 30
0.0
  0
VERTEX
  5
16381
  8
0
 10
53.1476270140726683
 20
157.9185856591282118
 30
0.0
  0
VERTEX
  5
16382
  8
0
 10
53.1569432407745168
 20
157.913274597963607
 30
0.0
  0
VERTEX
  5
16383
  8
0
 10
53.1665192016087076
 20
157.907992275753287
 30
0.0
  0
VERTEX
  5
16384
  8
0
 10
53.1763547547657183
 20
157.9027386446744003
 30
0.0
  0
VERTEX
  5
16385
  8
0
 10
53.1864497584360265
 20
157.8975136569040956
 30
0.0
  0
VERTEX
  5
16386
  8
0
 10
53.1968040708101171
 20
157.8923172646196065
 30
0.0
  0
VERTEX
  5
16387
  8
0
 10
53.2074175500786168
 20
157.887149419998309
 30
0.0
  0
VERTEX
  5
16388
  8
0
 10
53.2182900544318613
 20
157.8820100752172095
 30
0.0
  0
VERTEX
  5
16389
  8
0
 10
53.2294214420604703
 20
157.8768991824537125
 30
0.0
  0
VERTEX
  5
1638A
  8
0
 10
53.2408115711549002
 20
157.8718166938849095
 30
0.0
  0
VERTEX
  5
1638B
  8
0
 10
53.2524602999056924
 20
157.8667625616880912
 30
0.0
  0
VERTEX
  5
1638C
  8
0
 10
53.2643674865032608
 20
157.8617367380406051
 30
0.0
  0
VERTEX
  5
1638D
  8
0
 10
53.2765329891382322
 20
157.8567391751192872
 30
0.0
  0
VERTEX
  5
1638E
  8
0
 10
53.2889566660010132
 20
157.8517698251019112
 30
0.0
  0
VERTEX
  5
1638F
  8
0
 10
53.3016383752821525
 20
157.8468286401653131
 30
0.0
  0
VERTEX
  5
16390
  8
0
 10
53.3145779751721278
 20
157.8419155724868119
 30
0.0
  0
VERTEX
  5
16391
  8
0
 10
53.3277753238615304
 20
157.8370305742436983
 30
0.0
  0
VERTEX
  5
16392
  8
0
 10
53.3412420128074132
 20
157.8321712984435123
 30
0.0
  0
VERTEX
  5
16393
  8
0
 10
53.3549859940738003
 20
157.827336610423913
 30
0.0
  0
VERTEX
  5
16394
  8
0
 10
53.3690016667619602
 20
157.822528280857199
 30
0.0
  0
VERTEX
  5
16395
  8
0
 10
53.3832834299729981
 20
157.817748080415214
 30
0.0
  0
VERTEX
  5
16396
  8
0
 10
53.3978256828079907
 20
157.8129977797703987
 30
0.0
  0
VERTEX
  5
16397
  8
0
 10
53.4126228243680927
 20
157.8082791495945969
 30
0.0
  0
VERTEX
  5
16398
  8
0
 10
53.4276692537544591
 20
157.8035939605599083
 30
0.0
  0
VERTEX
  5
16399
  8
0
 10
53.442959370068138
 20
157.7989439833386029
 30
0.0
  0
VERTEX
  5
1639A
  8
0
 10
53.4584875724102488
 20
157.79433098860261
 30
0.0
  0
VERTEX
  5
1639B
  8
0
 10
53.4742482598820175
 20
157.7897567470241995
 30
0.0
  0
VERTEX
  5
1639C
  8
0
 10
53.4902358315844069
 20
157.7852230292753006
 30
0.0
  0
VERTEX
  5
1639D
  8
0
 10
53.5064446866186927
 20
157.7807316060282972
 30
0.0
  0
VERTEX
  5
1639E
  8
0
 10
53.5228692240858805
 20
157.7762842479550898
 30
0.0
  0
VERTEX
  5
1639F
  8
0
 10
53.5395038430871182
 20
157.7718827257278065
 30
0.0
  0
VERTEX
  5
163A0
  8
0
 10
53.5733809220962911
 20
157.7632242714994959
 30
0.0
  0
VERTEX
  5
163A1
  8
0
 10
53.6080487146476798
 20
157.7547592538327024
 30
0.0
  0
VERTEX
  5
163A2
  8
0
 10
53.6435112341746319
 20
157.7464813262766086
 30
0.0
  0
VERTEX
  5
163A3
  8
0
 10
53.6797705071340303
 20
157.7383906187982063
 30
0.0
  0
VERTEX
  5
163A4
  8
0
 10
53.7168285599827229
 20
157.7304872613642033
 30
0.0
  0
VERTEX
  5
163A5
  8
0
 10
53.7546874191776283
 20
157.7227713839413923
 30
0.0
  0
VERTEX
  5
163A6
  8
0
 10
53.7933491111756013
 20
157.7152431164965947
 30
0.0
  0
VERTEX
  5
163A7
  8
0
 10
53.8328156624334611
 20
157.7079025889966033
 30
0.0
  0
VERTEX
  5
163A8
  8
0
 10
53.8730890994081619
 20
157.70074993140841
 30
0.0
  0
VERTEX
  5
163A9
  8
0
 10
53.9141705763812524
 20
157.6937899826934029
 30
0.0
  0
VERTEX
  5
163AA
  8
0
 10
53.9560185753725108
 20
157.6870331489822092
 30
0.0
  0
VERTEX
  5
163AB
  8
0
 10
53.9985711144457099
 20
157.6804879109953959
 30
0.0
  0
VERTEX
  5
163AC
  8
0
 10
54.0417662116646369
 20
157.6741627494529041
 30
0.0
  0
VERTEX
  5
163AD
  8
0
 10
54.0855418850931713
 20
157.6680661450751018
 30
0.0
  0
VERTEX
  5
163AE
  8
0
 10
54.1298361527951215
 20
157.662206578582186
 30
0.0
  0
VERTEX
  5
163AF
  8
0
 10
54.1745870328342605
 20
157.656592530694212
 30
0.0
  0
VERTEX
  5
163B0
  8
0
 10
54.2197325432745103
 20
157.6512324821320021
 30
0.0
  0
VERTEX
  5
163B1
  8
0
 10
54.2653340373551529
 20
157.6461213793963907
 30
0.0
  0
VERTEX
  5
163B2
  8
0
 10
54.3114682333868473
 20
157.6412502975533982
 30
0.0
  0
VERTEX
  5
163B3
  8
0
 10
54.3580961970406378
 20
157.6366219101697084
 30
0.0
  0
VERTEX
  5
163B4
  8
0
 10
54.4051789939875903
 20
157.632238890811891
 30
0.0
  0
VERTEX
  5
163B5
  8
0
 10
54.4526776898986213
 20
157.6281039130468002
 30
0.0
  0
VERTEX
  5
163B6
  8
0
 10
54.500553350444882
 20
157.624219650441006
 30
0.0
  0
VERTEX
  5
163B7
  8
0
 10
54.5487670412972392
 20
157.6205887765611919
 30
0.0
  0
VERTEX
  5
163B8
  8
0
 10
54.5972798281267728
 20
157.6172139649740984
 30
0.0
  0
VERTEX
  5
163B9
  8
0
 10
54.6460527766044919
 20
157.6140978892464091
 30
0.0
  0
VERTEX
  5
163BA
  8
0
 10
54.6950469524013982
 20
157.6112432229446085
 30
0.0
  0
VERTEX
  5
163BB
  8
0
 10
54.7442234211885577
 20
157.6086526396358067
 30
0.0
  0
VERTEX
  5
163BC
  8
0
 10
54.7935432486368583
 20
157.6063288128862894
 30
0.0
  0
VERTEX
  5
163BD
  8
0
 10
54.84296750041743
 20
157.6042744162629106
 30
0.0
  0
VERTEX
  5
163BE
  8
0
 10
54.8924572422012602
 20
157.6024921233324108
 30
0.0
  0
VERTEX
  5
163BF
  8
0
 10
54.9419735396593296
 20
157.600984607661303
 30
0.0
  0
VERTEX
  5
163C0
  8
0
 10
54.9914774584626613
 20
157.5997545428164983
 30
0.0
  0
VERTEX
  5
163C1
  8
0
 10
55.0410402687859275
 20
157.5988002125041021
 30
0.0
  0
VERTEX
  5
163C2
  8
0
 10
55.0907168653760522
 20
157.5981185711885075
 30
0.0
  0
VERTEX
  5
163C3
  8
0
 10
55.140443750762131
 20
157.5977102985729061
 30
0.0
  0
VERTEX
  5
163C4
  8
0
 10
55.190157427473423
 20
157.5975760743608873
 30
0.0
  0
VERTEX
  5
163C5
  8
0
 10
55.2397943980391304
 20
157.5977165782558984
 30
0.0
  0
VERTEX
  5
163C6
  8
0
 10
55.2892911649884695
 20
157.5981324899613014
 30
0.0
  0
VERTEX
  5
163C7
  8
0
 10
55.3385842308505715
 20
157.5988244891807142
 30
0.0
  0
VERTEX
  5
163C8
  8
0
 10
55.3876100981548092
 20
157.5997932556174135
 30
0.0
  0
VERTEX
  5
163C9
  8
0
 10
55.4362888658753334
 20
157.6010349065174125
 30
0.0
  0
VERTEX
  5
163CA
  8
0
 10
55.4845833805909976
 20
157.6025449046962876
 30
0.0
  0
VERTEX
  5
163CB
  8
0
 10
55.5324942662381318
 20
157.6043229482116033
 30
0.0
  0
VERTEX
  5
163CC
  8
0
 10
55.5800221467529809
 20
157.6063687351210092
 30
0.0
  0
VERTEX
  5
163CD
  8
0
 10
55.6271676460717117
 20
157.6086819634822973
 30
0.0
  0
VERTEX
  5
163CE
  8
0
 10
55.6739313881305904
 20
157.6112623313530037
 30
0.0
  0
VERTEX
  5
163CF
  8
0
 10
55.7203139968658618
 20
157.6141095367908065
 30
0.0
  0
VERTEX
  5
163D0
  8
0
 10
55.7663160962137567
 20
157.6172232778534124
 30
0.0
  0
VERTEX
  5
163D1
  8
0
 10
55.8119394275912413
 20
157.6206077810765862
 30
0.0
  0
VERTEX
  5
163D2
  8
0
 10
55.8571423513122909
 20
157.6242629483882922
 30
0.0
  0
VERTEX
  5
163D3
  8
0
 10
55.9018604196581421
 20
157.6281819909335979
 30
0.0
  0
VERTEX
  5
163D4
  8
0
 10
55.9460291849101168
 20
157.632358119857912
 30
0.0
  0
VERTEX
  5
163D5
  8
0
 10
55.9895841993495083
 20
157.6367845463065009
 30
0.0
  0
VERTEX
  5
163D6
  8
0
 10
56.0324610152576881
 20
157.6414544814246028
 30
0.0
  0
VERTEX
  5
163D7
  8
0
 10
56.0745951849159425
 20
157.6463611363577115
 30
0.0
  0
VERTEX
  5
163D8
  8
0
 10
56.0953636374892426
 20
157.6489011122378088
 30
0.0
  0
VERTEX
  5
163D9
  8
0
 10
56.1159222606056005
 20
157.6514977222510083
 30
0.0
  0
VERTEX
  5
163DA
  8
0
 10
56.1564559971056383
 20
157.6568621502771919
 30
0.0
  0
VERTEX
  5
163DB
  8
0
 10
56.1962518602971386
 20
157.662457467024808
 30
0.0
  0
VERTEX
  5
163DC
  8
0
 10
56.2353079691148423
 20
157.6682845867626099
 30
0.0
  0
VERTEX
  5
163DD
  8
0
 10
56.2736224424934406
 20
157.6743444237596066
 30
0.0
  0
VERTEX
  5
163DE
  8
0
 10
56.3111933993674825
 20
157.6806378922848069
 30
0.0
  0
VERTEX
  5
163DF
  8
0
 10
56.3480189586716733
 20
157.687165906607305
 30
0.0
  0
VERTEX
  5
163E0
  8
0
 10
56.3840972393405622
 20
157.6939293809957974
 30
0.0
  0
VERTEX
  5
163E1
  8
0
 10
56.4194263603088615
 20
157.7009292297192076
 30
0.0
  0
VERTEX
  5
163E2
  8
0
 10
56.4367795825385201
 20
157.7045122263633914
 30
0.0
  0
VERTEX
  5
163E3
  8
0
 10
56.4538851046442502
 20
157.7081426203027092
 30
0.0
  0
VERTEX
  5
163E4
  8
0
 10
56.4707425808959371
 20
157.7118200285185026
 30
0.0
  0
VERTEX
  5
163E5
  8
0
 10
56.4873516655633168
 20
157.7155440679921981
 30
0.0
  0
VERTEX
  5
163E6
  8
0
 10
56.5037120129161821
 20
157.719314355705194
 30
0.0
  0
VERTEX
  5
163E7
  8
0
 10
56.5198232772244182
 20
157.7231305086388033
 30
0.0
  0
VERTEX
  5
163E8
  8
0
 10
56.5356851127577187
 20
157.726992143774396
 30
0.0
  0
VERTEX
  5
163E9
  8
0
 10
56.5512971737858905
 20
157.7308988780935124
 30
0.0
  0
VERTEX
  5
163EA
  8
0
 10
56.5666591145787265
 20
157.7348503285772097
 30
0.0
  0
VERTEX
  5
163EB
  8
0
 10
56.5817705894060126
 20
157.7388461122071135
 30
0.0
  0
VERTEX
  5
163EC
  8
0
 10
56.5966312525375699
 20
157.7428858459645085
 30
0.0
  0
VERTEX
  5
163ED
  8
0
 10
56.6112407582431274
 20
157.7469691468307076
 30
0.0
  0
VERTEX
  5
163EE
  8
0
 10
56.6255987607925704
 20
157.7510956317871091
 30
0.0
  0
VERTEX
  5
163EF
  8
0
 10
56.6397049144555922
 20
157.7552649178151114
 30
0.0
  0
VERTEX
  5
163F0
  8
0
 10
56.6535588735020497
 20
157.7594766218961126
 30
0.0
  0
VERTEX
  5
163F1
  8
0
 10
56.6671602922016291
 20
157.7637303610113122
 30
0.0
  0
VERTEX
  5
163F2
  8
0
 10
56.6805170871488002
 20
157.7680295506484072
 30
0.0
  0
VERTEX
  5
163F3
  8
0
 10
56.6936351324406971
 20
157.772377000459187
 30
0.0
  0
VERTEX
  5
163F4
  8
0
 10
56.706511018601482
 20
157.7767714186707053
 30
0.0
  0
VERTEX
  5
163F5
  8
0
 10
56.7191413361552392
 20
157.7812115135104136
 30
0.0
  0
VERTEX
  5
163F6
  8
0
 10
56.731522675626131
 20
157.7856959932055929
 30
0.0
  0
VERTEX
  5
163F7
  8
0
 10
56.7436516275383269
 20
157.7902235659834957
 30
0.0
  0
VERTEX
  5
163F8
  8
0
 10
56.7555247824159323
 20
157.7947929400716873
 30
0.0
  0
VERTEX
  5
163F9
  8
0
 10
56.767138730783131
 20
157.7994028236973065
 30
0.0
  0
VERTEX
  5
163FA
  8
0
 10
56.7784900631639928
 20
157.8040519250878049
 30
0.0
  0
VERTEX
  5
163FB
  8
0
 10
56.7895753700826731
 20
157.8087389524704065
 30
0.0
  0
VERTEX
  5
163FC
  8
0
 10
56.8003912420633696
 20
157.8134626140725061
 30
0.0
  0
VERTEX
  5
163FD
  8
0
 10
56.8109342696301383
 20
157.818221618121413
 30
0.0
  0
VERTEX
  5
163FE
  8
0
 10
56.8212010433070986
 20
157.8230146728446073
 30
0.0
  0
VERTEX
  5
163FF
  8
0
 10
56.8311881536184771
 20
157.8278404864691993
 30
0.0
  0
VERTEX
  5
16400
  8
0
 10
56.8408921910884075
 20
157.8326977672226121
 30
0.0
  0
VERTEX
  5
16401
  8
0
 10
56.8503097462409031
 20
157.8375852233322121
 30
0.0
  0
VERTEX
  5
16402
  8
0
 10
56.8594386951904625
 20
157.8424999086890921
 30
0.0
  0
VERTEX
  5
16403
  8
0
 10
56.86827944370485
 20
157.8474397373485942
 30
0.0
  0
VERTEX
  5
16404
  8
0
 10
56.8768323767886272
 20
157.8524047077843875
 30
0.0
  0
VERTEX
  5
16405
  8
0
 10
56.8850978794462776
 20
157.8573948184697997
 30
0.0
  0
VERTEX
  5
16406
  8
0
 10
56.8930763366822703
 20
157.8624100678784998
 30
0.0
  0
VERTEX
  5
16407
  8
0
 10
56.9007681335011171
 20
157.8674504544841
 30
0.0
  0
VERTEX
  5
16408
  8
0
 10
56.9081736549073298
 20
157.8725159767600132
 30
0.0
  0
VERTEX
  5
16409
  8
0
 10
56.9152932859054204
 20
157.8776066331799086
 30
0.0
  0
VERTEX
  5
1640A
  8
0
 10
56.9221274114998295
 20
157.8827224222173129
 30
0.0
  0
VERTEX
  5
1640B
  8
0
 10
56.9286764166951684
 20
157.8878633423456961
 30
0.0
  0
VERTEX
  5
1640C
  8
0
 10
56.9349406864958425
 20
157.8930293920388124
 30
0.0
  0
VERTEX
  5
1640D
  8
0
 10
56.9409206059063422
 20
157.8982205697699897
 30
0.0
  0
VERTEX
  5
1640E
  8
0
 10
56.946616559931222
 20
157.9034368740130105
 30
0.0
  0
VERTEX
  5
1640F
  8
0
 10
56.9520289335749794
 20
157.9086783032412029
 30
0.0
  0
VERTEX
  5
16410
  8
0
 10
56.9571581118420767
 20
157.9139448559284062
 30
0.0
  0
VERTEX
  5
16411
  8
0
 10
56.9620044797369403
 20
157.9192365305478063
 30
0.0
  0
VERTEX
  5
16412
  8
0
 10
56.9665665211650918
 20
157.9245548446291139
 30
0.0
  0
VERTEX
  5
16413
  8
0
 10
56.9708417704089172
 20
157.9299004575869105
 30
0.0
  0
VERTEX
  5
16414
  8
0
 10
56.9748291880391733
 20
157.9352720807225978
 30
0.0
  0
VERTEX
  5
16415
  8
0
 10
56.9785277346263683
 20
157.9406684253376056
 30
0.0
  0
VERTEX
  5
16416
  8
0
 10
56.9819363707410531
 20
157.946088202733506
 30
0.0
  0
VERTEX
  5
16417
  8
0
 10
56.9850540569537998
 20
157.9515301242118142
 30
0.0
  0
VERTEX
  5
16418
  8
0
 10
56.9878797538352018
 20
157.9569929010737894
 30
0.0
  0
VERTEX
  5
16419
  8
0
 10
56.9904124219558028
 20
157.9624752446210891
 30
0.0
  0
VERTEX
  5
1641A
  8
0
 10
56.9926510218861466
 20
157.9679758661550011
 30
0.0
  0
VERTEX
  5
1641B
  8
0
 10
56.9945945141968124
 20
157.97349347697741
 30
0.0
  0
VERTEX
  5
1641C
  8
0
 10
56.9962418594584435
 20
157.9790267883892056
 30
0.0
  0
VERTEX
  5
1641D
  8
0
 10
56.9975920182414981
 20
157.9845745116923013
 30
0.0
  0
VERTEX
  5
1641E
  8
0
 10
56.9986439511165983
 20
157.9901353581878141
 30
0.0
  0
VERTEX
  5
1641F
  8
0
 10
56.9993966186543233
 20
157.9957080391774014
 30
0.0
  0
VERTEX
  5
16420
  8
0
 10
56.9998489814252025
 20
158.0012912659626068
 30
0.0
  0
VERTEX
  5
16421
  8
0
 10
56.9999999999997016
 20
158.0068837498446896
 30
0.0
  0
SEQEND
  5
16422
  8
0
  0
POLYLINE
  5
14CCC
  8
2
 66
     1
 10
0.0
 20
0.0
 30
0.0
  0
VERTEX
  5
16423
  8
2
 10
141.0
 20
155.7513274471097873
 30
0.0
  0
VERTEX
  5
16424
  8
2
 10
141.0758353641903113
 20
155.7639044542763997
 30
0.0
  0
VERTEX
  5
16425
  8
2
 10
141.1530141033838106
 20
155.7769342433419126
 30
0.0
  0
VERTEX
  5
16426
  8
2
 10
141.2319316948359074
 20
155.7905533147666972
 30
0.0
  0
VERTEX
  5
16427
  8
2
 10
141.3124152237336091
 20
155.8047085157897129
 30
0.0
  0
VERTEX
  5
16428
  8
2
 10
141.3942840649538084
 20
155.8193441209801051
 30
0.0
  0
VERTEX
  5
16429
  8
2
 10
141.4773575933728864
 20
155.8344044049069055
 30
0.0
  0
VERTEX
  5
1642A
  8
2
 10
141.5614551838679063
 20
155.8498336421392025
 30
0.0
  0
VERTEX
  5
1642B
  8
2
 10
141.6463962113151922
 20
155.8655761072459995
 30
0.0
  0
VERTEX
  5
1642C
  8
2
 10
141.7320000505916084
 20
155.8815760747964134
 30
0.0
  0
VERTEX
  5
1642D
  8
2
 10
141.8180860765737066
 20
155.8977778193593906
 30
0.0
  0
VERTEX
  5
1642E
  8
2
 10
141.9044765364672003
 20
155.914126646301014
 30
0.0
  0
VERTEX
  5
1642F
  8
2
 10
141.9910792857259025
 20
155.9305985833422028
 30
0.0
  0
VERTEX
  5
16430
  8
2
 10
142.0779003000484124
 20
155.9472048707569911
 30
0.0
  0
VERTEX
  5
16431
  8
2
 10
142.1649509444671935
 20
155.9639586828978111
 30
0.0
  0
VERTEX
  5
16432
  8
2
 10
142.2522425840153062
 20
155.9808731941168958
 30
0.0
  0
VERTEX
  5
16433
  8
2
 10
142.339786583725413
 20
155.997961578766791
 30
0.0
  0
VERTEX
  5
16434
  8
2
 10
142.4275943086304892
 20
156.0152370111997016
 30
0.0
  0
VERTEX
  5
16435
  8
2
 10
142.5156771237633109
 20
156.0327126657678889
 30
0.0
  0
VERTEX
  5
16436
  8
2
 10
142.6040463941567111
 20
156.0504017168240125
 30
0.0
  0
VERTEX
  5
16437
  8
2
 10
142.6927131721419073
 20
156.0683170664152044
 30
0.0
  0
VERTEX
  5
16438
  8
2
 10
142.7816717404116105
 20
156.0864570133535949
 30
0.0
  0
VERTEX
  5
16439
  8
2
 10
142.8708914739139004
 20
156.1047981664393944
 30
0.0
  0
VERTEX
  5
1643A
  8
2
 10
142.9603397269945901
 20
156.1233153749041094
 30
0.0
  0
VERTEX
  5
1643B
  8
2
 10
143.0499838539998052
 20
156.1419834879793882
 30
0.0
  0
VERTEX
  5
1643C
  8
2
 10
143.139791209275586
 20
156.1607773548967089
 30
0.0
  0
VERTEX
  5
1643D
  8
2
 10
143.2297291471674043
 20
156.1796718248876914
 30
0.0
  0
VERTEX
  5
1643E
  8
2
 10
143.3197650220213859
 20
156.1986417471838138
 30
0.0
  0
VERTEX
  5
1643F
  8
2
 10
143.4098661881837131
 20
156.2176619710170087
 30
0.0
  0
VERTEX
  5
16440
  8
2
 10
143.5
 20
156.2367073456184983
 30
0.0
  0
SEQEND
  5
16441
  8
2
  0
POLYLINE
  5
14CCD
  8
2
 66
     1
 10
0.0
 20
0.0
 30
0.0
  0
VERTEX
  5
16442
  8
2
 10
143.5
 20
156.2367073456184983
 30
0.0
  0
VERTEX
  5
16443
  8
2
 10
144.1361294025601865
 20
156.3734594677852101
 30
0.0
  0
VERTEX
  5
16444
  8
2
 10
144.772301091884799
 20
156.5100132183841026
 30
0.0
  0
VERTEX
  5
16445
  8
2
 10
145.4085165879727128
 20
156.64636146694491
 30
0.0
  0
VERTEX
  5
16446
  8
2
 10
146.0447774108224053
 20
156.7824970829967128
 30
0.0
  0
VERTEX
  5
16447
  8
2
 10
146.6810850804330926
 20
156.9184129360689894
 30
0.0
  0
VERTEX
  5
16448
  8
2
 10
147.3174411168031099
 20
157.0541018956911046
 30
0.0
  0
VERTEX
  5
16449
  8
2
 10
147.9538470399311905
 20
157.1895568313923945
 30
0.0
  0
VERTEX
  5
1644A
  8
2
 10
148.5903043698162946
 20
157.3247706127023946
 30
0.0
  0
VERTEX
  5
1644B
  8
2
 10
149.2268146264568998
 20
157.4597361091504126
 30
0.0
  0
VERTEX
  5
1644C
  8
2
 10
149.8633793298519095
 20
157.5944461902658986
 30
0.0
  0
VERTEX
  5
1644D
  8
2
 10
150.5
 20
157.7288937255779899
 30
0.0
  0
SEQEND
  5
1644E
  8
2
  0
POLYLINE
  5
14CCE
  8
2
 66
     1
 10
0.0
 20
0.0
 30
0.0
  0
VERTEX
  5
1644F
  8
2
 10
150.5
 20
157.7288937255779899
 30
0.0
  0
VERTEX
  5
16450
  8
2
 10
150.6102248677090927
 20
157.7516070252002862
 30
0.0
  0
VERTEX
  5
16451
  8
2
 10
150.720409259715808
 20
157.7742718558585011
 30
0.0
  0
VERTEX
  5
16452
  8
2
 10
150.8305127003173993
 20
157.796839748588809
 30
0.0
  0
VERTEX
  5
16453
  8
2
 10
150.9404947138114039
 20
157.8192622344269864
 30
0.0
  0
VERTEX
  5
16454
  8
2
 10
151.0503148244953024
 20
157.8414908444092077
 30
0.0
  0
VERTEX
  5
16455
  8
2
 10
151.1599325566666892
 20
157.8634771095715905
 30
0.0
  0
VERTEX
  5
16456
  8
2
 10
151.2693074346229878
 20
157.8851725609501102
 30
0.0
  0
VERTEX
  5
16457
  8
2
 10
151.378398741388196
 20
157.906529051965407
 30
0.0
  0
VERTEX
  5
16458
  8
2
 10
151.4871539720147098
 20
157.9275141869067056
 30
0.0
  0
VERTEX
  5
16459
  8
2
 10
151.5955037481990075
 20
157.9481181159256948
 30
0.0
  0
VERTEX
  5
1645A
  8
2
 10
151.7033773920962858
 20
157.9683327255972074
 30
0.0
  0
VERTEX
  5
1645B
  8
2
 10
151.8107042258621107
 20
157.988149902495195
 30
0.0
  0
VERTEX
  5
1645C
  8
2
 10
151.9174135716515934
 20
158.007561533194206
 30
0.0
  0
VERTEX
  5
1645D
  8
2
 10
152.0234347516204991
 20
158.0265595042687039
 30
0.0
  0
VERTEX
  5
1645E
  8
2
 10
152.1286970879239959
 20
158.0451357022932086
 30
0.0
  0
VERTEX
  5
1645F
  8
2
 10
152.2331344564572078
 20
158.0632828498455069
 30
0.0
  0
VERTEX
  5
16460
  8
2
 10
152.3367234977843054
 20
158.0810015205032073
 30
0.0
  0
VERTEX
  5
16461
  8
2
 10
152.4394642729824909
 20
158.0982965875263062
 30
0.0
  0
VERTEX
  5
16462
  8
2
 10
152.5413570826571004
 20
158.1151729681475899
 30
0.0
  0
VERTEX
  5
16463
  8
2
 10
152.6424022274142089
 20
158.1316355796008111
 30
0.0
  0
VERTEX
  5
16464
  8
2
 10
152.7426000078592097
 20
158.1476893391194096
 30
0.0
  0
VERTEX
  5
16465
  8
2
 10
152.8419507245982061
 20
158.1633391639369108
 30
0.0
  0
VERTEX
  5
16466
  8
2
 10
152.9404546564136069
 20
158.1785899640615014
 30
0.0
  0
VERTEX
  5
16467
  8
2
 10
153.0380628469405053
 20
158.193430349258108
 30
0.0
  0
VERTEX
  5
16468
  8
2
 10
153.1345723234327068
 20
158.2077979392024929
 30
0.0
  0
VERTEX
  5
16469
  8
2
 10
153.2297500790012066
 20
158.2216204101891037
 30
0.0
  0
VERTEX
  5
1646A
  8
2
 10
153.3233631067568012
 20
158.2348254385121038
 30
0.0
  0
VERTEX
  5
1646B
  8
2
 10
153.4151783998109124
 20
158.2473407004659975
 30
0.0
  0
VERTEX
  5
1646C
  8
2
 10
153.5049629512741092
 20
158.2590938723450904
 30
0.0
  0
VERTEX
  5
1646D
  8
2
 10
153.5924837542573869
 20
158.2700126304436026
 30
0.0
  0
VERTEX
  5
1646E
  8
2
 10
153.6775194045860076
 20
158.280028669957801
 30
0.0
  0
VERTEX
  5
1646F
  8
2
 10
153.7602114727766036
 20
158.2891994117954084
 30
0.0
  0
VERTEX
  5
16470
  8
2
 10
153.8411276101068097
 20
158.297729861003404
 30
0.0
  0
VERTEX
  5
16471
  8
2
 10
153.9208597935302123
 20
158.3058334484584009
 30
0.0
  0
VERTEX
  5
16472
  8
2
 10
154.0000000000001137
 20
158.3137236050368983
 30
0.0
  0
SEQEND
  5
16473
  8
2
  0
POLYLINE
  5
14CCF
  8
2
 66
     1
 10
0.0
 20
0.0
 30
0.0
  0
VERTEX
  5
16474
  8
2
 10
246.0
 20
158.3149645553301923
 30
0.0
  0
VERTEX
  5
16475
  8
2
 10
246.0752623567126989
 20
158.3083147611631034
 30
0.0
  0
VERTEX
  5
16476
  8
2
 10
246.153415759006208
 20
158.3006734840996046
 30
0.0
  0
VERTEX
  5
16477
  8
2
 10
246.2351594603389913
 20
158.2917929842479055
 30
0.0
  0
VERTEX
  5
16478
  8
2
 10
246.3200661995651046
 20
158.2818077830386869
 30
0.0
  0
VERTEX
  5
16479
  8
2
 10
246.4076994657673083
 20
158.270855540637001
 30
0.0
  0
VERTEX
  5
1647A
  8
2
 10
246.4976227480287889
 20
158.2590739172075871
 30
0.0
  0
VERTEX
  5
1647B
  8
2
 10
246.5893995354321078
 20
158.2466005729156109
 30
0.0
  0
VERTEX
  5
1647C
  8
2
 10
246.6825933170605083
 20
158.233573167925698
 30
0.0
  0
VERTEX
  5
1647D
  8
2
 10
246.776775850781604
 20
158.2201266866657932
 30
0.0
  0
VERTEX
  5
1647E
  8
2
 10
246.8717406136478019
 20
158.2063243663494063
 30
0.0
  0
VERTEX
  5
1647F
  8
2
 10
246.9675218812367063
 20
158.1921515229973068
 30
0.0
  0
VERTEX
  5
16480
  8
2
 10
247.064166021932607
 20
158.1775895594589088
 30
0.0
  0
VERTEX
  5
16481
  8
2
 10
247.1617194041195944
 20
158.1626198785835129
 30
0.0
  0
VERTEX
  5
16482
  8
2
 10
247.2602283961819865
 20
158.1472238832205051
 30
0.0
  0
VERTEX
  5
16483
  8
2
 10
247.3597393665039021
 20
158.1313829762192995
 30
0.0
  0
VERTEX
  5
16484
  8
2
 10
247.4602986515253065
 20
158.115078566775793
 30
0.0
  0
VERTEX
  5
16485
  8
2
 10
247.5619250249100958
 20
158.098297540196711
 30
0.0
  0
VERTEX
  5
16486
  8
2
 10
247.6645593605919089
 20
158.0810422587321966
 30
0.0
  0
VERTEX
  5
16487
  8
2
 10
247.7681288673697964
 20
158.0633177995908056
 30
0.0
  0
VERTEX
  5
16488
  8
2
 10
247.8725607540428939
 20
158.0451292399812928
 30
0.0
  0
VERTEX
  5
16489
  8
2
 10
247.9777822294101952
 20
158.026481657112214
 30
0.0
  0
VERTEX
  5
1648A
  8
2
 10
248.0837205022708076
 20
158.0073801281922101
 30
0.0
  0
VERTEX
  5
1648B
  8
2
 10
248.1903027814236111
 20
157.9878297304298087
 30
0.0
  0
VERTEX
  5
1648C
  8
2
 10
248.2974581929859994
 20
157.9678379694971113
 30
0.0
  0
VERTEX
  5
1648D
  8
2
 10
248.4051317398578078
 20
157.9474324605016875
 30
0.0
  0
VERTEX
  5
1648E
  8
2
 10
248.5132762683250007
 20
157.9266507529355863
 30
0.0
  0
VERTEX
  5
1648F
  8
2
 10
248.6218446802280937
 20
157.9055304666559891
 30
0.0
  0
VERTEX
  5
16490
  8
2
 10
248.7307898774076023
 20
157.8841092215199069
 30
0.0
  0
VERTEX
  5
16491
  8
2
 10
248.8400647617038999
 20
157.8624246373842936
 30
0.0
  0
VERTEX
  5
16492
  8
2
 10
248.9496222349575874
 20
157.8405143341063024
 30
0.0
  0
VERTEX
  5
16493
  8
2
 10
249.0594151990086971
 20
157.8184159315430009
 30
0.0
  0
VERTEX
  5
16494
  8
2
 10
249.1693965556981141
 20
157.7961670495515136
 30
0.0
  0
VERTEX
  5
16495
  8
2
 10
249.2795192068662118
 20
157.7738053079887948
 30
0.0
  0
VERTEX
  5
16496
  8
2
 10
249.3897360543533068
 20
157.7513683267119973
 30
0.0
  0
VERTEX
  5
16497
  8
2
 10
249.5
 20
157.7288937255779899
 30
0.0
  0
SEQEND
  5
16498
  8
2
  0
POLYLINE
  5
14CD0
  8
2
 66
     1
 10
0.0
 20
0.0
 30
0.0
  0
VERTEX
  5
16499
  8
2
 10
256.4999996878129878
 20
156.236707412780703
 30
0.0
  0
VERTEX
  5
1649A
  8
2
 10
256.5901046049729075
 20
156.2176648700028068
 30
0.0
  0
VERTEX
  5
1649B
  8
2
 10
256.6801757267501785
 20
156.1986478888339889
 30
0.0
  0
VERTEX
  5
1649C
  8
2
 10
256.7701792577619813
 20
156.1796820308834128
 30
0.0
  0
VERTEX
  5
1649D
  8
2
 10
256.8600814026256103
 20
156.1607928577599864
 30
0.0
  0
VERTEX
  5
1649E
  8
2
 10
256.9498483659580756
 20
156.1420059310729016
 30
0.0
  0
VERTEX
  5
1649F
  8
2
 10
257.039446352377297
 20
156.1233468124312935
 30
0.0
  0
VERTEX
  5
164A0
  8
2
 10
257.1288415665000002
 20
156.1048410634438994
 30
0.0
  0
VERTEX
  5
164A1
  8
2
 10
257.2180002129434797
 20
156.0865142457203092
 30
0.0
  0
VERTEX
  5
164A2
  8
2
 10
257.3068884963252003
 20
156.0683919208692032
 30
0.0
  0
VERTEX
  5
164A3
  8
2
 10
257.3954755762858895
 20
156.0504972525548055
 30
0.0
  0
VERTEX
  5
164A4
  8
2
 10
257.4837596583885215
 20
156.0328298342303981
 30
0.0
  0
VERTEX
  5
164A5
  8
2
 10
257.5717554414007964
 20
156.0153758754296121
 30
0.0
  0
VERTEX
  5
164A6
  8
2
 10
257.6594778136500281
 20
155.9981214318617049
 30
0.0
  0
VERTEX
  5
164A7
  8
2
 10
257.7469416634634172
 20
155.9810525592357919
 30
0.0
  0
VERTEX
  5
164A8
  8
2
 10
257.8341618791683914
 20
155.9641553132613012
 30
0.0
  0
VERTEX
  5
164A9
  8
2
 10
257.9211533490926058
 20
155.9474157496476892
 30
0.0
  0
VERTEX
  5
164AA
  8
2
 10
258.0079309615629199
 20
155.9308199241039006
 30
0.0
  0
VERTEX
  5
164AB
  8
2
 10
258.0945096049072163
 20
155.9143538923393066
 30
0.0
  0
VERTEX
  5
164AC
  8
2
 10
258.1809040092837222
 20
155.8980037656515947
 30
0.0
  0
VERTEX
  5
164AD
  8
2
 10
258.2670721518031769
 20
155.8817756011283961
 30
0.0
  0
VERTEX
  5
164AE
  8
2
 10
258.3528314583721226
 20
155.865724852408789
 30
0.0
  0
VERTEX
  5
164AF
  8
2
 10
258.4379779728691915
 20
155.8499144878198877
 30
0.0
  0
VERTEX
  5
164B0
  8
2
 10
258.5223077391729021
 20
155.8344074756888062
 30
0.0
  0
VERTEX
  5
164B1
  8
2
 10
258.6056168011618865
 20
155.8192667843424886
 30
0.0
  0
VERTEX
  5
164B2
  8
2
 10
258.6877012027144929
 20
155.8045553821081057
 30
0.0
  0
VERTEX
  5
164B3
  8
2
 10
258.7683569877095238
 20
155.7903362373126015
 30
0.0
  0
VERTEX
  5
164B4
  8
2
 10
258.8473802000250998
 20
155.7766723182830049
 30
0.0
  0
VERTEX
  5
164B5
  8
2
 10
258.9245668835400807
 20
155.7636265933466859
 30
0.0
  0
VERTEX
  5
164B6
  8
2
 10
259.0
 20
155.7511669049605132
 30
0.0
  0
SEQEND
  5
164B7
  8
2
  0
POLYLINE
  5
14CD1
  8
2
 66
     1
 10
0.0
 20
0.0
 30
0.0
  0
VERTEX
  5
164B8
  8
2
 10
256.5
 20
156.236707345618214
 30
0.0
  0
VERTEX
  5
164B9
  8
2
 10
255.8638705974398135
 20
156.3734594677850112
 30
0.0
  0
VERTEX
  5
164BA
  8
2
 10
255.227698908115201
 20
156.5100132183839889
 30
0.0
  0
VERTEX
  5
164BB
  8
2
 10
254.5914834120272872
 20
156.6463614669447963
 30
0.0
  0
VERTEX
  5
164BC
  8
2
 10
253.9552225891773105
 20
156.7824970829965139
 30
0.0
  0
VERTEX
  5
164BD
  8
2
 10
253.3189149195669927
 20
156.9184129360687905
 30
0.0
  0
VERTEX
  5
164BE
  8
2
 10
252.6825588831970038
 20
157.0541018956909056
 30
0.0
  0
VERTEX
  5
164BF
  8
2
 10
252.0461529600688948
 20
157.1895568313923093
 30
0.0
  0
VERTEX
  5
164C0
  8
2
 10
251.4096956301837906
 20
157.3247706127023093
 30
0.0
  0
VERTEX
  5
164C1
  8
2
 10
250.7731853735431002
 20
157.4597361091502137
 30
0.0
  0
VERTEX
  5
164C2
  8
2
 10
250.1366206701480905
 20
157.5944461902656997
 30
0.0
  0
VERTEX
  5
164C3
  8
2
 10
249.5
 20
157.7288937255779899
 30
0.0
  0
SEQEND
  5
164C4
  8
2
  0
POLYLINE
  5
14CD2
  8
0
 66
     1
 10
0.0
 20
0.0
 30
0.0
  0
VERTEX
  5
164C5
  8
0
 10
139.2950110931352015
 20
155.5
 30
0.0
  0
VERTEX
  5
164C6
  8
0
 10
139.3553621523026891
 20
155.5071699386039938
 30
0.0
  0
VERTEX
  5
164C7
  8
0
 10
139.4159563705291021
 20
155.5144027896070043
 30
0.0
  0
VERTEX
  5
164C8
  8
0
 10
139.4770369068731952
 20
155.5217614654077067
 30
0.0
  0
VERTEX
  5
164C9
  8
0
 10
139.5388469203940076
 20
155.5293088784050042
 30
0.0
  0
VERTEX
  5
164CA
  8
0
 10
139.6016295701504077
 20
155.5371079409979131
 30
0.0
  0
VERTEX
  5
164CB
  8
0
 10
139.6656280152010083
 20
155.5452215655851944
 30
0.0
  0
VERTEX
  5
164CC
  8
0
 10
139.7310854146053032
 20
155.5537126645658077
 30
0.0
  0
VERTEX
  5
164CD
  8
0
 10
139.7982449266424965
 20
155.5626441501630097
 30
0.0
  0
VERTEX
  5
164CE
  8
0
 10
139.8672969489890079
 20
155.5720670528806124
 30
0.0
  0
VERTEX
  5
164CF
  8
0
 10
139.9382361642250032
 20
155.5819883280630052
 30
0.0
  0
VERTEX
  5
164D0
  8
0
 10
140.0110118834433877
 20
155.592404713368694
 30
0.0
  0
VERTEX
  5
164D1
  8
0
 10
140.0855734177370095
 20
155.6033129464559011
 30
0.0
  0
VERTEX
  5
164D2
  8
0
 10
140.1618700781984899
 20
155.614709764982905
 30
0.0
  0
VERTEX
  5
164D3
  8
0
 10
140.2398511759207054
 20
155.6265919066078141
 30
0.0
  0
VERTEX
  5
164D4
  8
0
 10
140.3194660219967034
 20
155.638956108989106
 30
0.0
  0
VERTEX
  5
164D5
  8
0
 10
140.4006639275189059
 20
155.6517991097848892
 30
0.0
  0
VERTEX
  5
164D6
  8
0
 10
140.4833785725614064
 20
155.6651116374243031
 30
0.0
  0
VERTEX
  5
164D7
  8
0
 10
140.5674337828492924
 20
155.6788421876447899
 30
0.0
  0
VERTEX
  5
164D8
  8
0
 10
140.6526062809290067
 20
155.692921147716504
 30
0.0
  0
VERTEX
  5
164D9
  8
0
 10
140.7386726092425135
 20
155.7072788356690012
 30
0.0
  0
VERTEX
  5
164DA
  8
0
 10
140.8254093102310094
 20
155.7218455695322916
 30
0.0
  0
VERTEX
  5
164DB
  8
0
 10
140.9125929263362877
 20
155.7365516673359025
 30
0.0
  0
VERTEX
  5
164DC
  8
0
 10
141.0
 20
155.7513274471097873
 30
0.0
  0
SEQEND
  5
164DD
  8
0
  0
POLYLINE
  5
14CD3
  8
0
 66
     1
 10
0.0
 20
0.0
 30
0.0
  0
VERTEX
  5
164DE
  8
0
 10
154.0
 20
158.3137236050368983
 30
0.0
  0
VERTEX
  5
164DF
  8
0
 10
154.0830101276895903
 20
158.3228405589372016
 30
0.0
  0
VERTEX
  5
164E0
  8
0
 10
154.1649183629496918
 20
158.3315848909263082
 30
0.0
  0
VERTEX
  5
164E1
  8
0
 10
154.2446228133507873
 20
158.3395839790929926
 30
0.0
  0
VERTEX
  5
164E2
  8
0
 10
154.3212228444224081
 20
158.3465353152992066
 30
0.0
  0
VERTEX
  5
164E3
  8
0
 10
154.3946815547865867
 20
158.3524372967040108
 30
0.0
  0
VERTEX
  5
164E4
  8
0
 10
154.4651937061601927
 20
158.3573690267093923
 30
0.0
  0
VERTEX
  5
164E5
  8
0
 10
154.5329540630480949
 20
158.3614096096883088
 30
0.0
  0
VERTEX
  5
164E6
  8
0
 10
154.5981573899553041
 20
158.3646381500138034
 30
0.0
  0
VERTEX
  5
164E7
  8
0
 10
154.6609984513866038
 20
158.3671337520588907
 30
0.0
  0
VERTEX
  5
164E8
  8
0
 10
154.7216720118468061
 20
158.3689755201968126
 30
0.0
  0
VERTEX
  5
164E9
  8
0
 10
154.7803663016115081
 20
158.3702401165066078
 30
0.0
  0
VERTEX
  5
164EA
  8
0
 10
154.8371462174551993
 20
158.3709581048049984
 30
0.0
  0
VERTEX
  5
164EB
  8
0
 10
154.8919666640520916
 20
158.3711189372492925
 30
0.0
  0
VERTEX
  5
164EC
  8
0
 10
154.944778691094001
 20
158.3707106251235928
 30
0.0
  0
VERTEX
  5
164ED
  8
0
 10
154.9955333482737103
 20
158.3697211797122861
 30
0.0
  0
VERTEX
  5
164EE
  8
0
 10
155.0441816852830073
 20
158.3681386122993047
 30
0.0
  0
VERTEX
  5
164EF
  8
0
 10
155.0906747518143902
 20
158.3659509341688931
 30
0.0
  0
VERTEX
  5
164F0
  8
0
 10
155.1349632291926923
 20
158.363146120024993
 30
0.0
  0
VERTEX
  5
164F1
  8
0
 10
155.1769653429716129
 20
158.3597089215977007
 30
0.0
  0
VERTEX
  5
164F2
  8
0
 10
155.2165419336321008
 20
158.3556183920738931
 30
0.0
  0
VERTEX
  5
164F3
  8
0
 10
155.2535479739381117
 20
158.3508530019556133
 30
0.0
  0
VERTEX
  5
164F4
  8
0
 10
155.2878384366534021
 20
158.3453912217445918
 30
0.0
  0
VERTEX
  5
164F5
  8
0
 10
155.3192682945420131
 20
158.3392115219429002
 30
0.0
  0
VERTEX
  5
164F6
  8
0
 10
155.3476925203671044
 20
158.332292373052212
 30
0.0
  0
VERTEX
  5
164F7
  8
0
 10
155.3729660880817107
 20
158.3246122458243974
 30
0.0
  0
VERTEX
  5
164F8
  8
0
 10
155.3950288630178136
 20
158.3161674588014023
 30
0.0
  0
VERTEX
  5
164F9
  8
0
 10
155.4141360430874954
 20
158.3070206268888001
 30
0.0
  0
VERTEX
  5
164FA
  8
0
 10
155.4306160277199922
 20
158.2972497550740059
 30
0.0
  0
VERTEX
  5
164FB
  8
0
 10
155.4447972163451936
 20
158.2869328483448044
 30
0.0
  0
VERTEX
  5
164FC
  8
0
 10
155.4570080083927053
 20
158.2761479116892076
 30
0.0
  0
VERTEX
  5
164FD
  8
0
 10
155.4675768032919052
 20
158.2649729500946876
 30
0.0
  0
VERTEX
  5
164FE
  8
0
 10
155.4768320004725979
 20
158.2534859685491995
 30
0.0
  0
VERTEX
  5
164FF
  8
0
 10
155.4851019993643888
 20
158.2417649720403858
 30
0.0
  0
VERTEX
  5
16500
  8
0
 10
155.4927151993969971
 20
158.2298879655560881
 30
0.0
  0
VERTEX
  5
16501
  8
0
 10
155.5
 20
158.2179329540840058
 30
0.0
  0
SEQEND
  5
16502
  8
0
  0
POLYLINE
  5
14CD4
  8
0
 66
     1
 10
0.0
 20
0.0
 30
0.0
  0
VERTEX
  5
16503
  8
0
 10
155.5
 20
158.2179329540838069
 30
0.0
  0
VERTEX
  5
16504
  8
0
 10
155.5
 20
158.1075462604271138
 30
0.0
  0
VERTEX
  5
16505
  8
0
 10
155.5
 20
157.9945946862260087
 30
0.0
  0
VERTEX
  5
16506
  8
0
 10
155.5
 20
157.8791458078790129
 30
0.0
  0
VERTEX
  5
16507
  8
0
 10
155.5
 20
157.7612672017839941
 30
0.0
  0
VERTEX
  5
16508
  8
0
 10
155.5
 20
157.6410264443393032
 30
0.0
  0
VERTEX
  5
16509
  8
0
 10
155.5
 20
157.5184911119430069
 30
0.0
  0
VERTEX
  5
1650A
  8
0
 10
155.5
 20
157.3937287809932002
 30
0.0
  0
VERTEX
  5
1650B
  8
0
 10
155.5
 20
157.2668070278878076
 30
0.0
  0
VERTEX
  5
1650C
  8
0
 10
155.5
 20
157.1377934290254075
 30
0.0
  0
VERTEX
  5
1650D
  8
0
 10
155.5
 20
157.0067555608038106
 30
0.0
  0
VERTEX
  5
1650E
  8
0
 10
155.5
 20
156.8737609996211972
 30
0.0
  0
SEQEND
  5
1650F
  8
0
  0
POLYLINE
  5
14CD5
  8
0
 66
     1
 10
0.0
 20
0.0
 30
0.0
  0
VERTEX
  5
16510
  8
0
 10
244.5
 20
156.8737608942493011
 30
0.0
  0
VERTEX
  5
16511
  8
0
 10
244.499464543895499
 20
156.8630045424538082
 30
0.0
  0
VERTEX
  5
16512
  8
0
 10
244.497859636705499
 20
156.8524479119784019
 30
0.0
  0
VERTEX
  5
16513
  8
0
 10
244.4951874701154964
 20
156.8420902031220123
 30
0.0
  0
VERTEX
  5
16514
  8
0
 10
244.4914502358111861
 20
156.8319306161824045
 30
0.0
  0
VERTEX
  5
16515
  8
0
 10
244.4866501254778086
 20
156.8219683514581959
 30
0.0
  0
VERTEX
  5
16516
  8
0
 10
244.4807893308010875
 20
156.8122026092476915
 30
0.0
  0
VERTEX
  5
16517
  8
0
 10
244.4738700434666043
 20
156.8026325898491962
 30
0.0
  0
VERTEX
  5
16518
  8
0
 10
244.4658944551597131
 20
156.7932574935609864
 30
0.0
  0
VERTEX
  5
16519
  8
0
 10
244.4568647575659952
 20
156.7840765206815092
 30
0.0
  0
VERTEX
  5
1651A
  8
0
 10
244.4467831423708049
 20
156.775088871509098
 30
0.0
  0
VERTEX
  5
1651B
  8
0
 10
244.435651801260093
 20
156.7662937463418871
 30
0.0
  0
VERTEX
  5
1651C
  8
0
 10
244.423472925918901
 20
156.7576903454784087
 30
0.0
  0
VERTEX
  5
1651D
  8
0
 10
244.4102487080328956
 20
156.7492778692169964
 30
0.0
  0
VERTEX
  5
1651E
  8
0
 10
244.3959796091791929
 20
156.7410558537912948
 30
0.0
  0
VERTEX
  5
1651F
  8
0
 10
244.3806583081332064
 20
156.7330253357276035
 30
0.0
  0
VERTEX
  5
16520
  8
0
 10
244.3642796998441895
 20
156.7251869079576068
 30
0.0
  0
VERTEX
  5
16521
  8
0
 10
244.3468391419266936
 20
156.7175410729963119
 30
0.0
  0
VERTEX
  5
16522
  8
0
 10
244.3283319919956966
 20
156.7100883333592094
 30
0.0
  0
VERTEX
  5
16523
  8
0
 10
244.3087536076660911
 20
156.702829191561392
 30
0.0
  0
VERTEX
  5
16524
  8
0
 10
244.2880993465524
 20
156.6957641501184071
 30
0.0
  0
VERTEX
  5
16525
  8
0
 10
244.2663555422743968
 20
156.6888941089144112
 30
0.0
  0
VERTEX
  5
16526
  8
0
 10
244.243526235452606
 20
156.6822238233492044
 30
0.0
  0
VERTEX
  5
16527
  8
0
 10
244.2196389346810008
 20
156.6757597840201015
 30
0.0
  0
VERTEX
  5
16528
  8
0
 10
244.1947212096314956
 20
156.6695084836582055
 30
0.0
  0
VERTEX
  5
16529
  8
0
 10
244.1688006299760048
 20
156.6634764149943919
 30
0.0
  0
VERTEX
  5
1652A
  8
0
 10
244.1419047653861014
 20
156.6576700707599912
 30
0.0
  0
VERTEX
  5
1652B
  8
0
 10
244.114060400224588
 20
156.6520954777666077
 30
0.0
  0
VERTEX
  5
1652C
  8
0
 10
244.085270641801003
 20
156.6467471382711949
 30
0.0
  0
VERTEX
  5
1652D
  8
0
 10
244.0555309862631077
 20
156.6416212956715128
 30
0.0
  0
VERTEX
  5
1652E
  8
0
 10
244.0248414107416011
 20
156.6367177601505887
 30
0.0
  0
VERTEX
  5
1652F
  8
0
 10
243.9932018923674093
 20
156.6320363418917054
 30
0.0
  0
VERTEX
  5
16530
  8
0
 10
243.9606124082712881
 20
156.6275768510780892
 30
0.0
  0
VERTEX
  5
16531
  8
0
 10
243.927072935584107
 20
156.6233390978931084
 30
0.0
  0
VERTEX
  5
16532
  8
0
 10
243.8925834514367921
 20
156.6193228925197047
 30
0.0
  0
VERTEX
  5
16533
  8
0
 10
243.8571439329600139
 20
156.6155280451413034
 30
0.0
  0
VERTEX
  5
16534
  8
0
 10
243.8207543572846987
 20
156.6119543659411875
 30
0.0
  0
VERTEX
  5
16535
  8
0
 10
243.7834147015416022
 20
156.6086016651024124
 30
0.0
  0
VERTEX
  5
16536
  8
0
 10
243.7451249428613949
 20
156.6054697528082045
 30
0.0
  0
VERTEX
  5
16537
  8
0
 10
243.7058850583750029
 20
156.6025584392419034
 30
0.0
  0
VERTEX
  5
16538
  8
0
 10
243.6656950252134948
 20
156.5998675345867071
 30
0.0
  0
VERTEX
  5
16539
  8
0
 10
243.6245363256653036
 20
156.5973991307957931
 30
0.0
  0
VERTEX
  5
1653A
  8
0
 10
243.5823948758174993
 20
156.5951570251230009
 30
0.0
  0
VERTEX
  5
1653B
  8
0
 10
243.539296455063095
 20
156.5931416783782026
 30
0.0
  0
VERTEX
  5
1653C
  8
0
 10
243.4952672885958975
 20
156.5913535063816084
 30
0.0
  0
VERTEX
  5
1653D
  8
0
 10
243.4503336016094863
 20
156.5897929249530023
 30
0.0
  0
VERTEX
  5
1653E
  8
0
 10
243.4045216192974124
 20
156.5884603499127934
 30
0.0
  0
VERTEX
  5
1653F
  8
0
 10
243.3578575668533119
 20
156.5873561970811068
 30
0.0
  0
VERTEX
  5
16540
  8
0
 10
243.3103676694707929
 20
156.5864808822778969
 30
0.0
  0
VERTEX
  5
16541
  8
0
 10
243.2620781523434914
 20
156.5858348213238003
 30
0.0
  0
VERTEX
  5
16542
  8
0
 10
243.2130152406651007
 20
156.585418430038402
 30
0.0
  0
VERTEX
  5
16543
  8
0
 10
243.1632051596288875
 20
156.5852321242421112
 30
0.0
  0
VERTEX
  5
16544
  8
0
 10
243.1126741344288007
 20
156.5852763197551099
 30
0.0
  0
VERTEX
  5
16545
  8
0
 10
243.0614483902583061
 20
156.5855514323974091
 30
0.0
  0
VERTEX
  5
16546
  8
0
 10
243.0095460555282045
 20
156.5860570404796022
 30
0.0
  0
VERTEX
  5
16547
  8
0
 10
242.9569343760551021
 20
156.5867885947911873
 30
0.0
  0
VERTEX
  5
16548
  8
0
 10
242.9036049058479136
 20
156.5877458270452109
 30
0.0
  0
VERTEX
  5
16549
  8
0
 10
242.849556140289792
 20
156.5889293131342015
 30
0.0
  0
VERTEX
  5
1654A
  8
0
 10
242.7947865747638048
 20
156.5903396289502041
 30
0.0
  0
VERTEX
  5
1654B
  8
0
 10
242.7392947046527922
 20
156.5919773503858039
 30
0.0
  0
VERTEX
  5
1654C
  8
0
 10
242.6830790253403904
 20
156.5938430533331029
 30
0.0
  0
VERTEX
  5
1654D
  8
0
 10
242.6261380322088996
 20
156.5959373136846011
 30
0.0
  0
VERTEX
  5
1654E
  8
0
 10
242.5684702206420127
 20
156.5982607073327131
 30
0.0
  0
VERTEX
  5
1654F
  8
0
 10
242.5100740860223141
 20
156.6008138101695977
 30
0.0
  0
VERTEX
  5
16550
  8
0
 10
242.4509481237332125
 20
156.603597198087698
 30
0.0
  0
VERTEX
  5
16551
  8
0
 10
242.3910908291574913
 20
156.6066114469792865
 30
0.0
  0
VERTEX
  5
16552
  8
0
 10
242.3305006976783886
 20
156.6098571327368063
 30
0.0
  0
VERTEX
  5
16553
  8
0
 10
242.2691778483190035
 20
156.6133347528368063
 30
0.0
  0
VERTEX
  5
16554
  8
0
 10
242.2072504707815028
 20
156.617038367003488
 30
0.0
  0
VERTEX
  5
16555
  8
0
 10
242.1448092346336125
 20
156.6209630555493106
 30
0.0
  0
VERTEX
  5
16556
  8
0
 10
242.0818670963784882
 20
156.6251074993525947
 30
0.0
  0
VERTEX
  5
16557
  8
0
 10
242.0184370125190867
 20
156.6294703792920018
 30
0.0
  0
VERTEX
  5
16558
  8
0
 10
241.9545319395583931
 20
156.6340503762459946
 30
0.0
  0
VERTEX
  5
16559
  8
0
 10
241.8901648339993926
 20
156.6388461710932063
 30
0.0
  0
VERTEX
  5
1655A
  8
0
 10
241.8253486523450135
 20
156.6438564447119859
 30
0.0
  0
VERTEX
  5
1655B
  8
0
 10
241.7600963510982126
 20
156.6490798779811087
 30
0.0
  0
VERTEX
  5
1655C
  8
0
 10
241.6944208867620887
 20
156.6545151517788099
 30
0.0
  0
VERTEX
  5
1655D
  8
0
 10
241.6283352158397122
 20
156.6601609469840071
 30
0.0
  0
VERTEX
  5
1655E
  8
0
 10
241.5618522948338978
 20
156.666015944474907
 30
0.0
  0
VERTEX
  5
1655F
  8
0
 10
241.4949850802476021
 20
156.6720788251300007
 30
0.0
  0
VERTEX
  5
16560
  8
0
 10
241.4277465285838105
 20
156.6783482698282057
 30
0.0
  0
VERTEX
  5
16561
  8
0
 10
241.3601096824546062
 20
156.6848272808205138
 30
0.0
  0
VERTEX
  5
16562
  8
0
 10
241.2919956433939035
 20
156.691524680166907
 30
0.0
  0
VERTEX
  5
16563
  8
0
 10
241.2234240079347103
 20
156.6984388103971924
 30
0.0
  0
VERTEX
  5
16564
  8
0
 10
241.1544189240653111
 20
156.7055675252726132
 30
0.0
  0
VERTEX
  5
16565
  8
0
 10
241.0850045397737063
 20
156.7129086785544985
 30
0.0
  0
VERTEX
  5
16566
  8
0
 10
241.0152050030480098
 20
156.7204601240042905
 30
0.0
  0
VERTEX
  5
16567
  8
0
 10
240.9450444618759946
 20
156.7282197153830055
 30
0.0
  0
VERTEX
  5
16568
  8
0
 10
240.8745470642458031
 20
156.7361853064525121
 30
0.0
  0
VERTEX
  5
16569
  8
0
 10
240.8037369581456062
 20
156.7443547509735993
 30
0.0
  0
VERTEX
  5
1656A
  8
0
 10
240.7326382915632905
 20
156.7527259027077946
 30
0.0
  0
VERTEX
  5
1656B
  8
0
 10
240.6612752124869132
 20
156.7612966154165122
 30
0.0
  0
VERTEX
  5
1656C
  8
0
 10
240.5896718689043894
 20
156.7700647428609102
 30
0.0
  0
VERTEX
  5
1656D
  8
0
 10
240.5178524088038898
 20
156.779028138802488
 30
0.0
  0
VERTEX
  5
1656E
  8
0
 10
240.4458457965450862
 20
156.7881837998415051
 30
0.0
  0
VERTEX
  5
1656F
  8
0
 10
240.3737188932848028
 20
156.7975214346406005
 30
0.0
  0
VERTEX
  5
16570
  8
0
 10
240.3014867032883046
 20
156.8070389116820138
 30
0.0
  0
VERTEX
  5
16571
  8
0
 10
240.2291492835875033
 20
156.8167366472841024
 30
0.0
  0
VERTEX
  5
16572
  8
0
 10
240.1567066912151915
 20
156.8266150577651956
 30
0.0
  0
VERTEX
  5
16573
  8
0
 10
240.0841589832037073
 20
156.8366745594433098
 30
0.0
  0
VERTEX
  5
16574
  8
0
 10
240.0115062165855875
 20
156.8469155686368026
 30
0.0
  0
VERTEX
  5
16575
  8
0
 10
239.9387484483931985
 20
156.8573385016638895
 30
0.0
  0
VERTEX
  5
16576
  8
0
 10
239.8658857356591909
 20
156.8679437748428995
 30
0.0
  0
VERTEX
  5
16577
  8
0
 10
239.7929181354159027
 20
156.8787318044919914
 30
0.0
  0
VERTEX
  5
16578
  8
0
 10
239.7198457046958993
 20
156.889703006929409
 30
0.0
  0
VERTEX
  5
16579
  8
0
 10
239.6466685005314901
 20
156.900857798473595
 30
0.0
  0
VERTEX
  5
1657A
  8
0
 10
239.573386579955411
 20
156.9121965954425946
 30
0.0
  0
VERTEX
  5
1657B
  8
0
 10
239.4999999999998863
 20
156.9237198141547083
 30
0.0
  0
SEQEND
  5
1657C
  8
0
  0
POLYLINE
  5
14CD6
  8
0
 66
     1
 10
0.0
 20
0.0
 30
0.0
  0
VERTEX
  5
1657D
  8
0
 10
244.5
 20
156.8737608942493011
 30
0.0
  0
VERTEX
  5
1657E
  8
0
 10
244.5
 20
157.006755466395191
 30
0.0
  0
VERTEX
  5
1657F
  8
0
 10
244.5
 20
157.1377933453447895
 30
0.0
  0
VERTEX
  5
16580
  8
0
 10
244.5
 20
157.2668069546863023
 30
0.0
  0
VERTEX
  5
16581
  8
0
 10
244.5
 20
157.3937287180077078
 30
0.0
  0
VERTEX
  5
16582
  8
0
 10
244.5
 20
157.5184910588968989
 30
0.0
  0
VERTEX
  5
16583
  8
0
 10
244.5
 20
157.6410264009419961
 30
0.0
  0
VERTEX
  5
16584
  8
0
 10
244.5
 20
157.7612671677308924
 30
0.0
  0
VERTEX
  5
16585
  8
0
 10
244.5
 20
157.8791457828515092
 30
0.0
  0
VERTEX
  5
16586
  8
0
 10
244.5
 20
157.9945946698919101
 30
0.0
  0
VERTEX
  5
16587
  8
0
 10
244.5
 20
158.1075462524401019
 30
0.0
  0
VERTEX
  5
16588
  8
0
 10
244.5
 20
158.2179329540838069
 30
0.0
  0
SEQEND
  5
16589
  8
0
  0
POLYLINE
  5
14CD7
  8
0
 66
     1
 10
0.0
 20
0.0
 30
0.0
  0
VERTEX
  5
1658A
  8
0
 10
244.5
 20
158.2179329540838069
 30
0.0
  0
VERTEX
  5
1658B
  8
0
 10
244.5055433945026948
 20
158.2302599303255874
 30
0.0
  0
VERTEX
  5
1658C
  8
0
 10
244.5115240100776077
 20
158.2424865207482867
 30
0.0
  0
VERTEX
  5
1658D
  8
0
 10
244.5183790677965021
 20
158.2545123395331927
 30
0.0
  0
VERTEX
  5
1658E
  8
0
 10
244.5265457887317098
 20
158.2662370008615085
 30
0.0
  0
VERTEX
  5
1658F
  8
0
 10
244.5364613939549088
 20
158.2775601189142094
 30
0.0
  0
VERTEX
  5
16590
  8
0
 10
244.5485631045388004
 20
158.2883813078726121
 30
0.0
  0
VERTEX
  5
16591
  8
0
 10
244.563288141555006
 20
158.2986001819176067
 30
0.0
  0
VERTEX
  5
16592
  8
0
 10
244.5810361907537072
 20
158.308124129591306
 30
0.0
  0
VERTEX
  5
16593
  8
0
 10
244.6018730692248937
 20
158.3169296907128114
 30
0.0
  0
VERTEX
  5
16594
  8
0
 10
244.6256895988533984
 20
158.3250296503177026
 30
0.0
  0
VERTEX
  5
16595
  8
0
 10
244.6523750605354905
 20
158.3324371126134906
 30
0.0
  0
VERTEX
  5
16596
  8
0
 10
244.6818187351668996
 20
158.3391651818070898
 30
0.0
  0
VERTEX
  5
16597
  8
0
 10
244.7139099036434118
 20
158.3452269621058122
 30
0.0
  0
VERTEX
  5
16598
  8
0
 10
244.7485378468610975
 20
158.3506355577167994
 30
0.0
  0
VERTEX
  5
16599
  8
0
 10
244.7855932451068952
 20
158.3554039441976045
 30
0.0
  0
VERTEX
  5
1659A
  8
0
 10
244.8250009010060069
 20
158.3595419601493859
 30
0.0
  0
VERTEX
  5
1659B
  8
0
 10
244.8667208512464981
 20
158.3630562050126969
 30
0.0
  0
VERTEX
  5
1659C
  8
0
 10
244.910714754325511
 20
158.3659531291312135
 30
0.0
  0
VERTEX
  5
1659D
  8
0
 10
244.9569442687393064
 20
158.3682391828484128
 30
0.0
  0
VERTEX
  5
1659E
  8
0
 10
245.0053710529844864
 20
158.3699208165081984
 30
0.0
  0
VERTEX
  5
1659F
  8
0
 10
245.0559567655575961
 20
158.3710044804539905
 30
0.0
  0
VERTEX
  5
165A0
  8
0
 10
245.1086633219364899
 20
158.3714965286544896
 30
0.0
  0
VERTEX
  5
165A1
  8
0
 10
245.1634918094152056
 20
158.371388624584398
 30
0.0
  0
VERTEX
  5
165A2
  8
0
 10
245.2205241780588949
 20
158.3706421059845013
 30
0.0
  0
VERTEX
  5
165A3
  8
0
 10
245.2798523731837008
 20
158.3692145621056113
 30
0.0
  0
VERTEX
  5
165A4
  8
0
 10
245.3415683401063916
 20
158.3670635821981989
 30
0.0
  0
VERTEX
  5
165A5
  8
0
 10
245.4057640241429112
 20
158.3641467555127917
 30
0.0
  0
VERTEX
  5
165A6
  8
0
 10
245.4725313706098007
 20
158.3604216713002018
 30
0.0
  0
VERTEX
  5
165A7
  8
0
 10
245.5419623248230891
 20
158.3558459188107008
 30
0.0
  0
VERTEX
  5
165A8
  8
0
 10
245.6140650393876115
 20
158.3504061617562115
 30
0.0
  0
VERTEX
  5
165A9
  8
0
 10
245.688478787566595
 20
158.3442170578927914
 30
0.0
  0
VERTEX
  5
165AA
  8
0
 10
245.7647413650414023
 20
158.337428475748311
 30
0.0
  0
VERTEX
  5
165AB
  8
0
 10
245.8423905644876868
 20
158.330190284892808
 30
0.0
  0
VERTEX
  5
165AC
  8
0
 10
245.9209641785818974
 20
158.3226523548966895
 30
0.0
  0
VERTEX
  5
165AD
  8
0
 10
246.0
 20
158.3149645553301923
 30
0.0
  0
SEQEND
  5
165AE
  8
0
  0
POLYLINE
  5
14CD8
  8
0
 66
     1
 10
0.0
 20
0.0
 30
0.0
  0
VERTEX
  5
165AF
  8
0
 10
259.0
 20
155.7511669049605132
 30
0.0
  0
VERTEX
  5
165B0
  8
0
 10
259.0870111492602064
 20
155.7365341265683014
 30
0.0
  0
VERTEX
  5
165B1
  8
0
 10
259.1738205571501226
 20
155.7219632977092942
 30
0.0
  0
VERTEX
  5
165B2
  8
0
 10
259.2602264822991742
 20
155.7075163679168099
 30
0.0
  0
VERTEX
  5
165B3
  8
0
 10
259.3460271833372985
 20
155.69325528672411
 30
0.0
  0
VERTEX
  5
165B4
  8
0
 10
259.431020918893978
 20
155.6792420036643136
 30
0.0
  0
VERTEX
  5
165B5
  8
0
 10
259.515005947598695
 20
155.6655384682707108
 30
0.0
  0
VERTEX
  5
165B6
  8
0
 10
259.5977805280813868
 20
155.6522066300765914
 30
0.0
  0
VERTEX
  5
165B7
  8
0
 10
259.6791435995791062
 20
155.6393081716396125
 30
0.0
  0
VERTEX
  5
165B8
  8
0
 10
259.7589457767801946
 20
155.626884505274802
 30
0.0
  0
VERTEX
  5
165B9
  8
0
 10
259.8371247167297042
 20
155.6149429000111013
 30
0.0
  0
VERTEX
  5
165BA
  8
0
 10
259.913626439035113
 20
155.6034873445738071
 30
0.0
  0
VERTEX
  5
165BB
  8
0
 10
259.9883969633033871
 20
155.5925218276885005
 30
0.0
  0
VERTEX
  5
165BC
  8
0
 10
260.061382309142175
 20
155.5820503380805917
 30
0.0
  0
VERTEX
  5
165BD
  8
0
 10
260.1325284961584998
 20
155.5720768644756049
 30
0.0
  0
VERTEX
  5
165BE
  8
0
 10
260.2017815439593278
 20
155.5626053955988937
 30
0.0
  0
VERTEX
  5
165BF
  8
0
 10
260.2691090450312004
 20
155.5536350423687111
 30
0.0
  0
VERTEX
  5
165C0
  8
0
 10
260.3346664342072927
 20
155.5451224429866102
 30
0.0
  0
VERTEX
  5
165C1
  8
0
 10
260.3987058983900056
 20
155.5370023592070083
 30
0.0
  0
VERTEX
  5
165C2
  8
0
 10
260.4614804250783209
 20
155.5292093717631019
 30
0.0
  0
VERTEX
  5
165C3
  8
0
 10
260.5232430017711067
 20
155.5216780613874903
 30
0.0
  0
VERTEX
  5
165C4
  8
0
 10
260.5842466159671744
 20
155.514343008813114
 30
0.0
  0
VERTEX
  5
165C5
  8
0
 10
260.6447442551656195
 20
155.5071387947729988
 30
0.0
  0
VERTEX
  5
165C6
  8
0
 10
260.7049889068650828
 20
155.5
 30
0.0
  0
SEQEND
  5
165C7
  8
0
  0
POLYLINE
  5
14CD9
  8
0
 66
     1
 10
0.0
 20
0.0
 30
0.0
  0
VERTEX
  5
165C8
  8
0
 10
155.5
 20
156.8737609996211972
 30
0.0
  0
VERTEX
  5
165C9
  8
0
 10
155.5005354463997946
 20
156.863004644914696
 30
0.0
  0
VERTEX
  5
165CA
  8
0
 10
155.5021403453636992
 20
156.8524480102811083
 30
0.0
  0
VERTEX
  5
165CB
  8
0
 10
155.5048125050334136
 20
156.8420902962508023
 30
0.0
  0
VERTEX
  5
165CC
  8
0
 10
155.5085497335506091
 20
156.8319307033538053
 30
0.0
  0
VERTEX
  5
165CD
  8
0
 10
155.5133498390569002
 20
156.8219684321203999
 30
0.0
  0
VERTEX
  5
165CE
  8
0
 10
155.5192106296939869
 20
156.8122026830806135
 30
0.0
  0
VERTEX
  5
165CF
  8
0
 10
155.5261299136035973
 20
156.8026326567648994
 30
0.0
  0
VERTEX
  5
165D0
  8
0
 10
155.5341054989274028
 20
156.7932575537033131
 30
0.0
  0
VERTEX
  5
165D1
  8
0
 10
155.5431351938069042
 20
156.7840765744259954
 30
0.0
  0
VERTEX
  5
165D2
  8
0
 10
155.5532168063840004
 20
156.7750889194632009
 30
0.0
  0
VERTEX
  5
165D3
  8
0
 10
155.5643481448003058
 20
156.7662937893450987
 30
0.0
  0
VERTEX
  5
165D4
  8
0
 10
155.5765270171974066
 20
156.7576903846018013
 30
0.0
  0
VERTEX
  5
165D5
  8
0
 10
155.5897512317170026
 20
156.7492779057635914
 30
0.0
  0
VERTEX
  5
165D6
  8
0
 10
155.6040203267700122
 20
156.7410558889702088
 30
0.0
  0
VERTEX
  5
165D7
  8
0
 10
155.6193416240909073
 20
156.7330253696530065
 30
0.0
  0
VERTEX
  5
165D8
  8
0
 10
155.6357202287886139
 20
156.7251869406321987
 30
0.0
  0
VERTEX
  5
165D9
  8
0
 10
155.6531607832536963
 20
156.7175411044237023
 30
0.0
  0
VERTEX
  5
165DA
  8
0
 10
155.6716679298758947
 20
156.7100883635436048
 30
0.0
  0
VERTEX
  5
165DB
  8
0
 10
155.6912463110450915
 20
156.7028292205079083
 30
0.0
  0
VERTEX
  5
165DC
  8
0
 10
155.7119005691515099
 20
156.6957641778325865
 30
0.0
  0
VERTEX
  5
165DD
  8
0
 10
155.7336443705110014
 20
156.6888941354220037
 30
0.0
  0
VERTEX
  5
165DE
  8
0
 10
155.7564736744234892
 20
156.6822238486975039
 30
0.0
  0
VERTEX
  5
165DF
  8
0
 10
155.7803609723065108
 20
156.6757598082510867
 30
0.0
  0
VERTEX
  5
165E0
  8
0
 10
155.8052786945000889
 20
156.669508506808512
 30
0.0
  0
VERTEX
  5
165E1
  8
0
 10
155.8311992713441043
 20
156.6634764370953121
 30
0.0
  0
VERTEX
  5
165E2
  8
0
 10
155.8580951331780966
 20
156.6576700918369909
 30
0.0
  0
VERTEX
  5
165E3
  8
0
 10
155.8859394956535027
 20
156.6520954978396105
 30
0.0
  0
VERTEX
  5
165E4
  8
0
 10
155.9147292515087031
 20
156.6467471573502905
 30
0.0
  0
VERTEX
  5
165E5
  8
0
 10
155.9444689046160022
 20
156.6416213137638067
 30
0.0
  0
VERTEX
  5
165E6
  8
0
 10
155.9751584778489928
 20
156.6367177772644084
 30
0.0
  0
VERTEX
  5
165E7
  8
0
 10
156.0067979940808129
 20
156.632036358036089
 30
0.0
  0
VERTEX
  5
165E8
  8
0
 10
156.0393874761844017
 20
156.6275768662628991
 30
0.0
  0
VERTEX
  5
165E9
  8
0
 10
156.0729269470334941
 20
156.6233391121292016
 30
0.0
  0
VERTEX
  5
165EA
  8
0
 10
156.1074164295006028
 20
156.619322905818791
 30
0.0
  0
VERTEX
  5
165EB
  8
0
 10
156.1428559464596049
 20
156.615528057516002
 30
0.0
  0
VERTEX
  5
165EC
  8
0
 10
156.1792455207834109
 20
156.6119543774047997
 30
0.0
  0
VERTEX
  5
165ED
  8
0
 10
156.2165851753451022
 20
156.608601675669405
 30
0.0
  0
VERTEX
  5
165EE
  8
0
 10
156.254874933018101
 20
156.6054697624938115
 30
0.0
  0
VERTEX
  5
165EF
  8
0
 10
156.2941148166754886
 20
156.6025584480622115
 30
0.0
  0
VERTEX
  5
165F0
  8
0
 10
156.3343048491906018
 20
156.5998675425585986
 30
0.0
  0
VERTEX
  5
165F1
  8
0
 10
156.375463548213304
 20
156.5973991379399024
 30
0.0
  0
VERTEX
  5
165F2
  8
0
 10
156.4176049975584988
 20
156.5951570314645949
 30
0.0
  0
VERTEX
  5
165F3
  8
0
 10
156.4607034178378058
 20
156.5931416839420081
 30
0.0
  0
VERTEX
  5
165F4
  8
0
 10
156.5047325838648931
 20
156.5913535111913859
 30
0.0
  0
VERTEX
  5
165F5
  8
0
 10
156.5496662704520077
 20
156.5897929290325976
 30
0.0
  0
VERTEX
  5
165F6
  8
0
 10
156.5954782524123061
 20
156.5884603532850861
 30
0.0
  0
VERTEX
  5
165F7
  8
0
 10
156.6421423045590871
 20
156.5873561997684078
 30
0.0
  0
VERTEX
  5
165F8
  8
0
 10
156.6896322017051091
 20
156.5864808843024036
 30
0.0
  0
VERTEX
  5
165F9
  8
0
 10
156.7379217186633014
 20
156.5858348227064027
 30
0.0
  0
VERTEX
  5
165FA
  8
0
 10
156.7869846302467067
 20
156.5854184308001038
 30
0.0
  0
VERTEX
  5
165FB
  8
0
 10
156.8367947112685101
 20
156.5852321244030065
 30
0.0
  0
VERTEX
  5
165FC
  8
0
 10
156.8873257365414133
 20
156.5852763193348949
 30
0.0
  0
VERTEX
  5
165FD
  8
0
 10
156.9385514808786866
 20
156.585551431415098
 30
0.0
  0
VERTEX
  5
165FE
  8
0
 10
156.9904538158839955
 20
156.5860570389540101
 30
0.0
  0
VERTEX
  5
165FF
  8
0
 10
157.0430654957953038
 20
156.5867885927424084
 30
0.0
  0
VERTEX
  5
16600
  8
0
 10
157.0963949666158044
 20
156.5877458244949878
 30
0.0
  0
VERTEX
  5
16601
  8
0
 10
157.1504437329664086
 20
156.5889293101049873
 30
0.0
  0
VERTEX
  5
16602
  8
0
 10
157.2052132994687952
 20
156.5903396254662994
 30
0.0
  0
VERTEX
  5
16603
  8
0
 10
157.2607051707435915
 20
156.591977346472305
 30
0.0
  0
VERTEX
  5
16604
  8
0
 10
157.316920851411794
 20
156.593843049016499
 30
0.0
  0
VERTEX
  5
16605
  8
0
 10
157.3738618460947976
 20
156.5959373089926032
 30
0.0
  0
VERTEX
  5
16606
  8
0
 10
157.4315296594135987
 20
156.5982607022941977
 30
0.0
  0
VERTEX
  5
16607
  8
0
 10
157.4899257959891088
 20
156.6008138048148055
 30
0.0
  0
VERTEX
  5
16608
  8
0
 10
157.5490517604426088
 20
156.6035971924478076
 30
0.0
  0
VERTEX
  5
16609
  8
0
 10
157.6089090573948965
 20
156.6066114410872103
 30
0.0
  0
VERTEX
  5
1660A
  8
0
 10
157.6694991914673096
 20
156.6098571266261104
 30
0.0
  0
VERTEX
  5
1660B
  8
0
 10
157.7308220436354986
 20
156.6133347465421082
 30
0.0
  0
VERTEX
  5
1660C
  8
0
 10
157.7927494238026043
 20
156.6170383605310121
 30
0.0
  0
VERTEX
  5
1660D
  8
0
 10
157.8551906622008971
 20
156.620963048890502
 30
0.0
  0
VERTEX
  5
1660E
  8
0
 10
157.9181328023935862
 20
156.625107492503588
 30
0.0
  0
VERTEX
  5
1660F
  8
0
 10
157.9815628879449037
 20
156.6294703722531949
 30
0.0
  0
VERTEX
  5
16610
  8
0
 10
158.0454679624187122
 20
156.6340503690225034
 30
0.0
  0
VERTEX
  5
16611
  8
0
 10
158.1098350693783914
 20
156.6388461636944953
 30
0.0
  0
VERTEX
  5
16612
  8
0
 10
158.1746512523880028
 20
156.643856437152408
 30
0.0
  0
VERTEX
  5
16613
  8
0
 10
158.2399035550112103
 20
156.6490798702791949
 30
0.0
  0
VERTEX
  5
16614
  8
0
 10
158.3055790208119049
 20
156.6545151439580081
 30
0.0
  0
VERTEX
  5
16615
  8
0
 10
158.3716646933536936
 20
156.660160939072
 30
0.0
  0
VERTEX
  5
16616
  8
0
 10
158.4381476162008084
 20
156.6660159365040954
 30
0.0
  0
VERTEX
  5
16617
  8
0
 10
158.5050148329164017
 20
156.6720788171375034
 30
0.0
  0
VERTEX
  5
16618
  8
0
 10
158.5722533870649045
 20
156.678348261855291
 30
0.0
  0
VERTEX
  5
16619
  8
0
 10
158.6398902360627119
 20
156.6848272729149016
 30
0.0
  0
VERTEX
  5
1661A
  8
0
 10
158.7080042782872908
 20
156.6915246723791029
 30
0.0
  0
VERTEX
  5
1661B
  8
0
 10
158.7765759171475111
 20
156.698438802771193
 30
0.0
  0
VERTEX
  5
1661C
  8
0
 10
158.8455810046000067
 20
156.7055675178459921
 30
0.0
  0
VERTEX
  5
1661D
  8
0
 10
158.9149953926020942
 20
156.7129086713580932
 30
0.0
  0
VERTEX
  5
1661E
  8
0
 10
158.9847949331102086
 20
156.720460117062288
 30
0.0
  0
VERTEX
  5
1661F
  8
0
 10
159.0549554780814105
 20
156.7282197087133113
 30
0.0
  0
VERTEX
  5
16620
  8
0
 10
159.12545287947259
 20
156.7361853000658982
 30
0.0
  0
VERTEX
  5
16621
  8
0
 10
159.1962629892406085
 20
156.7443547448746983
 30
0.0
  0
VERTEX
  5
16622
  8
0
 10
159.2673616593422139
 20
156.7527258968945034
 30
0.0
  0
VERTEX
  5
16623
  8
0
 10
159.3387247417346089
 20
156.7612966098799916
 30
0.0
  0
VERTEX
  5
16624
  8
0
 10
159.4103280883743992
 20
156.7700647375858978
 30
0.0
  0
VERTEX
  5
16625
  8
0
 10
159.4821475512183895
 20
156.7790281337670137
 30
0.0
  0
VERTEX
  5
16626
  8
0
 10
159.5541541658865867
 20
156.7881837950208137
 30
0.0
  0
VERTEX
  5
16627
  8
0
 10
159.6262810715444118
 20
156.7975214300458902
 30
0.0
  0
VERTEX
  5
16628
  8
0
 10
159.6985132640195957
 20
156.8070389073353965
 30
0.0
  0
VERTEX
  5
16629
  8
0
 10
159.770850686280113
 20
156.8167366432080883
 30
0.0
  0
VERTEX
  5
1662A
  8
0
 10
159.8432932812935121
 20
156.8266150539828061
 30
0.0
  0
VERTEX
  5
1662B
  8
0
 10
159.9158409920279098
 20
156.8366745559785898
 30
0.0
  0
VERTEX
  5
1662C
  8
0
 10
159.9884937614509965
 20
156.8469155655139105
 30
0.0
  0
VERTEX
  5
1662D
  8
0
 10
160.0612515325306049
 20
156.8573384989076089
 30
0.0
  0
VERTEX
  5
1662E
  8
0
 10
160.1341142482345958
 20
156.8679437724788954
 30
0.0
  0
VERTEX
  5
1662F
  8
0
 10
160.2070818515308019
 20
156.878731802546298
 30
0.0
  0
VERTEX
  5
16630
  8
0
 10
160.2801542853869137
 20
156.8897030054286006
 30
0.0
  0
VERTEX
  5
16631
  8
0
 10
160.3533314927709057
 20
156.900857797444786
 30
0.0
  0
VERTEX
  5
16632
  8
0
 10
160.4266134166506106
 20
156.912196594913496
 30
0.0
  0
VERTEX
  5
16633
  8
0
 10
160.4999999999938041
 20
156.9237198141537135
 30
0.0
  0
SEQEND
  5
16634
  8
0
  0
POLYLINE
  5
14CDA
  8
0
 66
     1
 10
0.0
 20
0.0
 30
0.0
  0
VERTEX
  5
16635
  8
0
 10
160.4999999999938041
 20
156.9237198141537135
 30
0.0
  0
VERTEX
  5
16636
  8
0
 10
161.1137747312689044
 20
157.0204089326041128
 30
0.0
  0
VERTEX
  5
16637
  8
0
 10
161.7275850455079933
 20
157.1163091736889896
 30
0.0
  0
VERTEX
  5
16638
  8
0
 10
162.3414319911188954
 20
157.2113972941230031
 30
0.0
  0
VERTEX
  5
16639
  8
0
 10
162.955316616509208
 20
157.3056500506208124
 30
0.0
  0
VERTEX
  5
1663A
  8
0
 10
163.5692399700863007
 20
157.399044199897105
 30
0.0
  0
VERTEX
  5
1663B
  8
0
 10
164.1832031002577139
 20
157.491556498666597
 30
0.0
  0
VERTEX
  5
1663C
  8
0
 10
164.7972070554313007
 20
157.5831637036440043
 30
0.0
  0
VERTEX
  5
1663D
  8
0
 10
165.4112528840142033
 20
157.673842571543986
 30
0.0
  0
VERTEX
  5
1663E
  8
0
 10
166.0253416344143034
 20
157.7635698590812012
 30
0.0
  0
VERTEX
  5
1663F
  8
0
 10
166.639474355038999
 20
157.8523223229705081
 30
0.0
  0
VERTEX
  5
16640
  8
0
 10
167.253652094295802
 20
157.940076719926509
 30
0.0
  0
VERTEX
  5
16641
  8
0
 10
167.8678759005925087
 20
158.0268098066638061
 30
0.0
  0
VERTEX
  5
16642
  8
0
 10
168.4821468223362899
 20
158.1124983398972006
 30
0.0
  0
VERTEX
  5
16643
  8
0
 10
169.0964659079351122
 20
158.1971190763412096
 30
0.0
  0
VERTEX
  5
16644
  8
0
 10
169.7108342057962886
 20
158.2806487727108902
 30
0.0
  0
VERTEX
  5
16645
  8
0
 10
170.3252527643273879
 20
158.3630641857205887
 30
0.0
  0
VERTEX
  5
16646
  8
0
 10
170.9397226319358083
 20
158.4443420720851918
 30
0.0
  0
VERTEX
  5
16647
  8
0
 10
171.5542448570296017
 20
158.5244591885193017
 30
0.0
  0
VERTEX
  5
16648
  8
0
 10
172.1688204880157969
 20
158.603392291737606
 30
0.0
  0
VERTEX
  5
16649
  8
0
 10
172.7834505733023036
 20
158.6811181384549059
 30
0.0
  0
VERTEX
  5
1664A
  8
0
 10
173.3981361612964918
 20
158.7576134853858036
 30
0.0
  0
VERTEX
  5
1664B
  8
0
 10
174.0128783004059017
 20
158.8328550892449016
 30
0.0
  0
VERTEX
  5
1664C
  8
0
 10
174.6276780390381873
 20
158.9068197067470862
 30
0.0
  0
VERTEX
  5
1664D
  8
0
 10
175.2425364256006048
 20
158.9794840946069883
 30
0.0
  0
VERTEX
  5
1664E
  8
0
 10
175.8574545085012062
 20
159.05082500953921
 30
0.0
  0
VERTEX
  5
1664F
  8
0
 10
176.4724333361473043
 20
159.1208192082586095
 30
0.0
  0
VERTEX
  5
16650
  8
0
 10
177.0874739569464964
 20
159.1894434474797038
 30
0.0
  0
VERTEX
  5
16651
  8
0
 10
177.7025774193060954
 20
159.2566744839174078
 30
0.0
  0
VERTEX
  5
16652
  8
0
 10
178.3177447716338975
 20
159.3224890742860111
 30
0.0
  0
VERTEX
  5
16653
  8
0
 10
178.9329770623374998
 20
159.3868639753007983
 30
0.0
  0
VERTEX
  5
16654
  8
0
 10
179.5482753398241869
 20
159.449775943676002
 30
0.0
  0
VERTEX
  5
16655
  8
0
 10
180.1636406525018117
 20
159.5112017361263952
 30
0.0
  0
VERTEX
  5
16656
  8
0
 10
180.7790747331148111
 20
159.5711029375569012
 30
0.0
  0
VERTEX
  5
16657
  8
0
 10
181.3945793512515081
 20
159.6294403160418085
 30
0.0
  0
VERTEX
  5
16658
  8
0
 10
182.0101556105852012
 20
159.6861894030496103
 30
0.0
  0
VERTEX
  5
16659
  8
0
 10
182.6258046147891037
 20
159.7413257300493967
 30
0.0
  0
VERTEX
  5
1665A
  8
0
 10
183.2415274675367982
 20
159.7948248285094053
 30
0.0
  0
VERTEX
  5
1665B
  8
0
 10
183.8573252725011002
 20
159.8466622298988113
 30
0.0
  0
VERTEX
  5
1665C
  8
0
 10
184.4731991333557062
 20
159.8968134656859093
 30
0.0
  0
VERTEX
  5
1665D
  8
0
 10
185.0891501537736872
 20
159.9452540673395902
 30
0.0
  0
VERTEX
  5
1665E
  8
0
 10
185.7051794374283986
 20
159.9919595663286032
 30
0.0
  0
VERTEX
  5
1665F
  8
0
 10
186.3212880879931106
 20
160.036905494121612
 30
0.0
  0
VERTEX
  5
16660
  8
0
 10
186.9374772091412069
 20
160.0800673821873943
 30
0.0
  0
VERTEX
  5
16661
  8
0
 10
187.5537479045457019
 20
160.1214207619945
 30
0.0
  0
VERTEX
  5
16662
  8
0
 10
188.170101277880093
 20
160.160941165011792
 30
0.0
  0
VERTEX
  5
16663
  8
0
 10
188.7865384328175935
 20
160.1986041227079056
 30
0.0
  0
VERTEX
  5
16664
  8
0
 10
189.4030604730317009
 20
160.2343851665515047
 30
0.0
  0
VERTEX
  5
16665
  8
0
 10
189.7113536700151997
 20
160.251562324362709
 30
0.0
  0
VERTEX
  5
16666
  8
0
 10
190.0196685021952021
 20
160.268259828011395
 30
0.0
  0
VERTEX
  5
16667
  8
0
 10
190.3280051707951941
 20
160.2844732163588901
 30
0.0
  0
VERTEX
  5
16668
  8
0
 10
190.6363638278691042
 20
160.3001991183598136
 30
0.0
  0
VERTEX
  5
16669
  8
0
 10
190.9447445376214034
 20
160.3154361105885926
 30
0.0
  0
VERTEX
  5
1666A
  8
0
 10
191.2531473642567903
 20
160.3301827696195119
 30
0.0
  0
VERTEX
  5
1666B
  8
0
 10
191.5615723719805032
 20
160.3444376720269133
 30
0.0
  0
VERTEX
  5
1666C
  8
0
 10
191.8700196249972123
 20
160.3581993943849966
 30
0.0
  0
VERTEX
  5
1666D
  8
0
 10
192.1784891875113033
 20
160.3714665132683024
 30
0.0
  0
VERTEX
  5
1666E
  8
0
 10
192.4869811237279862
 20
160.3842376052510019
 30
0.0
  0
VERTEX
  5
1666F
  8
0
 10
192.7954954978519027
 20
160.3965112469074086
 30
0.0
  0
VERTEX
  5
16670
  8
0
 10
193.104032374087609
 20
160.4082860148120062
 30
0.0
  0
VERTEX
  5
16671
  8
0
 10
193.4125918166404858
 20
160.4195604855389092
 30
0.0
  0
VERTEX
  5
16672
  8
0
 10
193.7211738897148052
 20
160.4303332356624878
 30
0.0
  0
VERTEX
  5
16673
  8
0
 10
194.029778657515493
 20
160.4406028417571974
 30
0.0
  0
VERTEX
  5
16674
  8
0
 10
194.3384061842473045
 20
160.4503678803972093
 30
0.0
  0
VERTEX
  5
16675
  8
0
 10
194.6470565341153076
 20
160.4596269281568084
 30
0.0
  0
VERTEX
  5
16676
  8
0
 10
194.9557297713238881
 20
160.4683785616105922
 30
0.0
  0
VERTEX
  5
16677
  8
0
 10
195.264425960078114
 20
160.4766213573327036
 30
0.0
  0
VERTEX
  5
16678
  8
0
 10
195.5731451645825132
 20
160.4843538918973991
 30
0.0
  0
VERTEX
  5
16679
  8
0
 10
195.8818874490422104
 20
160.491574741878992
 30
0.0
  0
VERTEX
  5
1667A
  8
0
 10
196.1906528776619041
 20
160.4982824838519946
 30
0.0
  0
VERTEX
  5
1667B
  8
0
 10
196.4994415146460085
 20
160.5044756943906066
 30
0.0
  0
VERTEX
  5
1667C
  8
0
 10
196.8082534241999042
 20
160.5101529500691129
 30
0.0
  0
VERTEX
  5
1667D
  8
0
 10
197.1170886705280054
 20
160.5153128274617984
 30
0.0
  0
VERTEX
  5
1667E
  8
0
 10
197.4259473178350106
 20
160.5199539031432039
 30
0.0
  0
VERTEX
  5
1667F
  8
0
 10
197.7348294303259877
 20
160.5240747536873869
 30
0.0
  0
VERTEX
  5
16680
  8
0
 10
198.0437350722058056
 20
160.5276739556688881
 30
0.0
  0
VERTEX
  5
16681
  8
0
 10
198.3526643076789071
 20
160.5307500856617935
 30
0.0
  0
VERTEX
  5
16682
  8
0
 10
198.6616172009501042
 20
160.5333017202407007
 30
0.0
  0
VERTEX
  5
16683
  8
0
 10
198.9705938162244934
 20
160.5353274359798093
 30
0.0
  0
VERTEX
  5
16684
  8
0
 10
199.2795942177066877
 20
160.5368258094532905
 30
0.0
  0
VERTEX
  5
16685
  8
0
 10
199.5886184696014141
 20
160.5377954172357136
 30
0.0
  0
VERTEX
  5
16686
  8
0
 10
199.8976666361135983
 20
160.5382348359013065
 30
0.0
  0
VERTEX
  5
16687
  8
0
 10
200.2067387674713075
 20
160.5381429518893128
 30
0.0
  0
VERTEX
  5
16688
  8
0
 10
200.5158348362164986
 20
160.5375203739421011
 30
0.0
  0
VERTEX
  5
16689
  8
0
 10
200.8249547900252026
 20
160.5363682620894963
 30
0.0
  0
VERTEX
  5
1668A
  8
0
 10
201.1340985765735923
 20
160.5346877763603004
 30
0.0
  0
VERTEX
  5
1668B
  8
0
 10
201.443266143537187
 20
160.5324800767839974
 30
0.0
  0
VERTEX
  5
1668C
  8
0
 10
201.7524574385921881
 20
160.5297463233899009
 30
0.0
  0
VERTEX
  5
1668D
  8
0
 10
202.061672409414399
 20
160.5264876762070116
 30
0.0
  0
VERTEX
  5
1668E
  8
0
 10
202.3709110036797085
 20
160.522705295264899
 30
0.0
  0
VERTEX
  5
1668F
  8
0
 10
202.6801731690642043
 20
160.5184003405927058
 30
0.0
  0
VERTEX
  5
16690
  8
0
 10
202.9894588532436899
 20
160.5135739722196035
 30
0.0
  0
VERTEX
  5
16691
  8
0
 10
203.2987680038941107
 20
160.5082273501751899
 30
0.0
  0
VERTEX
  5
16692
  8
0
 10
203.6081005686914125
 20
160.5023616344886079
 30
0.0
  0
VERTEX
  5
16693
  8
0
 10
203.9174564953113986
 20
160.4959779851890005
 30
0.0
  0
VERTEX
  5
16694
  8
0
 10
204.2268357314300999
 20
160.4890775623055958
 30
0.0
  0
VERTEX
  5
16695
  8
0
 10
204.5362382247234905
 20
160.4816615258679064
 30
0.0
  0
VERTEX
  5
16696
  8
0
 10
204.8456639228674021
 20
160.4737310359051037
 30
0.0
  0
VERTEX
  5
16697
  8
0
 10
205.1551127735378088
 20
160.4652872524463874
 30
0.0
  0
VERTEX
  5
16698
  8
0
 10
205.4645847244105141
 20
160.4563313355212131
 30
0.0
  0
VERTEX
  5
16699
  8
0
 10
205.7740797231616057
 20
160.4468644451586954
 30
0.0
  0
VERTEX
  5
1669A
  8
0
 10
206.0835977174668869
 20
160.4368877413882046
 30
0.0
  0
VERTEX
  5
1669B
  8
0
 10
206.3931386550023888
 20
160.4264023842389122
 30
0.0
  0
VERTEX
  5
1669C
  8
0
 10
206.7027024834438009
 20
160.4154095337401884
 30
0.0
  0
VERTEX
  5
1669D
  8
0
 10
207.0122891504674953
 20
160.4039103499212899
 30
0.0
  0
VERTEX
  5
1669E
  8
0
 10
207.3218986037489913
 20
160.3919059928115018
 30
0.0
  0
VERTEX
  5
1669F
  8
0
 10
207.6315307909644901
 20
160.3793976224401092
 30
0.0
  0
VERTEX
  5
166A0
  8
0
 10
207.9411856597893973
 20
160.3663863988363119
 30
0.0
  0
VERTEX
  5
166A1
  8
0
 10
208.2508631579001985
 20
160.3528734820295085
 30
0.0
  0
VERTEX
  5
166A2
  8
0
 10
208.560563232972612
 20
160.338860032048899
 30
0.0
  0
VERTEX
  5
166A3
  8
0
 10
208.8702858326826117
 20
160.3243472089237116
 30
0.0
  0
VERTEX
  5
166A4
  8
0
 10
209.1800309047060011
 20
160.3093361726832029
 30
0.0
  0
VERTEX
  5
166A5
  8
0
 10
209.4897983967188111
 20
160.2938280833569138
 30
0.0
  0
VERTEX
  5
166A6
  8
0
 10
209.7995882563969019
 20
160.2778241009737883
 30
0.0
  0
VERTEX
  5
166A7
  8
0
 10
210.1094035156664006
 20
160.2613269728290106
 30
0.0
  0
VERTEX
  5
166A8
  8
0
 10
210.4192467315029091
 20
160.2443406869568889
 30
0.0
  0
VERTEX
  5
166A9
  8
0
 10
210.7291171391568128
 20
160.2268682644964883
 30
0.0
  0
VERTEX
  5
166AA
  8
0
 10
211.0390139738782125
 20
160.2089127265865045
 30
0.0
  0
VERTEX
  5
166AB
  8
0
 10
211.3489364709178062
 20
160.1904770943658036
 30
0.0
  0
VERTEX
  5
166AC
  8
0
 10
211.658883865525695
 20
160.1715643889733087
 30
0.0
  0
VERTEX
  5
166AD
  8
0
 10
212.2788502884478987
 20
160.1323198432276058
 30
0.0
  0
VERTEX
  5
166AE
  8
0
 10
212.8989071246471951
 20
160.0912032584606095
 30
0.0
  0
VERTEX
  5
166AF
  8
0
 10
213.5190482561264105
 20
160.0482388037823114
 30
0.0
  0
VERTEX
  5
166B0
  8
0
 10
214.1392675648883142
 20
160.0034506483036125
 30
0.0
  0
VERTEX
  5
166B1
  8
0
 10
214.7595589329351924
 20
159.9568629611351014
 30
0.0
  0
VERTEX
  5
166B2
  8
0
 10
215.3799162422698998
 20
159.9084999113873948
 30
0.0
  0
VERTEX
  5
166B3
  8
0
 10
216.000333374895007
 20
159.8583856681711097
 30
0.0
  0
VERTEX
  5
166B4
  8
0
 10
216.6208042128129989
 20
159.8065444005966924
 30
0.0
  0
VERTEX
  5
166B5
  8
0
 10
217.2413226380267872
 20
159.7530002777749871
 30
0.0
  0
VERTEX
  5
166B6
  8
0
 10
217.8618825325389139
 20
159.6977774688164118
 30
0.0
  0
VERTEX
  5
166B7
  8
0
 10
218.4824777783516936
 20
159.6409001428316117
 30
0.0
  0
VERTEX
  5
166B8
  8
0
 10
219.1031022574680094
 20
159.5823924689312889
 30
0.0
  0
VERTEX
  5
166B9
  8
0
 10
219.7237498518904886
 20
159.5222786162260036
 30
0.0
  0
VERTEX
  5
166BA
  8
0
 10
220.3443080214117913
 20
159.4606117330712891
 30
0.0
  0
VERTEX
  5
166BB
  8
0
 10
220.9646703887129036
 20
159.397444822181086
 30
0.0
  0
VERTEX
  5
166BC
  8
0
 10
221.5848400801295099
 20
159.3328018342037069
 30
0.0
  0
VERTEX
  5
166BD
  8
0
 10
222.2048202219972097
 20
159.2667067197872939
 30
0.0
  0
VERTEX
  5
166BE
  8
0
 10
222.8246139406516875
 20
159.1991834295803869
 30
0.0
  0
VERTEX
  5
166BF
  8
0
 10
223.4442243624285993
 20
159.1302559142312987
 30
0.0
  0
VERTEX
  5
166C0
  8
0
 10
224.0636546136632887
 20
159.0599481243883133
 30
0.0
  0
VERTEX
  5
166C1
  8
0
 10
224.6829078206916108
 20
158.9882840106998003
 30
0.0
  0
VERTEX
  5
166C2
  8
0
 10
225.301987109849108
 20
158.9152875238139018
 30
0.0
  0
VERTEX
  5
166C3
  8
0
 10
225.9208956074712944
 20
158.8409826143791861
 30
0.0
  0
VERTEX
  5
166C4
  8
0
 10
226.5396364398937976
 20
158.765393233043909
 30
0.0
  0
VERTEX
  5
166C5
  8
0
 10
227.1582127334523022
 20
158.6885433304564117
 30
0.0
  0
VERTEX
  5
166C6
  8
0
 10
227.7766276144822939
 20
158.610456857264893
 30
0.0
  0
VERTEX
  5
166C7
  8
0
 10
228.3948842093195992
 20
158.5311577641176939
 30
0.0
  0
VERTEX
  5
166C8
  8
0
 10
229.0129856442995049
 20
158.4506700016634113
 30
0.0
  0
VERTEX
  5
166C9
  8
0
 10
229.6309350457578091
 20
158.3690175205501021
 30
0.0
  0
VERTEX
  5
166CA
  8
0
 10
230.2487355400301112
 20
158.2862242714261072
 30
0.0
  0
VERTEX
  5
166CB
  8
0
 10
230.8663902534520105
 20
158.2023142049399098
 30
0.0
  0
VERTEX
  5
166CC
  8
0
 10
231.4839023123589925
 20
158.1173112717397089
 30
0.0
  0
VERTEX
  5
166CD
  8
0
 10
232.1012748430867987
 20
158.0312394224739023
 30
0.0
  0
VERTEX
  5
166CE
  8
0
 10
232.7185109719709999
 20
157.944122607790689
 30
0.0
  0
VERTEX
  5
166CF
  8
0
 10
233.3356138253471102
 20
157.8559847783384953
 30
0.0
  0
VERTEX
  5
166D0
  8
0
 10
233.9525865295508993
 20
157.7668498847656053
 30
0.0
  0
VERTEX
  5
166D1
  8
0
 10
234.5694322109177108
 20
157.6767418777205876
 30
0.0
  0
VERTEX
  5
166D2
  8
0
 10
235.1861539957833998
 20
157.5856847078514136
 30
0.0
  0
VERTEX
  5
166D3
  8
0
 10
235.8027550104835939
 20
157.4937023258065949
 30
0.0
  0
VERTEX
  5
166D4
  8
0
 10
236.4192383813536935
 20
157.400818682234501
 30
0.0
  0
VERTEX
  5
166D5
  8
0
 10
237.0356072347294116
 20
157.3070577277831887
 30
0.0
  0
VERTEX
  5
166D6
  8
0
 10
237.6518646969462054
 20
157.2124434131013118
 30
0.0
  0
VERTEX
  5
166D7
  8
0
 10
238.2680138943399015
 20
157.1169996888370974
 30
0.0
  0
VERTEX
  5
166D8
  8
0
 10
238.8840579532459003
 20
157.0207505056386879
 30
0.0
  0
VERTEX
  5
166D9
  8
0
 10
239.5
 20
156.9237198141547083
 30
0.0
  0
SEQEND
  5
166DA
  8
0
  0
ENDSEC
  0
EOF
