  0
SECTION
  2
HEADER
  9
$ACADVER
  1
AC1009
  9
$INSBASE
 10
0.0
 20
0.0
 30
0.0
  9
$EXTMIN
 10
0.0
 20
0.0
 30
0.0
  9
$EXTMAX
 10
266.5
 20
294.9999999999998863
 30
0.0
  9
$LIMMIN
 10
0.0
 20
0.0
  9
$LIMMAX
 10
420.0
 20
297.0
  9
$ORTHOMODE
 70
     1
  9
$REGENMODE
 70
     1
  9
$FILLMODE
 70
     1
  9
$QTEXTMODE
 70
     0
  9
$MIRRTEXT
 70
     0
  9
$DRAGMODE
 70
     2
  9
$LTSCALE
 40
1.0
  9
$OSMODE
 70
    37
  9
$ATTMODE
 70
     1
  9
$TEXTSIZE
 40
2.5
  9
$TRACEWID
 40
1.0
  9
$TEXTSTYLE
  7
STANDARD
  9
$CLAYER
  8
1
  9
$CELTYPE
  6
BYLAYER
  9
$CECOLOR
 62
   256
  9
$DIMSCALE
 40
1.0
  9
$DIMASZ
 40
2.5
  9
$DIMEXO
 40
0.625
  9
$DIMDLI
 40
3.75
  9
$DIMRND
 40
0.0
  9
$DIMDLE
 40
0.0
  9
$DIMEXE
 40
1.25
  9
$DIMTP
 40
0.0
  9
$DIMTM
 40
0.0
  9
$DIMTXT
 40
2.5
  9
$DIMCEN
 40
2.5
  9
$DIMTSZ
 40
0.0
  9
$DIMTOL
 70
     0
  9
$DIMLIM
 70
     0
  9
$DIMTIH
 70
     0
  9
$DIMTOH
 70
     0
  9
$DIMSE1
 70
     0
  9
$DIMSE2
 70
     0
  9
$DIMTAD
 70
     1
  9
$DIMZIN
 70
     8
  9
$DIMBLK
  1

  9
$DIMASO
 70
     1
  9
$DIMSHO
 70
     1
  9
$DIMPOST
  1

  9
$DIMAPOST
  1

  9
$DIMALT
 70
     0
  9
$DIMALTD
 70
     3
  9
$DIMALTF
 40
0.03937007874016
  9
$DIMLFAC
 40
1.0
  9
$DIMTOFL
 70
     1
  9
$DIMTVP
 40
0.0
  9
$DIMTIX
 70
     0
  9
$DIMSOXD
 70
     0
  9
$DIMSAH
 70
     0
  9
$DIMBLK1
  1

  9
$DIMBLK2
  1

  9
$DIMSTYLE
  2
ISO-25
  9
$DIMCLRD
 70
     0
  9
$DIMCLRE
 70
     0
  9
$DIMCLRT
 70
     0
  9
$DIMTFAC
 40
1.0
  9
$DIMGAP
 40
0.625
  9
$LUNITS
 70
     2
  9
$LUPREC
 70
     1
  9
$SKETCHINC
 40
1.0
  9
$FILLETRAD
 40
0.0
  9
$AUNITS
 70
     0
  9
$AUPREC
 70
     0
  9
$MENU
  1
.
  9
$ELEVATION
 40
0.0
  9
$PELEVATION
 40
0.0
  9
$THICKNESS
 40
0.0
  9
$LIMCHECK
 70
     0
  9
$BLIPMODE
 70
     0
  9
$CHAMFERA
 40
0.0
  9
$CHAMFERB
 40
0.0
  9
$SKPOLY
 70
     0
  9
$TDCREATE
 40
2454946.5997685180045664
  9
$TDUPDATE
 40
2460745.6380324070341885
  9
$TDINDWG
 40
1.3466854050999999
  9
$TDUSRTIMER
 40
1.3466852315
  9
$USRTIMER
 70
     1
  9
$ANGBASE
 50
0.0
  9
$ANGDIR
 70
     0
  9
$PDMODE
 70
     0
  9
$PDSIZE
 40
0.0
  9
$PLINEWID
 40
0.0
  9
$COORDS
 70
     1
  9
$SPLFRAME
 70
     0
  9
$SPLINETYPE
 70
     6
  9
$SPLINESEGS
 70
     8
  9
$ATTDIA
 70
     1
  9
$ATTREQ
 70
     1
  9
$HANDLING
 70
     1
  9
$HANDSEED
  5
16944
  9
$SURFTAB1
 70
     6
  9
$SURFTAB2
 70
     6
  9
$SURFTYPE
 70
     6
  9
$SURFU
 70
     6
  9
$SURFV
 70
     6
  9
$UCSNAME
  2

  9
$UCSORG
 10
0.0
 20
0.0
 30
0.0
  9
$UCSXDIR
 10
1.0
 20
0.0
 30
0.0
  9
$UCSYDIR
 10
0.0
 20
1.0
 30
0.0
  9
$PUCSNAME
  2

  9
$PUCSORG
 10
0.0
 20
0.0
 30
0.0
  9
$PUCSXDIR
 10
1.0
 20
0.0
 30
0.0
  9
$PUCSYDIR
 10
0.0
 20
1.0
 30
0.0
  9
$USERI1
 70
     0
  9
$USERI2
 70
     0
  9
$USERI3
 70
     0
  9
$USERI4
 70
     0
  9
$USERI5
 70
     0
  9
$USERR1
 40
0.0
  9
$USERR2
 40
0.0
  9
$USERR3
 40
0.0
  9
$USERR4
 40
0.0
  9
$USERR5
 40
0.0
  9
$WORLDVIEW
 70
     1
  9
$SHADEDGE
 70
     3
  9
$SHADEDIF
 70
    70
  9
$TILEMODE
 70
     1
  9
$MAXACTVP
 70
    64
  9
$PLIMCHECK
 70
     0
  9
$PEXTMIN
 10
0.0
 20
0.0
 30
0.0
  9
$PEXTMAX
 10
0.0
 20
0.0
 30
0.0
  9
$PLIMMIN
 10
0.0
 20
0.0
  9
$PLIMMAX
 10
12.0
 20
9.0
  9
$UNITMODE
 70
     0
  9
$VISRETAIN
 70
     1
  9
$PLINEGEN
 70
     0
  9
$PSLTSCALE
 70
     1
  0
ENDSEC
  0
SECTION
  2
TABLES
  0
TABLE
  2
VPORT
 70
     1
  0
VPORT
  2
*ACTIVE
 70
     0
 10
0.0
 20
0.0
 11
1.0
 21
1.0
 12
366.1169415292353051
 22
156.4439249890426993
 13
0.0
 23
0.0
 14
10.0
 24
10.0
 15
10.0
 25
10.0
 16
0.0
 26
0.0
 36
1.0
 17
0.0
 27
0.0
 37
0.0
 40
312.8878499780855122
 41
2.340243902439024
 42
50.0
 43
0.0
 44
0.0
 50
0.0
 51
0.0
 71
     0
 72
  1000
 73
     1
 74
     3
 75
     0
 76
     0
 77
     0
 78
     0
  0
ENDTAB
  0
TABLE
  2
LTYPE
 70
     4
  0
LTYPE
  2
CONTINUOUS
 70
     0
  3
Solid line
 72
    65
 73
     0
 40
0.0
  0
LTYPE
  2
CENTER
 70
     0
  3
Center ____ _ ____ _ ____ _ ____ _ ____ _ ____
 72
    65
 73
     4
 40
10.1600000000000001
 49
6.3499999999999979
 49
-1.27
 49
1.27
 49
-1.27
  0
LTYPE
  2
PHANTOM2
 70
     0
  3
Phantom (.5x) ___ _ _ ___ _ _ ___ _ _ ___ _ _
 72
    65
 73
     6
 40
31.75
 49
15.875
 49
-3.174999999999998
 49
3.174999999999998
 49
-3.174999999999998
 49
3.174999999999998
 49
-3.174999999999998
  0
LTYPE
  2
HIDDEN
 70
     0
  3
Hidden __ __ __ __ __ __ __ __ __ __ __ __ __ __
 72
    65
 73
     2
 40
1.905
 49
1.27
 49
-0.635
  0
ENDTAB
  0
TABLE
  2
LAYER
 70
     5
  0
LAYER
  2
0
 70
     0
 62
     7
  6
CONTINUOUS
  0
LAYER
  2
1
 70
     0
 62
     1
  6
CENTER
  0
LAYER
  2
DEFPOINTS
 70
     0
 62
     7
  6
CONTINUOUS
  0
LAYER
  2
3
 70
     0
 62
     3
  6
CONTINUOUS
  0
LAYER
  2
2
 70
     0
 62
     2
  6
HIDDEN
  0
ENDTAB
  0
TABLE
  2
STYLE
 70
     3
  0
STYLE
  2
STANDARD
 70
     0
 40
0.0
 41
1.0
 50
0.0
 71
     0
 42
2.5
  3
txt
  4

  0
STYLE
  2
ANNOTATIVE
 70
     0
 40
0.0
 41
1.0
 50
0.0
 71
     0
 42
0.2
  3
txt
  4

  0
STYLE
  2
STANDARD1
 70
     0
 40
0.0
 41
1.0
 50
0.0
 71
     0
 42
3.0
  3
txt
  4

  0
ENDTAB
  0
TABLE
  2
VIEW
 70
     0
  0
ENDTAB
  0
TABLE
  2
UCS
 70
     0
  0
ENDTAB
  0
TABLE
  2
APPID
 70
   133
  0
APPID
  2
ACAD
 70
     0
  0
APPID
  2
ACADANNOTATIVE
 70
     0
  0
APPID
  2
_FTCNV
 70
     0
  0
APPID
  2
GENIUS_GENODEF_13
 70
     0
  0
APPID
  2
GENIUS_GENOENT_13
 70
     0
  0
APPID
  2
GENIUS_GENOBJ-N-CEN_13
 70
     0
  0
APPID
  2
GENIUS_GENOLIS_13
 70
     0
  0
APPID
  2
GENIUS_GENOREF_13
 70
     0
  0
APPID
  2
GENIUS_GENOBJ-N-CRS_13
 70
     0
  0
APPID
  2
GENIUS_GENOBJ-N-FIL_13
 70
     0
  0
APPID
  2
GENIUS_GENOBJ-N-REC_13
 70
     0
  0
APPID
  2
GENIUS_GENFIL_13
 70
     0
  0
APPID
  2
GENIUS_GENOBJ-N-CHA_13
 70
     0
  0
APPID
  2
ASM_BASE
 70
     0
  0
APPID
  2
_PHO
 70
     0
  0
APPID
  2
_CLP
 70
     0
  0
APPID
  2
MOJIGUMI_PARTS
 70
     0
  0
APPID
  2
_DBL
 70
     0
  0
APPID
  2
_PWH
 70
     0
  0
APPID
  2
_G9P
 70
     0
  0
APPID
  2
AME_SOL
 70
     0
  0
APPID
  2
HAKO_DEF
 70
     0
  0
APPID
  2
HAKO_TXT
 70
     0
  0
APPID
  2
HAKO_OVR
 70
     0
  0
APPID
  2
ASM_EXPLO_VER_2_00
 70
     0
  0
APPID
  2
ASM_CADM_VER_12_00
 70
     0
  0
APPID
  2
ASM_BASEFORO
 70
     0
  0
APPID
  2
ASM_BASETRAVI
 70
     0
  0
APPID
  2
ASM_BASETRAVI1
 70
     0
  0
APPID
  2
ASM_GRUPPI
 70
     0
  0
APPID
  2
ASM_CADM_ALBERO
 70
     0
  0
APPID
  2
ASM_GOLE
 70
     0
  0
APPID
  2
GENIUS_GENCFG_13
 70
     0
  0
APPID
  2
GENIUS_GENCFG0_13
 70
     0
  0
APPID
  2
GENIUS_GENCFG1_13
 70
     0
  0
APPID
  2
GENIUS_GENCFG2_13
 70
     0
  0
APPID
  2
GENIUS_GENCFG3_13
 70
     0
  0
APPID
  2
GENIUS_GENCFG4_13
 70
     0
  0
APPID
  2
GENIUS_GEVCFG0_13
 70
     0
  0
APPID
  2
GENIUS_GENHATCH_13
 70
     0
  0
APPID
  2
GENIUS_GEFCFG0_13
 70
     0
  0
APPID
  2
GENIUS_GENOBJ-N-HTC_13
 70
     0
  0
APPID
  2
DCO15
 70
     0
  0
APPID
  2
AVE_RENDER
 70
     0
  0
APPID
  2
AVE_ENTITY_MATERIAL
 70
     0
  0
APPID
  2
AVE_FINISH
 70
     0
  0
APPID
  2
AVE_MATERIAL
 70
     0
  0
APPID
  2
AVE_GLOBAL
 70
     0
  0
APPID
  2
_NUM
 70
     0
  0
APPID
  2
HAKO_FNM
 70
     0
  0
APPID
  2
_CALL_MAC$
 70
     0
  0
APPID
  2
ACA_CADIMENU
 70
     0
  0
APPID
  2
AUTOCAD_POSTSCRIPT_FIGURE
 70
     0
  0
APPID
  2
GEV_VCCNULL_SWITCH_OFF
 70
     0
  0
APPID
  2
GENIUS_GENDTOL_13
 70
     0
  0
APPID
  2
GENIUS_GEFWELD_13
 70
     0
  0
APPID
  2
GENIUS_GENOBJ-F-WELS_13
 70
     0
  0
APPID
  2
GEVID961514679
 70
     0
  0
APPID
  2
GEVDC
 70
     0
  0
APPID
  2
GEVPT
 70
     0
  0
APPID
  2
GEVIT
 70
     0
  0
APPID
  2
VCC
 70
     0
  0
APPID
  2
GENBH
 70
     0
  0
APPID
  2
GEVMK
 70
     0
  0
APPID
  2
GENIUS_GENBH_13
 70
     0
  0
APPID
  2
GENIUS_GENOBJ-NBEHI-BHF_13
 70
     0
  0
APPID
  2
GENIUS_GENOBJ-NBEHI-BHB_13
 70
     0
  0
APPID
  2
GENIUS_GENOBJ-F-DESC_13
 70
     0
  0
APPID
  2
GENIUS_GEFDESC_14
 70
     0
  0
APPID
  2
GENIUS_GENOBJ-F-PART_13
 70
     0
  0
APPID
  2
GENIUS_GEFSTDP_13
 70
     0
  0
APPID
  2
GENIUS_GEFPARTINS_13
 70
     0
  0
APPID
  2
GEVID961514680
 70
     0
  0
APPID
  2
GENIUS_GENTRA_14
 70
     0
  0
APPID
  2
GENIUS_GENINF13_13
 70
     0
  0
APPID
  2
GENIUS_GENOBJ-N-INFOPT_13
 70
     0
  0
APPID
  2
GENIUS_GENOBJ-N-RSSYM_13
 70
     0
  0
APPID
  2
GENIUS_GENSYMENT_13
 70
     0
  0
APPID
  2
GENIUS_GENSCSYM_13
 70
     0
  0
APPID
  2
GENIUS_GEFINFNAM_13
 70
     0
  0
APPID
  2
GENIUS_GENREC_14
 70
     0
  0
APPID
  2
GEVID962097543
 70
     0
  0
APPID
  2
GEVID962097544
 70
     0
  0
APPID
  2
GEVID962097545
 70
     0
  0
APPID
  2
GENIUS_DUMCFG0_13
 70
     0
  0
APPID
  2
GEVID962352965
 70
     0
  0
APPID
  2
GEVID962352966
 70
     0
  0
APPID
  2
GEVID962352968
 70
     0
  0
APPID
  2
GEVRADREF
 70
     0
  0
APPID
  2
GEVID963230099
 70
     0
  0
APPID
  2
GENIUS_GENOBJ-F-FEAT_13
 70
     0
  0
APPID
  2
GENIUS_GEFFEAT_14
 70
     0
  0
APPID
  2
GEVID963230100
 70
     0
  0
APPID
  2
GEVID963230101
 70
     0
  0
APPID
  2
GENIUS_GENHINW_13
 70
     0
  0
APPID
  2
GENIUS_FIRSTVISTXT_14
 70
     0
  0
APPID
  2
GENIUS_GENOBJ-N-LEADER_13
 70
     0
  0
APPID
  2
GEVID971698136
 70
     0
  0
APPID
  2
GEVID972029070
 70
     0
  0
APPID
  2
MCAD_NO_VIS
 70
     0
  0
APPID
  2
ACAD_TEMP_GRAPHIC
 70
     0
  0
APPID
  2
ACATTRIBSERVICES
 70
     0
  0
APPID
  2
GENIUS_GENDIMSH_14
 70
     0
  0
APPID
  2
CONTENTTABDATA
 70
     0
  0
APPID
  2
CONTENTCURRENTTAB
 70
     0
  0
APPID
  2
GENIUS_GENBLKED_14
 70
     0
  0
APPID
  2
GENIUS_GENOBJ_13
 70
     0
  0
APPID
  2
GENIUS_GENOBJ-N-TIT_13
 70
     0
  0
APPID
  2
GENIUS_GENTITLE_13
 70
     0
  0
APPID
  2
GENIUS_GENZVEED_13
 70
     0
  0
APPID
  2
GENIUS_GEFINERT_13
 70
     0
  0
APPID
  2
GENIUS_GENOBJ-F-INER_13
 70
     0
  0
APPID
  2
GENIUS_GENOBJ-N-ZOO_13
 70
     0
  0
APPID
  2
GENIUS_GENZOO_13
 70
     0
  0
APPID
  2
GENIUS_GENOBJ-F-TOL_13
 70
     0
  0
APPID
  2
GENIUS_GENOBJ-N-REV_13
 70
     0
  0
APPID
  2
GENIUS_GENREC_13
 70
     0
  0
APPID
  2
_KTH
 70
     0
  0
APPID
  2
GENIUS_GENOBJ-N-SEC_13
 70
     0
  0
APPID
  2
ACAD_EXEMPT_FROM_CAD_STANDARDS
 70
     0
  0
APPID
  2
ACAD_MLEADERVER
 70
     0
  0
APPID
  2
ACAD_NAV_VCDISPLAY
 70
     0
  0
APPID
  2
ACAD_PSEXT
 70
     0
  0
APPID
  2
ACAD_DSTYLE_DIMJAG
 70
     0
  0
APPID
  2
ACAD_DSTYLE_DIMTALN
 70
     0
  0
APPID
  2
ACAD_DSTYLE_DIMBREAK
 70
     0
  0
APPID
  2
ACAECLAYERSTANDARD
 70
     0
  0
APPID
  2
ACCMTRANSPARENCY
 70
     0
  0
APPID
  2
ACAD_DSTYLE_DIM_LINETYPE
 70
     0
  0
APPID
  2
GRADIENTCOLOR1ACI
 70
     0
  0
APPID
  2
GRADIENTCOLOR2ACI
 70
     0
  0
APPID
  2
ACAD_TC
 70
     0
  0
APPID
  2
ACAD_DSTYLE_DIMRADIAL_EXTENSION
 70
     0
  0
ENDTAB
  0
TABLE
  2
DIMSTYLE
 70
     3
  0
DIMSTYLE
  2
STANDARD
 70
     0
  3

  4

  5

  6

  7

 40
1.0
 41
0.18
 42
0.0625
 43
0.38
 44
0.18
 45
0.0
 46
0.0
 47
0.0
 48
0.0
140
0.18
141
0.09
142
0.0
143
25.3999999999999986
144
1.0
145
0.0
146
1.0
147
0.09
 71
     0
 72
     0
 73
     1
 74
     1
 75
     0
 76
     0
 77
     0
 78
     0
170
     0
171
     2
172
     0
173
     0
174
     0
175
     0
176
     0
177
     0
178
     0
  0
DIMSTYLE
  2
ANNOTATIVE
 70
     0
  3

  4

  5

  6

  7

 40
1.0
 41
0.18
 42
0.0625
 43
0.38
 44
0.18
 45
0.0
 46
0.0
 47
0.0
 48
0.0
140
0.18
141
0.09
142
0.0
143
25.3999999999999986
144
1.0
145
0.0
146
1.0
147
0.09
 71
     0
 72
     0
 73
     1
 74
     1
 75
     0
 76
     0
 77
     0
 78
     0
170
     0
171
     2
172
     0
173
     0
174
     0
175
     0
176
     0
177
     0
178
     0
  0
DIMSTYLE
  2
ISO-25
 70
     0
  3

  4

  5

  6

  7

 40
1.0
 41
2.5
 42
0.625
 43
3.75
 44
1.25
 45
0.0
 46
0.0
 47
0.0
 48
0.0
140
2.5
141
2.5
142
0.0
143
0.03937007874016
144
1.0
145
0.0
146
1.0
147
0.625
 71
     0
 72
     0
 73
     0
 74
     0
 75
     0
 76
     0
 77
     1
 78
     8
170
     0
171
     3
172
     1
173
     0
174
     0
175
     0
176
     0
177
     0
178
     0
  0
ENDTAB
  0
ENDSEC
  0
SECTION
  2
BLOCKS
  0
BLOCK
  8
0
  2
$MODEL_SPACE
 70
     0
 10
0.0
 20
0.0
 30
0.0
  3
$MODEL_SPACE
  1

  0
ENDBLK
  5
15BEE
  8
0
  0
BLOCK
 67
     1
  8
0
  2
$PAPER_SPACE
 70
     0
 10
0.0
 20
0.0
 30
0.0
  3
$PAPER_SPACE
  1

  0
ENDBLK
  5
15BEA
 67
     1
  8
0
  0
ENDSEC
  0
SECTION
  2
ENTITIES
  0
TEXT
  5
80B7
  8
0
 62
     3
 10
0.0
 20
0.0
 30
0.0
 40
10.0
  1
IMR-RA4-PQ9020
  7
STANDARD1
  0
LINE
  5
146C6
  8
0
 10
246.0
 20
163.000000000000199
 30
0.0
 11
246.0
 21
155.000000000000199
 31
0.0
  0
LINE
  5
146C7
  8
0
 10
259.0000000000001137
 20
155.000000000000199
 30
0.0
 11
259.0000000000001137
 21
163.000000000000199
 31
0.0
  0
LINE
  5
146C8
  8
0
 10
248.5
 20
145.0000000000003126
 30
0.0
 11
248.5
 21
135.000000000000199
 31
0.0
  0
LINE
  5
146C9
  8
0
 10
256.5
 20
135.000000000000199
 30
0.0
 11
256.5
 21
145.0000000000003126
 31
0.0
  0
LINE
  5
146CA
  8
0
 10
141.0000000000001137
 20
163.000000000000199
 30
0.0
 11
141.0000000000001137
 21
155.000000000000199
 31
0.0
  0
LINE
  5
146CB
  8
0
 10
154.0000000000001137
 20
155.000000000000199
 30
0.0
 11
154.0000000000001137
 21
163.000000000000199
 31
0.0
  0
LINE
  5
146CC
  8
0
 10
143.5000000000001137
 20
145.0000000000003126
 30
0.0
 11
143.5000000000001137
 21
135.000000000000199
 31
0.0
  0
LINE
  5
146CD
  8
0
 10
151.5000000000001137
 20
135.000000000000199
 30
0.0
 11
151.5000000000001137
 21
145.0000000000003126
 31
0.0
  0
LINE
  5
146CE
  8
0
 10
220.6776695296634045
 20
163.0000000000003126
 30
0.0
 11
220.6776695296634045
 21
163.5000000000001137
 31
0.0
  0
LINE
  5
146CF
  8
0
 10
214.6776695296634045
 20
163.5000000000001137
 30
0.0
 11
214.6776695296634045
 21
163.0000000000003126
 31
0.0
  0
LINE
  5
146D0
  8
0
 10
185.3223304703363965
 20
163.0000000000003126
 30
0.0
 11
185.3223304703363965
 21
163.5000000000001137
 31
0.0
  0
LINE
  5
146D1
  8
0
 10
179.3223304703363965
 20
163.5000000000001137
 30
0.0
 11
179.3223304703363965
 21
163.0000000000003126
 31
0.0
  0
LINE
  5
146D2
  8
0
 10
245.0000000000001137
 20
160.9999999999978968
 30
0.0
 11
245.0000000000001137
 21
163.0
 31
0.0
  0
LINE
  5
146D3
  8
0
 10
155.0
 20
163.0
 30
0.0
 11
155.0
 21
161.0
 31
0.0
  0
LINE
  5
146D4
  8
0
 10
155.0
 20
160.999999999999801
 30
0.0
 11
154.0
 21
160.7132546142412082
 31
0.0
  0
LINE
  5
146D5
  8
0
 10
141.0000000000001137
 20
156.9855645993768007
 30
0.0
 11
138.5
 21
156.2687011349796933
 31
0.0
  0
LINE
  5
146D6
  8
0
 10
261.5
 20
156.268701134979807
 30
0.0
 11
259.0000000000001137
 21
156.9855645993768007
 31
0.0
  0
LINE
  5
146D7
  8
0
 10
246.0
 20
160.7132546142412082
 30
0.0
 11
245.0000000000001137
 21
161.0
 31
0.0
  0
LINE
  5
146D8
  8
0
 10
246.0
 20
163.000000000000199
 30
0.0
 11
259.0000000000001137
 21
163.000000000000199
 31
0.0
  0
LINE
  5
146D9
  8
0
 10
256.5
 20
135.000000000000199
 30
0.0
 11
248.5
 21
135.000000000000199
 31
0.0
  0
LINE
  5
146DA
  8
0
 10
141.0000000000001137
 20
163.000000000000199
 30
0.0
 11
154.0000000000001137
 21
163.000000000000199
 31
0.0
  0
LINE
  5
146DB
  8
0
 10
151.5000000000001137
 20
135.000000000000199
 30
0.0
 11
143.5000000000001137
 21
135.000000000000199
 31
0.0
  0
LINE
  5
146DC
  8
0
 10
214.6776695296634045
 20
163.5000000000001137
 30
0.0
 11
220.6776695296634045
 21
163.5000000000001137
 31
0.0
  0
LINE
  5
146DD
  8
0
 10
179.3223304703363965
 20
163.5000000000001137
 30
0.0
 11
185.3223304703363965
 21
163.5000000000001137
 31
0.0
  0
LINE
  5
146DE
  8
0
 10
245.0000000000001137
 20
163.0
 30
0.0
 11
155.0
 21
163.0
 31
0.0
  0
ARC
  5
146DF
  8
0
 10
200.0
 20
103.5000000000011937
 30
0.0
 40
44.9999999999992326
 50
68.960530218685534
 51
111.0394697813143949
  0
LINE
  5
146E0
  8
0
 10
183.8445055785967952
 20
145.5000000000003126
 30
0.0
 11
183.8445055785967952
 21
161.0000000000003126
 31
0.0
  0
LINE
  5
146E1
  8
0
 10
183.8445055785967952
 20
161.0000000000003126
 30
0.0
 11
155.0
 21
161.0
 31
0.0
  0
LINE
  5
146E2
  8
0
 10
216.1554944214209115
 20
160.9999999999982094
 30
0.0
 11
245.0000000000001137
 21
161.0
 31
0.0
  0
LINE
  5
146E3
  8
0
 10
216.1554944214036027
 20
145.5000000000003126
 30
0.0
 11
216.1554944214209115
 21
160.9999999999982094
 31
0.0
  0
ARC
  5
146E4
  8
0
 10
253.5
 20
137.5000000000003979
 30
0.0
 40
7.9999999999999281
 50
69.6358651936768069
 51
90.0
  0
LINE
  5
146E5
  8
0
 10
138.5
 20
145.0000000000003126
 30
0.0
 11
261.5
 21
145.0000000000003126
 31
0.0
  0
ARC
  5
146E6
  8
0
 10
146.5000000000001137
 20
137.5000000000003979
 30
0.0
 40
7.999999999999857
 50
90.0
 51
110.3641348063163008
  0
LINE
  5
146E7
  8
0
 10
146.5000000000001137
 20
145.5000000000003126
 30
0.0
 11
183.8445055785967952
 21
145.5000000000003126
 31
0.0
  0
LINE
  5
146E8
  8
0
 10
216.1554944214036027
 20
145.5000000000003126
 30
0.0
 11
253.5
 21
145.5000000000003126
 31
0.0
  0
LINE
  5
146EA
  8
0
 10
244.5
 20
155.0000000000003126
 30
0.0
 11
244.5
 21
157.3088111994200915
 31
0.0
  0
LINE
  5
146F0
  8
0
 10
261.5
 20
145.000000000000199
 30
0.0
 11
261.5
 21
156.268701134979807
 31
0.0
  0
LINE
  5
146F1
  8
0
 10
138.5
 20
155.0000000000003126
 30
0.0
 11
160.5000000000001137
 21
155.0000000000003126
 31
0.0
  0
LINE
  5
146F6
  8
0
 10
155.5000000000001137
 20
157.3088112316889067
 30
0.0
 11
155.5000000000001137
 21
155.0000000000003126
 31
0.0
  0
LINE
  5
146F7
  8
0
 10
138.5
 20
156.2687011349796933
 30
0.0
 11
138.5
 21
145.000000000000199
 31
0.0
  0
LINE
  5
146F8
  8
0
 10
239.5
 20
155.0000000000003126
 30
0.0
 11
261.5
 21
155.0000000000003126
 31
0.0
  0
LINE
  5
146F9
  8
2
 10
216.1554944214036027
 20
145.5000000000001137
 30
0.0
 11
212.6776695296634045
 21
145.5000000000001137
 31
0.0
  0
LINE
  5
146FA
  8
2
 10
187.3223304703363965
 20
145.5000000000001137
 30
0.0
 11
183.8445055785967952
 21
145.5000000000001137
 31
0.0
  0
LINE
  5
14702
  8
2
 10
168.1500000000000057
 20
162.0
 30
0.0
 11
231.8500000000001933
 21
162.0
 31
0.0
  0
LINE
  5
14703
  8
2
 10
168.1500000000000057
 20
160.0
 30
0.0
 11
231.8500000000001933
 21
160.0
 31
0.0
  0
LINE
  5
14704
  8
2
 10
168.500000000000199
 20
157.0
 30
0.0
 11
231.5000000000001137
 21
157.0
 31
0.0
  0
LINE
  5
14705
  8
2
 10
202.0
 20
146.3991393809725992
 30
0.0
 11
198.0
 21
146.3991393809725992
 31
0.0
  0
LINE
  5
14706
  8
2
 10
203.0000000000428884
 20
147.0000000000374882
 30
0.0
 11
196.9999999999571969
 21
147.0000000000374882
 31
0.0
  0
LINE
  5
14707
  8
2
 10
223.1776695296634045
 20
151.5000000000001137
 30
0.0
 11
212.1776695296634045
 21
151.5000000000001137
 31
0.0
  0
LINE
  5
14708
  8
2
 10
187.8223304703365102
 20
151.5000000000001137
 30
0.0
 11
176.8223304703363965
 21
151.5000000000001137
 31
0.0
  0
LINE
  5
14709
  8
2
 10
215.7500000000001137
 20
156.0
 30
0.0
 11
184.25
 21
156.0
 31
0.0
  0
LINE
  5
1470A
  8
2
 10
144.5000000000001137
 20
139.0
 30
0.0
 11
150.5000000000001137
 21
139.0
 31
0.0
  0
LINE
  5
1470B
  8
2
 10
149.5000000000187015
 20
155.6008606191203114
 30
0.0
 11
145.4999999999812985
 21
155.6008606191203114
 31
0.0
  0
LINE
  5
1470C
  8
2
 10
249.5
 20
139.0
 30
0.0
 11
255.5
 21
139.0
 31
0.0
  0
LINE
  5
1470D
  8
2
 10
254.5000000000572982
 20
155.6008606190634111
 30
0.0
 11
250.4999999999427018
 21
155.6008606190634111
 31
0.0
  0
LINE
  5
1470E
  8
2
 10
248.5
 20
155.000000000000199
 30
0.0
 11
248.5
 21
145.0000000000003126
 31
0.0
  0
LINE
  5
1470F
  8
2
 10
256.5
 20
145.0000000000003126
 30
0.0
 11
256.5
 21
155.000000000000199
 31
0.0
  0
LINE
  5
14710
  8
2
 10
143.5000000000001137
 20
155.000000000000199
 30
0.0
 11
143.5000000000001137
 21
145.0000000000003126
 31
0.0
  0
LINE
  5
14711
  8
2
 10
151.5000000000001137
 20
145.0000000000003126
 30
0.0
 11
151.5000000000001137
 21
155.000000000000199
 31
0.0
  0
LINE
  5
14712
  8
2
 10
222.6776695296634045
 20
145.5000000000001137
 30
0.0
 11
222.6776695296634045
 21
151.5000000000001137
 31
0.0
  0
LINE
  5
14713
  8
2
 10
212.6776695296634045
 20
151.5000000000001137
 30
0.0
 11
212.6776695296634045
 21
145.5000000000001137
 31
0.0
  0
LINE
  5
14714
  8
2
 10
220.6776695296634045
 20
151.5000000000001137
 30
0.0
 11
220.6776695296634045
 21
163.0000000000003126
 31
0.0
  0
LINE
  5
14715
  8
2
 10
214.6776695296634045
 20
163.0000000000003126
 30
0.0
 11
214.6776695296634045
 21
151.5000000000001137
 31
0.0
  0
LINE
  5
14716
  8
2
 10
187.3223304703363965
 20
145.5000000000001137
 30
0.0
 11
187.3223304703363965
 21
151.5000000000001137
 31
0.0
  0
LINE
  5
14717
  8
2
 10
177.3223304703363965
 20
151.5000000000001137
 30
0.0
 11
177.3223304703363965
 21
145.5000000000001137
 31
0.0
  0
LINE
  5
14718
  8
2
 10
185.3223304703363965
 20
151.5000000000001137
 30
0.0
 11
185.3223304703363965
 21
163.0000000000003126
 31
0.0
  0
LINE
  5
14719
  8
2
 10
179.3223304703363965
 20
163.0000000000003126
 30
0.0
 11
179.3223304703363965
 21
151.5000000000001137
 31
0.0
  0
LINE
  5
1471A
  8
2
 10
154.0
 20
160.7132546142412082
 30
0.0
 11
141.0000000000001137
 21
156.9855645993768007
 31
0.0
  0
LINE
  5
1471B
  8
2
 10
259.0000000000001137
 20
156.9855645993768007
 30
0.0
 11
246.0
 21
160.7132546142412082
 31
0.0
  0
LINE
  5
1471C
  8
2
 10
248.0
 20
155.000000000000199
 30
0.0
 11
248.0
 21
145.000000000000199
 31
0.0
  0
LINE
  5
1471D
  8
2
 10
257.0000000000001137
 20
145.000000000000199
 30
0.0
 11
257.0000000000001137
 21
155.000000000000199
 31
0.0
  0
LINE
  5
1471E
  8
2
 10
143.0000000000001137
 20
155.000000000000199
 30
0.0
 11
143.0000000000001137
 21
145.000000000000199
 31
0.0
  0
LINE
  5
1471F
  8
2
 10
152.0000000000001137
 20
145.000000000000199
 30
0.0
 11
152.0000000000001137
 21
155.000000000000199
 31
0.0
  0
LINE
  5
14720
  8
2
 10
167.1500000000000057
 20
163.0
 30
0.0
 11
168.1499999999998067
 21
162.0
 31
0.0
  0
LINE
  5
14721
  8
2
 10
231.8500000000001933
 20
162.0
 30
0.0
 11
232.850000000000108
 21
163.0
 31
0.0
  0
LINE
  5
14722
  8
2
 10
168.1499999999998067
 20
162.0
 30
0.0
 11
168.1499999999998067
 21
160.0
 31
0.0
  0
LINE
  5
14723
  8
2
 10
231.8500000000001933
 20
160.0
 30
0.0
 11
231.8500000000001933
 21
162.0
 31
0.0
  0
LINE
  5
14724
  8
2
 10
168.500000000000199
 20
160.0
 30
0.0
 11
168.500000000000199
 21
157.0
 31
0.0
  0
LINE
  5
14725
  8
2
 10
231.5000000000001137
 20
157.0
 30
0.0
 11
231.5000000000001137
 21
160.0
 31
0.0
  0
LINE
  5
14726
  8
2
 10
196.9999999999571969
 20
147.0000000000374882
 30
0.0
 11
198.0
 21
146.3991393809868953
 31
0.0
  0
LINE
  5
14727
  8
2
 10
202.0
 20
146.3991393809868953
 30
0.0
 11
203.0000000000428884
 21
147.0000000000374882
 31
0.0
  0
LINE
  5
14728
  8
2
 10
203.0000000000001137
 20
147.0000000000117097
 30
0.0
 11
203.0000000000001137
 21
163.0
 31
0.0
  0
LINE
  5
14729
  8
2
 10
197.0
 20
163.0
 30
0.0
 11
196.9999999999571969
 21
147.0000000000374882
 31
0.0
  0
LINE
  5
1472A
  8
2
 10
198.0
 20
146.3991393809725992
 30
0.0
 11
198.0
 21
145.0000000000001137
 31
0.0
  0
LINE
  5
1472B
  8
2
 10
202.0
 20
145.0000000000001137
 30
0.0
 11
202.0
 21
146.3991393809725992
 31
0.0
  0
LINE
  5
1472C
  8
2
 10
223.1776695296634045
 20
145.0000000000001137
 30
0.0
 11
223.1776695296634045
 21
151.5000000000001137
 31
0.0
  0
LINE
  5
1472D
  8
2
 10
212.1776695296634045
 20
151.5000000000001137
 30
0.0
 11
212.1776695296634045
 21
145.0000000000001137
 31
0.0
  0
LINE
  5
1472E
  8
2
 10
187.8223304703365102
 20
145.0000000000001137
 30
0.0
 11
187.8223304703365102
 21
151.5000000000001137
 31
0.0
  0
LINE
  5
1472F
  8
2
 10
176.8223304703363965
 20
151.5000000000001137
 30
0.0
 11
176.8223304703363965
 21
145.0000000000001137
 31
0.0
  0
LINE
  5
14730
  8
2
 10
220.9776695296633022
 20
151.5000000000001137
 30
0.0
 11
220.9776695296633022
 21
157.0000000000001137
 31
0.0
  0
LINE
  5
14731
  8
2
 10
214.3776695296633079
 20
157.0000000000001137
 30
0.0
 11
214.3776695296633079
 21
151.5000000000001137
 31
0.0
  0
LINE
  5
14732
  8
2
 10
185.6223304703362942
 20
151.5000000000001137
 30
0.0
 11
185.6223304703362942
 21
157.0000000000001137
 31
0.0
  0
LINE
  5
14733
  8
2
 10
179.0223304703364136
 20
157.0000000000001137
 30
0.0
 11
179.0223304703364136
 21
151.5000000000001137
 31
0.0
  0
LINE
  5
14734
  8
2
 10
183.25
 20
157.0
 30
0.0
 11
184.25
 21
156.0
 31
0.0
  0
LINE
  5
14735
  8
2
 10
215.7500000000001137
 20
156.0
 30
0.0
 11
216.75
 21
157.0
 31
0.0
  0
LINE
  5
14736
  8
2
 10
184.25
 20
156.0
 30
0.0
 11
184.25
 21
145.0
 31
0.0
  0
LINE
  5
14737
  8
2
 10
215.7500000000001137
 20
145.0
 30
0.0
 11
215.7500000000001137
 21
156.0
 31
0.0
  0
LINE
  5
14738
  8
2
 10
150.5000000000001137
 20
139.0
 30
0.0
 11
150.5000000001961951
 21
155.0000000000003126
 31
0.0
  0
LINE
  5
14739
  8
2
 10
144.5000000000001137
 20
155.0000000001180069
 30
0.0
 11
144.5000000000001137
 21
139.0
 31
0.0
  0
LINE
  5
1473A
  8
2
 10
150.5000000000001137
 20
155.0000000001180069
 30
0.0
 11
149.5000000000187015
 21
155.6008606191203114
 31
0.0
  0
LINE
  5
1473B
  8
2
 10
145.4999999999812985
 20
155.6008606191203114
 30
0.0
 11
144.5000000000001137
 21
155.0000000001180069
 31
0.0
  0
LINE
  5
1473C
  8
2
 10
255.5
 20
139.0
 30
0.0
 11
255.500000000120906
 21
155.0000000000003126
 31
0.0
  0
LINE
  5
1473D
  8
2
 10
249.5
 20
155.0000000000729869
 30
0.0
 11
249.5
 21
139.0
 31
0.0
  0
LINE
  5
1473E
  8
2
 10
255.4999999999998863
 20
155.0000000000729869
 30
0.0
 11
254.5000000000572982
 21
155.6008606190634111
 31
0.0
  0
LINE
  5
1473F
  8
2
 10
250.4999999999427018
 20
155.6008606190634111
 30
0.0
 11
249.5
 21
155.0000000000729869
 31
0.0
  0
LINE
  5
14740
  8
2
 10
254.5
 20
155.6008606190634111
 30
0.0
 11
254.5
 21
158.2102893531665018
 31
0.0
  0
LINE
  5
14741
  8
2
 10
250.5
 20
159.3547817826884057
 30
0.0
 11
250.5
 21
155.6008606190634111
 31
0.0
  0
LINE
  5
14742
  8
2
 10
149.5000000000001137
 20
155.6008606191203114
 30
0.0
 11
149.5000000000001137
 21
159.3547817826884057
 31
0.0
  0
LINE
  5
14743
  8
2
 10
145.5000000000001137
 20
158.2102893531665018
 30
0.0
 11
145.5000000000001137
 21
155.6008606191203114
 31
0.0
  0
CIRCLE
  5
14744
  8
0
 10
147.5
 20
99.9999999999998437
 30
0.0
 40
4.0
  0
CIRCLE
  5
14745
  8
0
 10
252.4999999999998863
 20
99.9999999999998437
 30
0.0
 40
4.0
  0
CIRCLE
  5
14746
  8
0
 10
147.5
 20
39.9999999999998366
 30
0.0
 40
4.0
  0
CIRCLE
  5
14747
  8
0
 10
252.4999999999998863
 20
39.9999999999998366
 30
0.0
 40
4.0
  0
LINE
  5
14748
  8
0
 10
220.1776695296634045
 20
86.2342938566898738
 30
0.0
 11
220.1776695296634045
 21
89.1210452026380153
 31
0.0
  0
LINE
  5
14749
  8
0
 10
217.6776695296634045
 20
90.5644208756120577
 30
0.0
 11
220.1776695296634045
 21
89.1210452026380153
 31
0.0
  0
LINE
  5
1474A
  8
0
 10
217.6776695296634045
 20
90.5644208756120577
 30
0.0
 11
215.1776695296634045
 21
89.1210452026380437
 31
0.0
  0
LINE
  5
1474B
  8
0
 10
215.1776695296634045
 20
89.1210452026380437
 30
0.0
 11
215.1776695296634045
 21
86.234293856689888
 31
0.0
  0
LINE
  5
1474C
  8
0
 10
217.6776695296634045
 20
84.7909181837158457
 30
0.0
 11
215.1776695296634045
 21
86.234293856689888
 31
0.0
  0
LINE
  5
1474D
  8
0
 10
217.6776695296634045
 20
84.7909181837158457
 30
0.0
 11
220.1776695296634045
 21
86.2342938566898738
 31
0.0
  0
CIRCLE
  5
1474E
  8
0
 10
217.6776695296634045
 20
87.6776695296639303
 30
0.0
 40
5.0
  0
LINE
  5
1474F
  8
0
 10
184.8223304703359133
 20
86.2342938566892485
 30
0.0
 11
184.8223304703359133
 21
89.1210452026374185
 31
0.0
  0
LINE
  5
14750
  8
0
 10
182.322330470335686
 20
90.5644208756114892
 30
0.0
 11
184.8223304703359133
 21
89.1210452026374185
 31
0.0
  0
LINE
  5
14751
  8
0
 10
182.322330470335686
 20
90.5644208756114892
 30
0.0
 11
179.8223304703359133
 21
89.1210452026374185
 31
0.0
  0
LINE
  5
14752
  8
0
 10
179.8223304703359133
 20
89.1210452026374185
 30
0.0
 11
179.8223304703359133
 21
86.2342938566892769
 31
0.0
  0
LINE
  5
14753
  8
0
 10
182.322330470335686
 20
84.7909181837152062
 30
0.0
 11
179.8223304703359133
 21
86.2342938566892769
 31
0.0
  0
LINE
  5
14754
  8
0
 10
182.322330470335686
 20
84.7909181837152062
 30
0.0
 11
184.8223304703359133
 21
86.2342938566892485
 31
0.0
  0
CIRCLE
  5
14755
  8
0
 10
182.322330470335686
 20
87.6776695296633619
 30
0.0
 40
5.0
  0
LINE
  5
14756
  8
0
 10
184.8223304703365102
 20
50.8789547973617999
 30
0.0
 11
184.8223304703365102
 21
53.7657061433099486
 31
0.0
  0
LINE
  5
14757
  8
0
 10
182.3223304703365102
 20
55.2090818162840193
 30
0.0
 11
184.8223304703365102
 21
53.7657061433099486
 31
0.0
  0
LINE
  5
14758
  8
0
 10
182.3223304703365102
 20
55.2090818162840193
 30
0.0
 11
179.8223304703367091
 21
53.7657061433099912
 31
0.0
  0
LINE
  5
14759
  8
0
 10
179.8223304703367091
 20
53.7657061433099912
 30
0.0
 11
179.8223304703367091
 21
50.8789547973618212
 31
0.0
  0
LINE
  5
1475A
  8
0
 10
182.3223304703365102
 20
49.4355791243877718
 30
0.0
 11
179.8223304703367091
 21
50.8789547973618212
 31
0.0
  0
LINE
  5
1475B
  8
0
 10
182.3223304703365102
 20
49.4355791243877718
 30
0.0
 11
184.8223304703365102
 21
50.8789547973617999
 31
0.0
  0
CIRCLE
  5
1475C
  8
0
 10
182.3223304703365102
 20
52.3223304703358991
 30
0.0
 40
5.0
  0
LINE
  5
1475D
  8
0
 10
220.1776695296636035
 20
50.8789547973621765
 30
0.0
 11
220.1776695296636035
 21
53.7657061433103323
 31
0.0
  0
LINE
  5
1475E
  8
0
 10
217.6776695296636035
 20
55.2090818162843675
 30
0.0
 11
220.1776695296636035
 21
53.7657061433103323
 31
0.0
  0
LINE
  5
1475F
  8
0
 10
217.6776695296636035
 20
55.2090818162843675
 30
0.0
 11
215.1776695296634898
 21
53.7657061433103323
 31
0.0
  0
LINE
  5
14760
  8
0
 10
215.1776695296634898
 20
53.7657061433103323
 30
0.0
 11
215.1776695296634898
 21
50.8789547973621765
 31
0.0
  0
LINE
  5
14761
  8
0
 10
217.6776695296636035
 20
49.43557912438812
 30
0.0
 11
215.1776695296634898
 21
50.8789547973621765
 31
0.0
  0
LINE
  5
14762
  8
0
 10
217.6776695296636035
 20
49.43557912438812
 30
0.0
 11
220.1776695296636035
 21
50.8789547973621765
 31
0.0
  0
CIRCLE
  5
14763
  8
0
 10
217.6776695296636035
 20
52.3223304703362615
 30
0.0
 40
5.0
  0
CIRCLE
  5
14764
  8
0
 10
252.4999999999998863
 20
74.9999999999998295
 30
0.0
 40
2.9999999999999911
  0
CIRCLE
  5
14765
  8
0
 10
147.5
 20
75.0000000000001563
 30
0.0
 40
3.0
  0
ARC
  5
14766
  8
0
 10
146.5
 20
36.0
 30
0.0
 40
8.0000000000000888
 50
180.0
 51
249.6358651936837987
  0
LINE
  5
14767
  8
0
 10
138.5
 20
104.0
 30
0.0
 11
138.5
 21
36.0
 31
0.0
  0
ARC
  5
14768
  8
0
 10
146.5
 20
104.0
 30
0.0
 40
8.0
 50
110.3641348063161018
 51
180.0
  0
LINE
  5
14769
  8
0
 10
143.7161178185851895
 20
111.5
 30
0.0
 11
256.283882181414981
 21
111.5
 31
0.0
  0
LINE
  5
1476A
  8
0
 10
261.5
 20
35.9999999999999787
 30
0.0
 11
261.5
 21
104.0
 31
0.0
  0
ARC
  5
1476B
  8
0
 10
253.4999999999998863
 20
35.9999999999999787
 30
0.0
 40
8.0000000000001137
 50
290.3641348063160876
 51
0.0
  0
LINE
  5
1476C
  8
0
 10
256.2838821814146968
 20
28.4999999999999893
 30
0.0
 11
143.7161178185847064
 21
28.5
 31
0.0
  0
CIRCLE
  5
1476D
  8
0
 10
200.0
 20
70.0
 30
0.0
 40
15.7500000000001101
  0
CIRCLE
  5
1476E
  8
0
 10
147.5
 20
40.0
 30
0.0
 40
4.5000000000001119
  0
CIRCLE
  5
1476F
  8
0
 10
147.5
 20
100.0
 30
0.0
 40
4.5000000000001119
  0
CIRCLE
  5
14770
  8
0
 10
252.4999999999998863
 20
100.0
 30
0.0
 40
4.5
  0
CIRCLE
  5
14771
  8
0
 10
252.4999999999998863
 20
39.9999999999999716
 30
0.0
 40
4.5
  0
CIRCLE
  5
14772
  8
0
 10
199.999999999999801
 20
44.9999999999999929
 30
0.0
 40
2.0
  0
CIRCLE
  5
14773
  8
0
 10
217.6776695296636035
 20
52.3223304703363112
 30
0.0
 40
5.5
  0
CIRCLE
  5
14774
  8
0
 10
217.6776695296634045
 20
87.6776695296639303
 30
0.0
 40
5.5
  0
CIRCLE
  5
14775
  8
0
 10
182.322330470335686
 20
87.6776695296633477
 30
0.0
 40
5.5000000000001119
  0
CIRCLE
  5
14776
  8
0
 10
182.3223304703365102
 20
52.3223304703358991
 30
0.0
 40
5.5
  0
ARC
  5
14777
  8
0
 10
253.4999999999998863
 20
104.0
 30
0.0
 40
8.0000000000001137
 50
0.0
 51
69.6358651936838413
  0
ARC
  5
14778
  8
0
 10
146.5
 20
104.0
 30
0.0
 40
8.0
 50
90.0
 51
110.3641348063161018
  0
LINE
  5
14779
  8
0
 10
146.5
 20
112.0
 30
0.0
 11
183.8445055785963973
 21
112.0
 31
0.0
  0
ARC
  5
1477A
  8
0
 10
200.0
 20
69.9999999999996732
 30
0.0
 40
45.0000000000002913
 50
68.9605302186855624
 51
111.0394697813143949
  0
LINE
  5
1477B
  8
0
 10
216.1554944214036027
 20
112.0
 30
0.0
 11
253.4999999999998863
 21
112.0
 31
0.0
  0
ARC
  5
1477C
  8
0
 10
253.4999999999998863
 20
104.0
 30
0.0
 40
8.0000000000000462
 50
69.6358651936838413
 51
90.0
  0
ARC
  5
1477D
  8
0
 10
146.5
 20
36.0
 30
0.0
 40
8.0000000000000888
 50
249.6358651936837987
 51
270.0
  0
LINE
  5
1477E
  8
0
 10
253.4999999999998863
 20
27.9999999999999893
 30
0.0
 11
216.1554944214032048
 21
28.0
 31
0.0
  0
ARC
  5
1477F
  8
0
 10
200.0
 20
69.9999999999996732
 30
0.0
 40
44.9999999999997726
 50
248.9605302186855056
 51
291.0394697813143807
  0
LINE
  5
14780
  8
0
 10
183.844505578596312
 20
28.0
 30
0.0
 11
146.5
 21
28.0
 31
0.0
  0
ARC
  5
14781
  8
0
 10
253.4999999999998863
 20
35.9999999999999787
 30
0.0
 40
8.0
 50
270.0
 51
290.3641348063160876
  0
LINE
  5
14782
  8
0
 10
86.4999999999997442
 20
163.0
 30
0.0
 11
86.499999999999801
 21
155.0
 31
0.0
  0
LINE
  5
14783
  8
0
 10
73.499999999999801
 20
155.0
 30
0.0
 11
73.4999999999997442
 21
163.0
 31
0.0
  0
LINE
  5
14784
  8
0
 10
83.9999999999997726
 20
145.0
 30
0.0
 11
83.9999999999997442
 21
135.0
 31
0.0
  0
LINE
  5
14785
  8
0
 10
75.9999999999997442
 20
135.0
 30
0.0
 11
75.9999999999997726
 21
145.0
 31
0.0
  0
LINE
  5
14786
  8
0
 10
26.4999999999997513
 20
163.0
 30
0.0
 11
26.4999999999997016
 21
155.0
 31
0.0
  0
LINE
  5
14787
  8
0
 10
13.4999999999996998
 20
154.999999999999801
 30
0.0
 11
13.4999999999997407
 21
162.999999999999801
 31
0.0
  0
LINE
  5
14788
  8
0
 10
23.9999999999997904
 20
144.9999999999998863
 30
0.0
 11
23.9999999999997513
 21
135.0
 31
0.0
  0
LINE
  5
14789
  8
0
 10
15.9999999999998597
 20
134.9999999999998863
 30
0.0
 11
15.9999999999997904
 21
144.9999999999998863
 31
0.0
  0
LINE
  5
1478A
  8
0
 10
64.6776695296636888
 20
162.999999999999801
 30
0.0
 11
64.6776695296636888
 21
163.5
 31
0.0
  0
LINE
  5
1478B
  8
0
 10
70.6776695296636888
 20
163.5
 30
0.0
 11
70.6776695296636888
 21
162.999999999999801
 31
0.0
  0
LINE
  5
1478C
  8
0
 10
29.3223304703361407
 20
162.999999999999801
 30
0.0
 11
29.3223304703361407
 21
163.5
 31
0.0
  0
LINE
  5
1478D
  8
0
 10
35.3223304703361407
 20
163.5
 30
0.0
 11
35.3223304703361407
 21
162.999999999999801
 31
0.0
  0
LINE
  5
1478E
  8
0
 10
51.9999999999997016
 20
139.0
 30
0.0
 11
51.9999999999996732
 21
145.0
 31
0.0
  0
LINE
  5
1478F
  8
0
 10
57.9999999999996518
 20
145.0
 30
0.0
 11
57.9999999999997229
 21
139.0
 31
0.0
  0
LINE
  5
14790
  8
0
 10
4.9999999999998721
 20
148.499999999999801
 30
0.0
 11
4.9999999999998561
 21
162.999999999999801
 31
0.0
  0
LINE
  5
14791
  8
0
 10
94.9999999999997442
 20
163.0
 30
0.0
 11
94.9999999999997584
 21
148.5
 31
0.0
  0
LINE
  5
14792
  8
0
 10
79.9999999999997442
 20
163.0
 30
0.0
 11
73.4999999999997442
 21
163.0
 31
0.0
  0
LINE
  5
14793
  8
0
 10
86.4999999999997442
 20
163.0
 30
0.0
 11
79.9999999999997442
 21
163.0
 31
0.0
  0
LINE
  5
14794
  8
0
 10
75.9999999999997442
 20
135.0
 30
0.0
 11
83.9999999999997442
 21
135.0
 31
0.0
  0
LINE
  5
14795
  8
0
 10
19.9999999999997407
 20
162.999999999999801
 30
0.0
 11
13.4999999999997407
 21
162.999999999999801
 31
0.0
  0
LINE
  5
14796
  8
0
 10
26.4999999999997513
 20
163.0
 30
0.0
 11
19.9999999999997407
 21
162.999999999999801
 31
0.0
  0
LINE
  5
14797
  8
0
 10
15.9999999999998597
 20
134.9999999999998863
 30
0.0
 11
23.9999999999997513
 21
135.0
 31
0.0
  0
LINE
  5
14798
  8
0
 10
67.6776695296636746
 20
163.5
 30
0.0
 11
64.6776695296636888
 21
163.5
 31
0.0
  0
LINE
  5
14799
  8
0
 10
70.6776695296636888
 20
163.5
 30
0.0
 11
67.6776695296636746
 21
163.5
 31
0.0
  0
LINE
  5
1479A
  8
0
 10
32.3223304703361407
 20
163.5
 30
0.0
 11
29.3223304703361407
 21
163.5
 31
0.0
  0
LINE
  5
1479B
  8
0
 10
35.3223304703361407
 20
163.5
 30
0.0
 11
32.3223304703361407
 21
163.5
 31
0.0
  0
LINE
  5
1479E
  8
0
 10
86.9999999999996732
 20
157.3088111994198925
 30
0.0
 11
86.4999999999998153
 21
157.3922863490159045
 31
0.0
  0
LINE
  5
147A1
  8
0
 10
7.9999999999997584
 20
160.999999999999801
 30
0.0
 11
13.4999999999996394
 21
160.999999999999801
 31
0.0
  0
LINE
  5
147A2
  8
0
 10
26.4999999999996483
 20
160.999999999999801
 30
0.0
 11
73.4999999999997726
 21
161.0
 31
0.0
  0
LINE
  5
147A3
  8
0
 10
86.4999999999996447
 20
161.0
 30
0.0
 11
91.9999999999931504
 21
160.9999999999980105
 31
0.0
  0
LINE
  5
147A6
  8
0
 10
13.4999999999996696
 20
157.3922863517541941
 30
0.0
 11
13.0000001760180606
 21
157.308811231688594
 31
0.0
  0
LINE
  5
147AD
  8
0
 10
83.9999999999997726
 20
145.0
 30
0.0
 11
91.4999999999998721
 21
145.0
 31
0.0
  0
LINE
  5
147AE
  8
0
 10
91.9999999999998579
 20
145.5
 30
0.0
 11
91.4999999999998721
 21
145.0
 31
0.0
  0
LINE
  5
147AF
  8
0
 10
91.9999999999996874
 20
155.0
 30
0.0
 11
91.9999999999997584
 21
145.5
 31
0.0
  0
LINE
  5
147B0
  8
0
 10
91.9999999999996874
 20
155.0
 30
0.0
 11
83.9999999999996732
 21
155.0
 31
0.0
  0
LINE
  5
147B1
  8
0
 10
32.9999999999998224
 20
155.0
 30
0.0
 11
15.9999999999998099
 21
154.999999999999801
 31
0.0
  0
LINE
  5
147B2
  8
0
 10
15.9999999999999005
 20
144.9999999999998863
 30
0.0
 11
83.9999999999997726
 21
145.0
 31
0.0
  0
LINE
  5
147B3
  8
0
 10
83.9999999999996732
 20
155.0
 30
0.0
 11
66.9999999999996874
 21
155.0
 31
0.0
  0
LINE
  5
147B4
  8
0
 10
71.9999999999996874
 20
156.517571173550607
 30
0.0
 11
71.9999999999996874
 21
155.0
 31
0.0
  0
LINE
  5
147B5
  8
0
 10
27.9999999999998188
 20
154.999999999999801
 30
0.0
 11
27.999999999999801
 21
156.5175711214315015
 31
0.0
  0
LINE
  5
147B6
  8
0
 10
7.9999999999998863
 20
145.4999999999998863
 30
0.0
 11
7.9999999999998144
 21
154.999999999999801
 31
0.0
  0
LINE
  5
147B7
  8
0
 10
8.4999999999997851
 20
145.0
 30
0.0
 11
7.9999999999998863
 21
145.4999999999998863
 31
0.0
  0
LINE
  5
147B8
  8
0
 10
15.9999999999998099
 20
154.999999999999801
 30
0.0
 11
7.9999999999998144
 21
154.999999999999801
 31
0.0
  0
LINE
  5
147B9
  8
0
 10
8.4999999999997851
 20
144.9999999999998863
 30
0.0
 11
15.9999999999999005
 21
144.9999999999998863
 31
0.0
  0
LINE
  5
147BA
  8
0
 10
57.9999999999997229
 20
139.0
 30
0.0
 11
51.9999999999997016
 21
139.0
 31
0.0
  0
LINE
  5
147BB
  8
0
 10
49.9999999999996376
 20
163.0
 30
0.0
 11
73.4999999999997442
 21
163.0000000000001137
 31
0.0
  0
LINE
  5
147BC
  8
0
 10
86.4999999999996305
 20
163.0000000000001137
 30
0.0
 11
94.9999999999997442
 21
163.0
 31
0.0
  0
LINE
  5
147BD
  8
0
 10
4.9999999999998561
 20
162.999999999999801
 30
0.0
 11
13.4999999999996305
 21
163.0
 31
0.0
  0
LINE
  5
147BE
  8
0
 10
26.4999999999996305
 20
163.0000000000001137
 30
0.0
 11
49.9999999999996376
 21
163.0
 31
0.0
  0
LINE
  5
147BF
  8
0
 10
7.99999999999977
 20
145.5
 30
0.0
 11
4.9999999999998721
 21
148.499999999999801
 31
0.0
  0
LINE
  5
147C0
  8
0
 10
94.9999999999998721
 20
148.5000000000001137
 30
0.0
 11
91.9999999999996447
 21
145.499999999999801
 31
0.0
  0
LINE
  5
147C1
  8
0
 10
91.9999999999996732
 20
157.3708617127041123
 30
0.0
 11
91.9999999999996874
 21
155.0
 31
0.0
  0
LINE
  5
147C2
  8
0
 10
7.9999999999998144
 20
154.999999999999801
 30
0.0
 11
7.999999999999801
 21
157.3708617127039986
 31
0.0
  0
LINE
  5
147C3
  8
0
 10
144.5
 20
216.7320508075688963
 30
0.0
 11
144.5
 21
213.2679491924311037
 31
0.0
  0
LINE
  5
147C4
  8
0
 10
147.499999999999801
 20
211.5358983848622927
 30
0.0
 11
144.5
 21
213.2679491924311037
 31
0.0
  0
LINE
  5
147C5
  8
0
 10
147.499999999999801
 20
211.5358983848622927
 30
0.0
 11
150.499999999999801
 21
213.2679491924311037
 31
0.0
  0
LINE
  5
147C6
  8
0
 10
150.499999999999801
 20
213.2679491924311037
 30
0.0
 11
150.499999999999801
 21
216.7320508075688963
 31
0.0
  0
LINE
  5
147C7
  8
0
 10
147.499999999999801
 20
218.4641016151377073
 30
0.0
 11
150.499999999999801
 21
216.7320508075688963
 31
0.0
  0
LINE
  5
147C8
  8
0
 10
147.499999999999801
 20
218.4641016151377073
 30
0.0
 11
144.5
 21
216.7320508075688963
 31
0.0
  0
CIRCLE
  5
147C9
  8
0
 10
147.499999999999801
 20
215.0
 30
0.0
 40
6.4999999999998863
  0
LINE
  5
147CA
  8
0
 10
249.4999999999998863
 20
216.7320508075688963
 30
0.0
 11
249.4999999999998863
 21
213.2679491924311037
 31
0.0
  0
LINE
  5
147CB
  8
0
 10
252.4999999999998863
 20
211.5358983848622074
 30
0.0
 11
249.4999999999998863
 21
213.2679491924311037
 31
0.0
  0
LINE
  5
147CC
  8
0
 10
252.4999999999998863
 20
211.5358983848622074
 30
0.0
 11
255.4999999999998863
 21
213.2679491924311037
 31
0.0
  0
LINE
  5
147CD
  8
0
 10
255.4999999999998863
 20
213.2679491924311037
 30
0.0
 11
255.4999999999998863
 21
216.7320508075688963
 31
0.0
  0
LINE
  5
147CE
  8
0
 10
252.4999999999998863
 20
218.4641016151377073
 30
0.0
 11
255.4999999999998863
 21
216.7320508075688963
 31
0.0
  0
LINE
  5
147CF
  8
0
 10
252.4999999999998863
 20
218.4641016151377073
 30
0.0
 11
249.4999999999998863
 21
216.7320508075688963
 31
0.0
  0
CIRCLE
  5
147D0
  8
0
 10
252.4999999999998863
 20
215.0
 30
0.0
 40
6.5
  0
LINE
  5
147D1
  8
0
 10
144.5
 20
276.7320508075687826
 30
0.0
 11
144.5
 21
273.2679491924311037
 31
0.0
  0
LINE
  5
147D2
  8
0
 10
147.499999999999801
 20
271.5358983848623211
 30
0.0
 11
144.5
 21
273.2679491924311037
 31
0.0
  0
LINE
  5
147D3
  8
0
 10
147.499999999999801
 20
271.5358983848623211
 30
0.0
 11
150.499999999999801
 21
273.2679491924311037
 31
0.0
  0
LINE
  5
147D4
  8
0
 10
150.499999999999801
 20
273.2679491924311037
 30
0.0
 11
150.499999999999801
 21
276.7320508075687826
 31
0.0
  0
LINE
  5
147D5
  8
0
 10
147.499999999999801
 20
278.4641016151376789
 30
0.0
 11
150.499999999999801
 21
276.7320508075687826
 31
0.0
  0
LINE
  5
147D6
  8
0
 10
147.499999999999801
 20
278.4641016151376789
 30
0.0
 11
144.5
 21
276.7320508075687826
 31
0.0
  0
CIRCLE
  5
147D7
  8
0
 10
147.499999999999801
 20
275.0
 30
0.0
 40
6.4999999999998863
  0
LINE
  5
147D8
  8
0
 10
249.4999999999998863
 20
276.7320508075687826
 30
0.0
 11
249.4999999999998863
 21
273.2679491924311037
 31
0.0
  0
LINE
  5
147D9
  8
0
 10
252.4999999999998863
 20
271.5358983848623211
 30
0.0
 11
249.4999999999998863
 21
273.2679491924311037
 31
0.0
  0
LINE
  5
147DA
  8
0
 10
252.4999999999998863
 20
271.5358983848623211
 30
0.0
 11
255.4999999999998863
 21
273.2679491924311037
 31
0.0
  0
LINE
  5
147DB
  8
0
 10
255.4999999999998863
 20
273.2679491924311037
 30
0.0
 11
255.4999999999998863
 21
276.7320508075687826
 31
0.0
  0
LINE
  5
147DC
  8
0
 10
252.4999999999998863
 20
278.4641016151376789
 30
0.0
 11
255.4999999999998863
 21
276.7320508075687826
 31
0.0
  0
LINE
  5
147DD
  8
0
 10
252.4999999999998863
 20
278.4641016151376789
 30
0.0
 11
249.4999999999998863
 21
276.7320508075687826
 31
0.0
  0
CIRCLE
  5
147DE
  8
0
 10
252.4999999999998863
 20
275.0
 30
0.0
 40
6.5
  0
CIRCLE
  5
147DF
  8
0
 10
217.6776695296632909
 20
227.3223304703359986
 30
0.0
 40
3.0
  0
CIRCLE
  5
147E0
  8
0
 10
182.322330470335686
 20
227.3223304703365955
 30
0.0
 40
3.0
  0
CIRCLE
  5
147E1
  8
0
 10
182.3223304703365102
 20
262.6776695296640014
 30
0.0
 40
3.0
  0
CIRCLE
  5
147E2
  8
0
 10
217.6776695296636035
 20
262.6776695296637172
 30
0.0
 40
3.0
  0
CIRCLE
  5
147E3
  8
0
 10
200.0
 20
244.9999999999998863
 30
0.0
 40
32.8500000000001435
  0
CIRCLE
  5
147E4
  8
0
 10
200.0
 20
244.9999999999998863
 30
0.0
 40
45.0
  0
CIRCLE
  5
147E5
  8
0
 10
200.0
 20
245.0
 30
0.0
 40
31.85000000000014
  0
CIRCLE
  5
147E6
  8
0
 10
199.999999999999801
 20
270.0
 30
0.0
 40
3.0
  0
CIRCLE
  5
147FB
  8
0
 10
200.0
 20
245.0
 30
0.0
 40
31.5
  0
CIRCLE
  5
147FC
  8
0
 10
200.0
 20
245.0
 30
0.0
 40
16.75
  0
CIRCLE
  5
147FD
  8
0
 10
217.6776695296632909
 20
227.3223304703359986
 30
0.0
 40
3.2999999999999541
  0
CIRCLE
  5
147FE
  8
0
 10
217.6776695296636035
 20
262.6776695296637172
 30
0.0
 40
3.2999999999999541
  0
CIRCLE
  5
147FF
  8
0
 10
182.322330470335686
 20
227.3223304703365955
 30
0.0
 40
3.3000000000000682
  0
CIRCLE
  5
14800
  8
0
 10
182.3223304703365102
 20
262.6776695296641151
 30
0.0
 40
3.2999999999999541
  0
CIRCLE
  5
14801
  8
0
 10
200.0
 20
245.0
 30
0.0
 40
15.7500000000001101
  0
ARC
  5
14802
  8
0
 10
146.499999999999801
 20
279.0
 30
0.0
 40
8.0
 50
90.0
 51
180.0
  0
LINE
  5
14803
  8
0
 10
138.5
 20
279.0
 30
0.0
 11
138.499999999999801
 21
211.0
 31
0.0
  0
LINE
  5
14804
  8
0
 10
183.8445055785967952
 20
287.0
 30
0.0
 11
146.499999999999801
 21
287.0
 31
0.0
  0
ARC
  5
14805
  8
0
 10
146.499999999999801
 20
211.0
 30
0.0
 40
8.0
 50
180.0
 51
270.0
  0
LINE
  5
14806
  8
0
 10
146.499999999999801
 20
203.0
 30
0.0
 11
183.8445055785961131
 21
203.0
 31
0.0
  0
ARC
  5
14807
  8
0
 10
253.4999999999998863
 20
279.0
 30
0.0
 40
8.0000000000001137
 50
0.0
 51
90.0
  0
LINE
  5
14808
  8
0
 10
261.5
 20
211.0
 30
0.0
 11
261.5
 21
279.0
 31
0.0
  0
LINE
  5
14809
  8
0
 10
253.4999999999998863
 20
287.0
 30
0.0
 11
216.1554944214030911
 21
287.0
 31
0.0
  0
ARC
  5
1480A
  8
0
 10
253.4999999999998863
 20
211.0
 30
0.0
 40
8.0000000000001137
 50
270.0
 51
0.0
  0
LINE
  5
1480B
  8
0
 10
216.1554944214038869
 20
203.0
 30
0.0
 11
253.4999999999998863
 21
203.0
 31
0.0
  0
LINE
  5
1480C
  8
3
 10
76.6764999999997627
 20
135.0
 30
0.0
 11
76.6764999999996917
 21
145.0000000000001137
 31
0.0
  0
LINE
  5
1480D
  8
3
 10
83.3234999999997115
 20
135.0
 30
0.0
 11
83.3234999999995978
 21
145.0000000000001137
 31
0.0
  0
LINE
  5
1480E
  8
1
 10
79.9999999999994884
 20
166.0
 30
0.0
 11
79.9999999999997726
 21
132.0
 31
0.0
  0
LINE
  5
1480F
  8
3
 10
16.6764999999996597
 20
134.9999999999998863
 30
0.0
 11
16.6764999999995887
 21
145.0
 31
0.0
  0
LINE
  5
14810
  8
3
 10
23.3234999999997115
 20
135.0
 30
0.0
 11
23.3234999999996404
 21
145.0000000000001137
 31
0.0
  0
LINE
  5
14811
  8
1
 10
19.9999999999994884
 20
165.999999999999801
 30
0.0
 11
19.9999999999997691
 21
131.9999999999998863
 31
0.0
  0
LINE
  5
14812
  8
3
 10
150.8235000000001094
 20
135.000000000000199
 30
0.0
 11
150.8235000000001094
 21
145.0000000000003126
 31
0.0
  0
LINE
  5
14813
  8
3
 10
144.1765000000000043
 20
135.000000000000199
 30
0.0
 11
144.1765000000000043
 21
145.0000000000003126
 31
0.0
  0
LINE
  5
14814
  8
1
 10
147.5
 20
166.000000000000199
 30
0.0
 11
147.5
 21
132.000000000000199
 31
0.0
  0
LINE
  5
14815
  8
3
 10
255.8235000000001094
 20
135.000000000000199
 30
0.0
 11
255.8235000000001094
 21
145.0000000000003126
 31
0.0
  0
LINE
  5
14816
  8
3
 10
249.1765000000000043
 20
135.000000000000199
 30
0.0
 11
249.1765000000000043
 21
145.0000000000003126
 31
0.0
  0
LINE
  5
14817
  8
1
 10
252.5
 20
166.000000000000199
 30
0.0
 11
252.5
 21
132.000000000000199
 31
0.0
  0
LINE
  5
14818
  8
1
 10
182.3223304703365102
 20
165.5000000000001137
 30
0.0
 11
182.3223304703365102
 21
142.5000000000001137
 31
0.0
  0
LINE
  5
14819
  8
1
 10
217.6776695296634898
 20
165.5000000000001137
 30
0.0
 11
217.6776695296634898
 21
142.5000000000001137
 31
0.0
  0
LINE
  5
1481A
  8
1
 10
54.9999999999997371
 20
136.0
 30
0.0
 11
54.9999999999995595
 21
158.000000000000199
 31
0.0
  0
LINE
  5
1481B
  8
1
 10
200.0
 20
168.000000000000199
 30
0.0
 11
200.0000000000001137
 21
140.0000000000003126
 31
0.0
  0
LINE
  5
1481C
  8
1
 10
266.5
 20
245.0
 30
0.0
 11
133.5
 21
245.0
 31
0.0
  0
LINE
  5
1481D
  8
1
 10
200.0
 20
194.999999999999801
 30
0.0
 11
200.0
 21
294.9999999999998863
 31
0.0
  0
LINE
  5
1481E
  8
1
 10
49.9999999999998224
 20
167.999999999999801
 30
0.0
 11
49.9999999999999218
 21
140.0
 31
0.0
  0
LINE
  5
1481F
  8
1
 10
137.999999999999801
 20
215.0
 30
0.0
 11
157.0
 21
215.0
 31
0.0
  0
LINE
  5
14820
  8
1
 10
147.499999999999801
 20
205.5
 30
0.0
 11
147.499999999999801
 21
224.5
 31
0.0
  0
LINE
  5
14821
  8
1
 10
242.9999999999998863
 20
215.0
 30
0.0
 11
261.9999999999998863
 21
215.0
 31
0.0
  0
LINE
  5
14822
  8
1
 10
252.4999999999998863
 20
205.4999999999998863
 30
0.0
 11
252.4999999999998863
 21
224.5
 31
0.0
  0
LINE
  5
14823
  8
1
 10
242.9999999999998863
 20
275.0
 30
0.0
 11
261.9999999999998863
 21
275.0
 31
0.0
  0
LINE
  5
14824
  8
1
 10
252.4999999999998863
 20
265.5
 30
0.0
 11
252.4999999999998863
 21
284.5
 31
0.0
  0
LINE
  5
14825
  8
1
 10
138.0
 20
275.0
 30
0.0
 11
157.0
 21
275.0
 31
0.0
  0
LINE
  5
14826
  8
1
 10
147.499999999999801
 20
265.5
 30
0.0
 11
147.499999999999801
 21
284.5
 31
0.0
  0
LINE
  5
14827
  8
1
 10
177.8675577488606052
 20
222.867557748861401
 30
0.0
 11
186.7771031918109088
 21
231.7771031918119036
 31
0.0
  0
CIRCLE
  5
14828
  8
3
 10
182.322330470335686
 20
227.3223304703365955
 30
0.0
 40
2.458499999999999
  0
LINE
  5
14829
  8
1
 10
222.1324422511382863
 20
222.8675577488608042
 30
0.0
 11
213.2228968081878122
 21
231.7771031918113067
 31
0.0
  0
CIRCLE
  5
1482A
  8
3
 10
217.6776695296632909
 20
227.3223304703359986
 30
0.0
 40
2.458499999999999
  0
LINE
  5
1482B
  8
1
 10
213.2228968081882954
 20
258.2228968081884091
 30
0.0
 11
222.1324422511387979
 21
267.1324422511389116
 31
0.0
  0
CIRCLE
  5
1482C
  8
3
 10
217.6776695296636035
 20
262.6776695296637172
 30
0.0
 40
2.458499999999999
  0
LINE
  5
1482D
  8
1
 10
186.7771031918121025
 20
258.2228968081889207
 30
0.0
 11
177.867557748861401
 21
267.1324422511394232
 31
0.0
  0
CIRCLE
  5
1482E
  8
3
 10
182.3223304703365102
 20
262.6776695296641151
 30
0.0
 40
2.458499999999999
  0
LINE
  5
1482F
  8
1
 10
147.4999682465438013
 20
244.9999390139113018
 30
0.0
 11
147.4999682465438013
 21
235.0
 31
0.0
  0
CIRCLE
  5
14830
  8
0
 10
147.4999682465438013
 20
239.9999695069556935
 30
0.0
 40
2.0
  0
LINE
  5
14831
  8
1
 10
142.4999682465440003
 20
239.9999695069556935
 30
0.0
 11
152.4999682465438013
 21
239.9999695069556935
 31
0.0
  0
LINE
  5
14832
  8
1
 10
252.500031753455886
 20
244.9999390139111028
 30
0.0
 11
252.500031753455886
 21
234.999999999999801
 31
0.0
  0
CIRCLE
  5
14833
  8
0
 10
252.500031753455886
 20
239.9999695069554093
 30
0.0
 40
2.0
  0
LINE
  5
14834
  8
1
 10
257.5000317534559144
 20
239.9999695069554093
 30
0.0
 11
247.500031753455886
 21
239.9999695069554946
 31
0.0
  0
CIRCLE
  5
14835
  8
3
 10
147.5
 20
39.9999999999999289
 30
0.0
 40
3.3234999999999939
  0
LINE
  5
14836
  8
1
 10
140.0
 20
40.0
 30
0.0
 11
155.0
 21
40.0
 31
0.0
  0
LINE
  5
14837
  8
1
 10
147.5
 20
32.5
 30
0.0
 11
147.5
 21
47.5
 31
0.0
  0
CIRCLE
  5
14838
  8
3
 10
252.4999999999998863
 20
39.9999999999999218
 30
0.0
 40
3.3234999999999939
  0
LINE
  5
14839
  8
1
 10
244.9999999999998863
 20
39.9999999999999716
 30
0.0
 11
259.9999999999998863
 21
39.9999999999999716
 31
0.0
  0
LINE
  5
1483A
  8
1
 10
252.4999999999998863
 20
32.4999999999999787
 30
0.0
 11
252.4999999999998863
 21
47.4999999999999929
 31
0.0
  0
CIRCLE
  5
1483B
  8
3
 10
252.4999999999998863
 20
99.9999999999997868
 30
0.0
 40
3.3234999999999939
  0
LINE
  5
1483C
  8
1
 10
244.9999999999998863
 20
99.9999999999998437
 30
0.0
 11
259.9999999999998863
 21
99.9999999999998437
 31
0.0
  0
LINE
  5
1483D
  8
1
 10
252.4999999999998863
 20
92.4999999999998437
 30
0.0
 11
252.4999999999998863
 21
107.499999999999801
 31
0.0
  0
CIRCLE
  5
1483E
  8
3
 10
147.5
 20
99.9999999999999147
 30
0.0
 40
3.3234999999999939
  0
LINE
  5
1483F
  8
1
 10
140.0
 20
100.0
 30
0.0
 11
155.0
 21
100.0
 31
0.0
  0
LINE
  5
14840
  8
1
 10
147.5
 20
92.5
 30
0.0
 11
147.5
 21
107.5
 31
0.0
  0
LINE
  5
14841
  8
1
 10
188.332738110422298
 20
58.3327381104215306
 30
0.0
 11
176.3119228302510066
 21
46.3119228302502393
 31
0.0
  0
LINE
  5
14842
  8
1
 10
223.6880771697491923
 20
46.3119228302505803
 30
0.0
 11
211.667261889577901
 21
58.3327381104218574
 31
0.0
  0
LINE
  5
14843
  8
1
 10
223.6880771697487944
 20
93.6880771697499739
 30
0.0
 11
211.6672618895775031
 21
81.6672618895786968
 31
0.0
  0
LINE
  5
14844
  8
1
 10
188.3327381104215021
 20
81.6672618895776736
 30
0.0
 11
176.3119228302502108
 21
93.6880771697489649
 31
0.0
  0
LINE
  5
14845
  8
1
 10
258.4999999999998863
 20
74.9999999999998295
 30
0.0
 11
246.4999999999998863
 21
74.9999999999998295
 31
0.0
  0
LINE
  5
14846
  8
1
 10
252.4999999999998863
 20
68.9999999999998295
 30
0.0
 11
252.4999999999998863
 21
80.9999999999998295
 31
0.0
  0
LINE
  5
14847
  8
1
 10
153.5
 20
75.0000000000001563
 30
0.0
 11
141.5
 21
75.0000000000001563
 31
0.0
  0
LINE
  5
14848
  8
1
 10
147.5
 20
69.0000000000001705
 30
0.0
 11
147.5
 21
81.0000000000001563
 31
0.0
  0
LINE
  5
14849
  8
1
 10
266.5
 20
70.0
 30
0.0
 11
133.5
 21
70.0
 31
0.0
  0
LINE
  5
1484A
  8
1
 10
199.9999999999992895
 20
120.0
 30
0.0
 11
200.0
 21
19.9999999999999289
 31
0.0
  0
CIRCLE
  5
1484B
  8
1
 10
200.0
 20
245.0
 30
0.0
 40
25.0000000000001599
  0
CIRCLE
  5
1484C
  8
1
 10
199.9999999999996021
 20
70.0
 30
0.0
 40
24.9999999999998401
  0
POLYLINE
  5
14E87
  8
0
 66
     1
 10
0.0
 20
0.0
 30
0.0
  0
VERTEX
  5
15CA4
  8
0
 10
155.5
 20
282.0
 30
0.0
  0
VERTEX
  5
15CA5
  8
0
 10
155.5
 20
281.0931249962056881
 30
0.0
  0
VERTEX
  5
15CA6
  8
0
 10
155.5
 20
280.1858491875780146
 30
0.0
  0
VERTEX
  5
15CA7
  8
0
 10
155.5
 20
279.2781584487082114
 30
0.0
  0
VERTEX
  5
15CA8
  8
0
 10
155.5
 20
278.3700386541876242
 30
0.0
  0
VERTEX
  5
15CA9
  8
0
 10
155.5
 20
277.4614756786075986
 30
0.0
  0
VERTEX
  5
15CAA
  8
0
 10
155.5
 20
276.5524553965598216
 30
0.0
  0
VERTEX
  5
15CAB
  8
0
 10
155.5
 20
275.6429636826354113
 30
0.0
  0
VERTEX
  5
15CAC
  8
0
 10
155.5
 20
274.7329864114257134
 30
0.0
  0
VERTEX
  5
15CAD
  8
0
 10
155.5
 20
273.8225094575224148
 30
0.0
  0
VERTEX
  5
15CAE
  8
0
 10
155.5
 20
272.9115186955165768
 30
0.0
  0
VERTEX
  5
15CAF
  8
0
 10
155.5
 20
272.0
 30
0.0
  0
SEQEND
  5
15CB0
  8
0
  0
POLYLINE
  5
14E88
  8
0
 66
     1
 10
0.0
 20
0.0
 30
0.0
  0
VERTEX
  5
15CB1
  8
0
 10
155.5
 20
272.0
 30
0.0
  0
VERTEX
  5
15CB2
  8
0
 10
155.4994575771085863
 20
271.9260432179544864
 30
0.0
  0
VERTEX
  5
15CB3
  8
0
 10
155.4978313827703005
 20
271.8522310309163004
 30
0.0
  0
VERTEX
  5
15CB4
  8
0
 10
155.4951230284891892
 20
271.778563167468576
 30
0.0
  0
VERTEX
  5
15CB5
  8
0
 10
155.4913341257694128
 20
271.7050393561946748
 30
0.0
  0
VERTEX
  5
15CB6
  8
0
 10
155.4864662861151032
 20
271.6316593256779015
 30
0.0
  0
VERTEX
  5
15CB7
  8
0
 10
155.4805211210303071
 20
271.5584228045013901
 30
0.0
  0
VERTEX
  5
15CB8
  8
0
 10
155.4735002420187016
 20
271.4853295212482749
 30
0.0
  0
VERTEX
  5
15CB9
  8
0
 10
155.4654052605849017
 20
271.4123792045023151
 30
0.0
  0
VERTEX
  5
15CBA
  8
0
 10
155.4562377882326132
 20
271.3395715828460766
 30
0.0
  0
VERTEX
  5
15CBB
  8
0
 10
155.44599943646611
 20
271.2669063848634892
 30
0.0
  0
VERTEX
  5
15CBC
  8
0
 10
155.4346918167894103
 20
271.1943833391374028
 30
0.0
  0
VERTEX
  5
15CBD
  8
0
 10
155.422316540706305
 20
271.1220021742511221
 30
0.0
  0
VERTEX
  5
15CBE
  8
0
 10
155.4088752197212102
 20
271.0497626187880087
 30
0.0
  0
VERTEX
  5
15CBF
  8
0
 10
155.3943581186200049
 20
270.9776424161776163
 30
0.0
  0
VERTEX
  5
15CC0
  8
0
 10
155.3787278414102104
 20
270.9055758116342076
 30
0.0
  0
VERTEX
  5
15CC1
  8
0
 10
155.3619900275660086
 20
270.8335927421808265
 30
0.0
  0
VERTEX
  5
15CC2
  8
0
 10
155.3441545960866108
 20
270.7617319744496172
 30
0.0
  0
VERTEX
  5
15CC3
  8
0
 10
155.3252314659717968
 20
270.6900322750735768
 30
0.0
  0
VERTEX
  5
15CC4
  8
0
 10
155.3052305562210051
 20
270.6185324106851908
 30
0.0
  0
VERTEX
  5
15CC5
  8
0
 10
155.2841617858337031
 20
270.5472711479171153
 30
0.0
  0
VERTEX
  5
15CC6
  8
0
 10
155.2620350738093009
 20
270.4762872534016083
 30
0.0
  0
VERTEX
  5
15CC7
  8
0
 10
155.238860339147692
 20
270.4056194937714963
 30
0.0
  0
VERTEX
  5
15CC8
  8
0
 10
155.2146475008480024
 20
270.335306635659208
 30
0.0
  0
VERTEX
  5
15CC9
  8
0
 10
155.189406477910012
 20
270.2653874456973995
 30
0.0
  0
VERTEX
  5
15CCA
  8
0
 10
155.1631471893329888
 20
270.1959006905187266
 30
0.0
  0
VERTEX
  5
15CCB
  8
0
 10
155.1358795541165136
 20
270.1268851367556181
 30
0.0
  0
VERTEX
  5
15CCC
  8
0
 10
155.1076142692996882
 20
270.0583785221588187
 30
0.0
  0
VERTEX
  5
15CCD
  8
0
 10
155.0783756934173141
 20
269.9903869322133119
 30
0.0
  0
VERTEX
  5
15CCE
  8
0
 10
155.0481714307049117
 20
269.9229049144116175
 30
0.0
  0
VERTEX
  5
15CCF
  8
0
 10
155.0170011192022912
 20
269.8559326597130053
 30
0.0
  0
VERTEX
  5
15CD0
  8
0
 10
154.9848643969496038
 20
269.7894703590768017
 30
0.0
  0
VERTEX
  5
15CD1
  8
0
 10
154.9517609019868019
 20
269.7235182034623904
 30
0.0
  0
VERTEX
  5
15CD2
  8
0
 10
154.9176902723542923
 20
269.6580763838289272
 30
0.0
  0
VERTEX
  5
15CD3
  8
0
 10
154.8826521460916013
 20
269.5931450911356251
 30
0.0
  0
VERTEX
  5
15CD4
  8
0
 10
154.8466461612389935
 20
269.5287245163419811
 30
0.0
  0
VERTEX
  5
15CD5
  8
0
 10
154.8096719558365066
 20
269.4648148504069809
 30
0.0
  0
VERTEX
  5
15CD6
  8
0
 10
154.7717291679240077
 20
269.4014162842905193
 30
0.0
  0
VERTEX
  5
15CD7
  8
0
 10
154.73281743554179
 20
269.3385290089512978
 30
0.0
  0
VERTEX
  5
15CD8
  8
0
 10
154.6929363967298059
 20
269.2761532153488133
 30
0.0
  0
VERTEX
  5
15CD9
  8
0
 10
154.6520856895278087
 20
269.2142890944425062
 30
0.0
  0
VERTEX
  5
15CDA
  8
0
 10
154.6102360702942065
 20
269.1529116598244968
 30
0.0
  0
VERTEX
  5
15CDB
  8
0
 10
154.5673715670091042
 20
269.0920214634338095
 30
0.0
  0
VERTEX
  5
15CDC
  8
0
 10
154.5235429160335059
 20
269.0316870189732867
 30
0.0
  0
VERTEX
  5
15CDD
  8
0
 10
154.4788015781059869
 20
268.9719775336998282
 30
0.0
  0
VERTEX
  5
15CDE
  8
0
 10
154.4331990139648099
 20
268.912962214870106
 30
0.0
  0
VERTEX
  5
15CDF
  8
0
 10
154.3867866843480101
 20
268.8547102697410764
 30
0.0
  0
VERTEX
  5
15CE0
  8
0
 10
154.3396155243904104
 20
268.7972897270365138
 30
0.0
  0
VERTEX
  5
15CE1
  8
0
 10
154.2917061265054031
 20
268.7407089659299118
 30
0.0
  0
VERTEX
  5
15CE2
  8
0
 10
154.243057055031386
 20
268.6849503433119253
 30
0.0
  0
VERTEX
  5
15CE3
  8
0
 10
154.1936714246546103
 20
268.6300103450557799
 30
0.0
  0
VERTEX
  5
15CE4
  8
0
 10
154.1435523500616114
 20
268.5758854570349854
 30
0.0
  0
VERTEX
  5
15CE5
  8
0
 10
154.0927029459388109
 20
268.5225721651224831
 30
0.0
  0
VERTEX
  5
15CE6
  8
0
 10
154.0411263269724031
 20
268.4700669551917258
 30
0.0
  0
VERTEX
  5
15CE7
  8
0
 10
153.9888202720960066
 20
268.4183618943288252
 30
0.0
  0
VERTEX
  5
15CE8
  8
0
 10
153.9357584130798102
 20
268.3674317646256782
 30
0.0
  0
VERTEX
  5
15CE9
  8
0
 10
153.8819449985033998
 20
268.3172809226855975
 30
0.0
  0
VERTEX
  5
15CEA
  8
0
 10
153.8273898939872879
 20
268.2679186782252145
 30
0.0
  0
VERTEX
  5
15CEB
  8
0
 10
153.7721029651526976
 20
268.2193543409613881
 30
0.0
  0
VERTEX
  5
15CEC
  8
0
 10
153.7160940776209088
 20
268.1715972206109768
 30
0.0
  0
VERTEX
  5
15CED
  8
0
 10
153.6593730970126046
 20
268.1246566268908964
 30
0.0
  0
VERTEX
  5
15CEE
  8
0
 10
153.6019498889486954
 20
268.0785418695177782
 30
0.0
  0
VERTEX
  5
15CEF
  8
0
 10
153.5438343190508022
 20
268.033262258208822
 30
0.0
  0
VERTEX
  5
15CF0
  8
0
 10
153.48503625293921
 20
267.988827102680375
 30
0.0
  0
VERTEX
  5
15CF1
  8
0
 10
153.4255655562353127
 20
267.9452457126496938
 30
0.0
  0
VERTEX
  5
15CF2
  8
0
 10
153.3654320945601057
 20
267.9025273978335235
 30
0.0
  0
VERTEX
  5
15CF3
  8
0
 10
153.3046457335346133
 20
267.8606814679484955
 30
0.0
  0
VERTEX
  5
15CF4
  8
0
 10
153.243217973108699
 20
267.8197181932418971
 30
0.0
  0
VERTEX
  5
15CF5
  8
0
 10
153.1812843901624888
 20
267.7797190289687137
 30
0.0
  0
VERTEX
  5
15CF6
  8
0
 10
153.1189276269344077
 20
267.7407288706115196
 30
0.0
  0
VERTEX
  5
15CF7
  8
0
 10
153.0561491749730862
 20
267.7027438684805816
 30
0.0
  0
VERTEX
  5
15CF8
  8
0
 10
152.9929505258276095
 20
267.665760172886678
 30
0.0
  0
VERTEX
  5
15CF9
  8
0
 10
152.929333171046693
 20
267.6297739341400757
 30
0.0
  0
VERTEX
  5
15CFA
  8
0
 10
152.8652986021793083
 20
267.5947813025514961
 30
0.0
  0
VERTEX
  5
15CFB
  8
0
 10
152.8008483107743984
 20
267.5607784284309787
 30
0.0
  0
VERTEX
  5
15CFC
  8
0
 10
152.7359837883807927
 20
267.5277614620895861
 30
0.0
  0
VERTEX
  5
15CFD
  8
0
 10
152.6707065265472067
 20
267.495726553837585
 30
0.0
  0
VERTEX
  5
15CFE
  8
0
 10
152.6050180168228962
 20
267.4646698539855265
 30
0.0
  0
VERTEX
  5
15CFF
  8
0
 10
152.5389197507564063
 20
267.4345875128436774
 30
0.0
  0
VERTEX
  5
15D00
  8
0
 10
152.4724132198969073
 20
267.4054756807228728
 30
0.0
  0
VERTEX
  5
15D01
  8
0
 10
152.4054999157928876
 20
267.3773305079333795
 30
0.0
  0
VERTEX
  5
15D02
  8
0
 10
152.3381564454257955
 20
267.3501472469698115
 30
0.0
  0
VERTEX
  5
15D03
  8
0
 10
152.2703398167955982
 20
267.3239263510911883
 30
0.0
  0
VERTEX
  5
15D04
  8
0
 10
152.2020804465495019
 20
267.2986764682574972
 30
0.0
  0
VERTEX
  5
15D05
  8
0
 10
152.1334118498666896
 20
267.2744064787904108
 30
0.0
  0
VERTEX
  5
15D06
  8
0
 10
152.0643675419258898
 20
267.2511252630117724
 30
0.0
  0
VERTEX
  5
15D07
  8
0
 10
151.9949810379056032
 20
267.2288417012430841
 30
0.0
  0
VERTEX
  5
15D08
  8
0
 10
151.9252858529852119
 20
267.2075646738059049
 30
0.0
  0
VERTEX
  5
15D09
  8
0
 10
151.8553155023431032
 20
267.1873030610220781
 30
0.0
  0
VERTEX
  5
15D0A
  8
0
 10
151.7851035011584031
 20
267.1680657432131056
 30
0.0
  0
VERTEX
  5
15D0B
  8
0
 10
151.7146833646102095
 20
267.149861600700774
 30
0.0
  0
VERTEX
  5
15D0C
  8
0
 10
151.644088607876796
 20
267.1326995138068128
 30
0.0
  0
VERTEX
  5
15D0D
  8
0
 10
151.5733527461374024
 20
267.116588362852724
 30
0.0
  0
VERTEX
  5
15D0E
  8
0
 10
151.5025092945708138
 20
267.1015370281600099
 30
0.0
  0
VERTEX
  5
15D0F
  8
0
 10
151.431587741721188
 20
267.0875514474748229
 30
0.0
  0
VERTEX
  5
15D10
  8
0
 10
151.3605689373742109
 20
267.0746070613753886
 30
0.0
  0
VERTEX
  5
15D11
  8
0
 10
151.2894437340436866
 20
267.0626965473095993
 30
0.0
  0
VERTEX
  5
15D12
  8
0
 10
151.2182119773083002
 20
267.0518201974218186
 30
0.0
  0
VERTEX
  5
15D13
  8
0
 10
151.1468735127467085
 20
267.0419783038556716
 30
0.0
  0
VERTEX
  5
15D14
  8
0
 10
151.0754281859375965
 20
267.0331711587552945
 30
0.0
  0
VERTEX
  5
15D15
  8
0
 10
151.0038758424597063
 20
267.0253990542648239
 30
0.0
  0
VERTEX
  5
15D16
  8
0
 10
150.9322163278916946
 20
267.0186622825278278
 30
0.0
  0
VERTEX
  5
15D17
  8
0
 10
150.8604494878125024
 20
267.0129611356887267
 30
0.0
  0
VERTEX
  5
15D18
  8
0
 10
150.7885751678003032
 20
267.008295905891373
 30
0.0
  0
VERTEX
  5
15D19
  8
0
 10
150.7165932134344928
 20
267.0046668852796756
 30
0.0
  0
VERTEX
  5
15D1A
  8
0
 10
150.6445034702933015
 20
267.0020743659981122
 30
0.0
  0
VERTEX
  5
15D1B
  8
0
 10
150.5723057839556986
 20
267.0005186401900232
 30
0.0
  0
VERTEX
  5
15D1C
  8
0
 10
150.5000000000001137
 20
266.9999999999997726
 30
0.0
  0
SEQEND
  5
15D1D
  8
0
  0
POLYLINE
  5
14E89
  8
0
 66
     1
 10
0.0
 20
0.0
 30
0.0
  0
VERTEX
  5
15D1E
  8
0
 10
150.5
 20
266.9999999999997726
 30
0.0
  0
VERTEX
  5
15D1F
  8
0
 10
149.8632489329989994
 20
266.9999999999997726
 30
0.0
  0
VERTEX
  5
15D20
  8
0
 10
149.2265822541816931
 20
266.9999999999997726
 30
0.0
  0
VERTEX
  5
15D21
  8
0
 10
148.589997664044887
 20
266.9999999999997726
 30
0.0
  0
VERTEX
  5
15D22
  8
0
 10
147.9534928630853017
 20
266.9999999999997726
 30
0.0
  0
VERTEX
  5
15D23
  8
0
 10
147.3170655517996863
 20
266.9999999999997726
 30
0.0
  0
VERTEX
  5
15D24
  8
0
 10
146.680713430684591
 20
266.9999999999997726
 30
0.0
  0
VERTEX
  5
15D25
  8
0
 10
146.0444342002367932
 20
266.9999999999997726
 30
0.0
  0
VERTEX
  5
15D26
  8
0
 10
145.4082255609530989
 20
266.9999999999997726
 30
0.0
  0
VERTEX
  5
15D27
  8
0
 10
144.7720852133300866
 20
266.9999999999997726
 30
0.0
  0
VERTEX
  5
15D28
  8
0
 10
144.1360108578645054
 20
266.9999999999997726
 30
0.0
  0
VERTEX
  5
15D29
  8
0
 10
143.5000001950529906
 20
266.9999999999997726
 30
0.0
  0
SEQEND
  5
15D2A
  8
0
  0
POLYLINE
  5
14E8A
  8
0
 66
     1
 10
0.0
 20
0.0
 30
0.0
  0
VERTEX
  5
15D2B
  8
0
 10
138.5
 20
261.9999999999997726
 30
0.0
  0
VERTEX
  5
15D2C
  8
0
 10
138.5005523448853069
 20
262.0746358377198817
 30
0.0
  0
VERTEX
  5
15D2D
  8
0
 10
138.5022075898031915
 20
262.149100104932927
 30
0.0
  0
VERTEX
  5
15D2E
  8
0
 10
138.5049630501470119
 20
262.2233932132816108
 30
0.0
  0
VERTEX
  5
15D2F
  8
0
 10
138.5088160413093874
 20
262.297515574408294
 30
0.0
  0
VERTEX
  5
15D30
  8
0
 10
138.5137638786833918
 20
262.3714675999560768
 30
0.0
  0
VERTEX
  5
15D31
  8
0
 10
138.5198038776622127
 20
262.4452497015673202
 30
0.0
  0
VERTEX
  5
15D32
  8
0
 10
138.5269333536388103
 20
262.518862290884897
 30
0.0
  0
VERTEX
  5
15D33
  8
0
 10
138.5351496220060028
 20
262.5923057795511113
 30
0.0
  0
VERTEX
  5
15D34
  8
0
 10
138.5444499981570914
 20
262.6655805792091201
 30
0.0
  0
VERTEX
  5
15D35
  8
0
 10
138.5548317974850079
 20
262.7386871015012844
 30
0.0
  0
VERTEX
  5
15D36
  8
0
 10
138.5662923353825988
 20
262.81162575807042
 30
0.0
  0
VERTEX
  5
15D37
  8
0
 10
138.5788289272431086
 20
262.8843969605591155
 30
0.0
  0
VERTEX
  5
15D38
  8
0
 10
138.5924388884592986
 20
262.9570011206100162
 30
0.0
  0
VERTEX
  5
15D39
  8
0
 10
138.6071308378494962
 20
263.0294603216203768
 30
0.0
  0
VERTEX
  5
15D3A
  8
0
 10
138.6229410797888022
 20
263.1018395323313257
 30
0.0
  0
VERTEX
  5
15D3B
  8
0
 10
138.6398632062349918
 20
263.1741094025354073
 30
0.0
  0
VERTEX
  5
15D3C
  8
0
 10
138.6578865528888969
 20
263.2462318786649007
 30
0.0
  0
VERTEX
  5
15D3D
  8
0
 10
138.6770004554510933
 20
263.3181689071525966
 30
0.0
  0
VERTEX
  5
15D3E
  8
0
 10
138.6971942496221004
 20
263.3898824344312857
 30
0.0
  0
VERTEX
  5
15D3F
  8
0
 10
138.7184572711028068
 20
263.4613344069331902
 30
0.0
  0
VERTEX
  5
15D40
  8
0
 10
138.7407788555939874
 20
263.5324867710912145
 30
0.0
  0
VERTEX
  5
15D41
  8
0
 10
138.7641483387961046
 20
263.6033014733374102
 30
0.0
  0
VERTEX
  5
15D42
  8
0
 10
138.7885550564097912
 20
263.6737404601049093
 30
0.0
  0
VERTEX
  5
15D43
  8
0
 10
138.8139883441359075
 20
263.7437656778259907
 30
0.0
  0
VERTEX
  5
15D44
  8
0
 10
138.8404375376750011
 20
263.8133390729332746
 30
0.0
  0
VERTEX
  5
15D45
  8
0
 10
138.8678919727281027
 20
263.8824225918593811
 30
0.0
  0
VERTEX
  5
15D46
  8
0
 10
138.8963401955190875
 20
263.9509791461599093
 30
0.0
  0
VERTEX
  5
15D47
  8
0
 10
138.9257568677128063
 20
264.0190018674608723
 30
0.0
  0
VERTEX
  5
15D48
  8
0
 10
138.9561335963867066
 20
264.086496022964127
 30
0.0
  0
VERTEX
  5
15D49
  8
0
 10
138.9874700639043965
 20
264.1534617766604924
 30
0.0
  0
VERTEX
  5
15D4A
  8
0
 10
139.0197659526299958
 20
264.2198992925414132
 30
0.0
  0
VERTEX
  5
15D4B
  8
0
 10
139.0530209449271979
 20
264.2858087345981062
 30
0.0
  0
VERTEX
  5
15D4C
  8
0
 10
139.0872347231600088
 20
264.3511902668216749
 30
0.0
  0
VERTEX
  5
15D4D
  8
0
 10
139.1224069696922925
 20
264.4160440532036205
 30
0.0
  0
VERTEX
  5
15D4E
  8
0
 10
139.1585373668879981
 20
264.4803702577348758
 30
0.0
  0
VERTEX
  5
15D4F
  8
0
 10
139.1956255971109897
 20
264.5441690444067149
 30
0.0
  0
VERTEX
  5
15D50
  8
0
 10
139.233671342725188
 20
264.6074405772105251
 30
0.0
  0
VERTEX
  5
15D51
  8
0
 10
139.2726742860944
 20
264.6701850201372963
 30
0.0
  0
VERTEX
  5
15D52
  8
0
 10
139.3126341095826035
 20
264.732402537178416
 30
0.0
  0
VERTEX
  5
15D53
  8
0
 10
139.3535504955538045
 20
264.7940932923249875
 30
0.0
  0
VERTEX
  5
15D54
  8
0
 10
139.3954517306383991
 20
264.8552825491817089
 30
0.0
  0
VERTEX
  5
15D55
  8
0
 10
139.4383540990897927
 20
264.9159716475771233
 30
0.0
  0
VERTEX
  5
15D56
  8
0
 10
139.4822086193020994
 20
264.9760952538608194
 30
0.0
  0
VERTEX
  5
15D57
  8
0
 10
139.5269655973251872
 20
265.0355873497956054
 30
0.0
  0
VERTEX
  5
15D58
  8
0
 10
139.5725753392092088
 20
265.0943819171448013
 30
0.0
  0
VERTEX
  5
15D59
  8
0
 10
139.6189881510036059
 20
265.1524129376713859
 30
0.0
  0
VERTEX
  5
15D5A
  8
0
 10
139.6661547645092014
 20
265.2096154244849799
 30
0.0
  0
VERTEX
  5
15D5B
  8
0
 10
139.7140521843550118
 20
265.2659780142055865
 30
0.0
  0
VERTEX
  5
15D5C
  8
0
 10
139.7626799806452027
 20
265.3215160828377748
 30
0.0
  0
VERTEX
  5
15D5D
  8
0
 10
139.8120348309032011
 20
265.3762333083880094
 30
0.0
  0
VERTEX
  5
15D5E
  8
0
 10
139.8621134126535139
 20
265.4301333688628119
 30
0.0
  0
VERTEX
  5
15D5F
  8
0
 10
139.9129124034201084
 20
265.4832199422684198
 30
0.0
  0
VERTEX
  5
15D60
  8
0
 10
139.9644284807268946
 20
265.535496706611184
 30
0.0
  0
VERTEX
  5
15D61
  8
0
 10
140.0166617178834088
 20
265.5869704978395021
 30
0.0
  0
VERTEX
  5
15D62
  8
0
 10
140.0696280834627032
 20
265.6376601092331953
 30
0.0
  0
VERTEX
  5
15D63
  8
0
 10
140.1233248814135948
 20
265.6875625828907914
 30
0.0
  0
VERTEX
  5
15D64
  8
0
 10
140.1777458994930043
 20
265.7366713771500031
 30
0.0
  0
VERTEX
  5
15D65
  8
0
 10
140.2328849254575118
 20
265.7849799503480881
 30
0.0
  0
VERTEX
  5
15D66
  8
0
 10
140.2887357470634129
 20
265.832481760822418
 30
0.0
  0
VERTEX
  5
15D67
  8
0
 10
140.345292152067799
 20
265.8791702669104779
 30
0.0
  0
VERTEX
  5
15D68
  8
0
 10
140.4025479282271931
 20
265.92503892694981
 30
0.0
  0
VERTEX
  5
15D69
  8
0
 10
140.4604968632980899
 20
265.9700811992776721
 30
0.0
  0
VERTEX
  5
15D6A
  8
0
 10
140.5191327450372967
 20
266.0142905422316062
 30
0.0
  0
VERTEX
  5
15D6B
  8
0
 10
140.5784493612013932
 20
266.057660414148927
 30
0.0
  0
VERTEX
  5
15D6C
  8
0
 10
140.6384404995471868
 20
266.1001842733671765
 30
0.0
  0
VERTEX
  5
15D6D
  8
0
 10
140.6990999478310016
 20
266.1418555782237263
 30
0.0
  0
VERTEX
  5
15D6E
  8
0
 10
140.7604196428343926
 20
266.182666646950679
 30
0.0
  0
VERTEX
  5
15D6F
  8
0
 10
140.8222499418839959
 20
266.2225242166595081
 30
0.0
  0
VERTEX
  5
15D70
  8
0
 10
140.8844978459364938
 20
266.2613750081940793
 30
0.0
  0
VERTEX
  5
15D71
  8
0
 10
140.9471616257933135
 20
266.2992229426495214
 30
0.0
  0
VERTEX
  5
15D72
  8
0
 10
141.010239552255598
 20
266.3360719411210198
 30
0.0
  0
VERTEX
  5
15D73
  8
0
 10
141.073729896124803
 20
266.3719259247033051
 30
0.0
  0
VERTEX
  5
15D74
  8
0
 10
141.1376309282020998
 20
266.4067888144924154
 30
0.0
  0
VERTEX
  5
15D75
  8
0
 10
141.201940919288802
 20
266.440664531582911
 30
0.0
  0
VERTEX
  5
15D76
  8
0
 10
141.2666581401861947
 20
266.4735569970700908
 30
0.0
  0
VERTEX
  5
15D77
  8
0
 10
141.3317808616955915
 20
266.5054701320493109
 30
0.0
  0
VERTEX
  5
15D78
  8
0
 10
141.3973073546181922
 20
266.5364078576155862
 30
0.0
  0
VERTEX
  5
15D79
  8
0
 10
141.4632358897553104
 20
266.5663740948641021
 30
0.0
  0
VERTEX
  5
15D7A
  8
0
 10
141.5295647379082027
 20
266.5953727648903282
 30
0.0
  0
VERTEX
  5
15D7B
  8
0
 10
141.5962921698782964
 20
266.6234077887888816
 30
0.0
  0
VERTEX
  5
15D7C
  8
0
 10
141.6634430922829893
 20
266.6504853547737071
 30
0.0
  0
VERTEX
  5
15D7D
  8
0
 10
141.7310660414200925
 20
266.6766084100996181
 30
0.0
  0
VERTEX
  5
15D7E
  8
0
 10
141.7991334679059889
 20
266.7017684953149228
 30
0.0
  0
VERTEX
  5
15D7F
  8
0
 10
141.8676145598774099
 20
266.7259567660927928
 30
0.0
  0
VERTEX
  5
15D80
  8
0
 10
141.9364785054715981
 20
266.7491643781063999
 30
0.0
  0
VERTEX
  5
15D81
  8
0
 10
142.0056944928248868
 20
266.7713824870286885
 30
0.0
  0
VERTEX
  5
15D82
  8
0
 10
142.0752317100744051
 20
266.7926022485327735
 30
0.0
  0
VERTEX
  5
15D83
  8
0
 10
142.145059345356799
 20
266.8128148182919972
 30
0.0
  0
VERTEX
  5
15D84
  8
0
 10
142.2151465868089133
 20
266.8320113519791903
 30
0.0
  0
VERTEX
  5
15D85
  8
0
 10
142.2854626225677919
 20
266.8501830052675814
 30
0.0
  0
VERTEX
  5
15D86
  8
0
 10
142.355976640770109
 20
266.8673209338303991
 30
0.0
  0
VERTEX
  5
15D87
  8
0
 10
142.4266578295527097
 20
266.8834162933404173
 30
0.0
  0
VERTEX
  5
15D88
  8
0
 10
142.4974753770522966
 20
266.8984602394709782
 30
0.0
  0
VERTEX
  5
15D89
  8
0
 10
142.5684001235794085
 20
266.9124462386728851
 30
0.0
  0
VERTEX
  5
15D8A
  8
0
 10
142.6394281993368054
 20
266.9253922936197228
 30
0.0
  0
VERTEX
  5
15D8B
  8
0
 10
142.7105621197366077
 20
266.9373040257852949
 30
0.0
  0
VERTEX
  5
15D8C
  8
0
 10
142.7818018120674139
 20
266.9481811981902979
 30
0.0
  0
VERTEX
  5
15D8D
  8
0
 10
142.8531472036175956
 20
266.9580235738555984
 30
0.0
  0
VERTEX
  5
15D8E
  8
0
 10
142.924598221675609
 20
266.9668309158021771
 30
0.0
  0
VERTEX
  5
15D8F
  8
0
 10
142.996154793530394
 20
266.9746029870509005
 30
0.0
  0
VERTEX
  5
15D90
  8
0
 10
143.0678168464700946
 20
266.9813395506221809
 30
0.0
  0
VERTEX
  5
15D91
  8
0
 10
143.1395843077835082
 20
266.987040369537624
 30
0.0
  0
VERTEX
  5
15D92
  8
0
 10
143.2114571047588925
 20
266.9917052068173007
 30
0.0
  0
VERTEX
  5
15D93
  8
0
 10
143.2834351646851019
 20
266.9953338254825894
 30
0.0
  0
VERTEX
  5
15D94
  8
0
 10
143.3555184148505077
 20
266.9979259885541865
 30
0.0
  0
VERTEX
  5
15D95
  8
0
 10
143.427706782543595
 20
266.9994814590527881
 30
0.0
  0
VERTEX
  5
15D96
  8
0
 10
143.5000001950529906
 20
266.9999999999997158
 30
0.0
  0
SEQEND
  5
15D97
  8
0
  0
POLYLINE
  5
14E8B
  8
0
 66
     1
 10
0.0
 20
0.0
 30
0.0
  0
VERTEX
  5
15D98
  8
0
 10
143.5
 20
222.999999999999801
 30
0.0
  0
VERTEX
  5
15D99
  8
0
 10
143.4349866469028996
 20
223.0004193014432019
 30
0.0
  0
VERTEX
  5
15D9A
  8
0
 10
143.37008883235589
 20
223.0016763096859904
 30
0.0
  0
VERTEX
  5
15D9B
  8
0
 10
143.3053064390215923
 20
223.0037696805968892
 30
0.0
  0
VERTEX
  5
15D9C
  8
0
 10
143.2406393495620023
 20
223.0066980700445924
 30
0.0
  0
VERTEX
  5
15D9D
  8
0
 10
143.1760874466397127
 20
223.010460133897908
 30
0.0
  0
VERTEX
  5
15D9E
  8
0
 10
143.1116506129168897
 20
223.0150545280255869
 30
0.0
  0
VERTEX
  5
15D9F
  8
0
 10
143.0473287310560977
 20
223.020479908296096
 30
0.0
  0
VERTEX
  5
15DA0
  8
0
 10
142.9831216837195029
 20
223.026734930578499
 30
0.0
  0
VERTEX
  5
15DA1
  8
0
 10
142.9190293535696128
 20
223.033818250741291
 30
0.0
  0
VERTEX
  5
15DA2
  8
0
 10
142.8550516232685084
 20
223.0417285246535073
 30
0.0
  0
VERTEX
  5
15DA3
  8
0
 10
142.7911883754786118
 20
223.0504644081835011
 30
0.0
  0
VERTEX
  5
15DA4
  8
0
 10
142.7274394928624872
 20
223.0600245572003075
 30
0.0
  0
VERTEX
  5
15DA5
  8
0
 10
142.6638048580823011
 20
223.0704076275725072
 30
0.0
  0
VERTEX
  5
15DA6
  8
0
 10
142.6002843538005038
 20
223.0816122751689079
 30
0.0
  0
VERTEX
  5
15DA7
  8
0
 10
142.5368778690497891
 20
223.0936372012070876
 30
0.0
  0
VERTEX
  5
15DA8
  8
0
 10
142.4735859223083025
 20
223.1064855808880054
 30
0.0
  0
VERTEX
  5
15DA9
  8
0
 10
142.4104092829248032
 20
223.1201623540337096
 30
0.0
  0
VERTEX
  5
15DAA
  8
0
 10
142.3473484921294983
 20
223.1346708324946917
 30
0.0
  0
VERTEX
  5
15DAB
  8
0
 10
142.2844040911535046
 20
223.1500143281213866
 30
0.0
  0
VERTEX
  5
15DAC
  8
0
 10
142.2215766212266885
 20
223.1661961527642859
 30
0.0
  0
VERTEX
  5
15DAD
  8
0
 10
142.1588666235797973
 20
223.1832196182739096
 30
0.0
  0
VERTEX
  5
15DAE
  8
0
 10
142.0962746394430098
 20
223.2010880365006926
 30
0.0
  0
VERTEX
  5
15DAF
  8
0
 10
142.0337859642039007
 20
223.2198124529944891
 30
0.0
  0
VERTEX
  5
15DB0
  8
0
 10
141.9713810880454048
 20
223.2394095127710898
 30
0.0
  0
VERTEX
  5
15DB1
  8
0
 10
141.909111426132398
 20
223.259863274835709
 30
0.0
  0
VERTEX
  5
15DB2
  8
0
 10
141.8470324374411859
 20
223.2811558553397902
 30
0.0
  0
VERTEX
  5
15DB3
  8
0
 10
141.7851995809483014
 20
223.3032693704348901
 30
0.0
  0
VERTEX
  5
15DB4
  8
0
 10
141.7236683156295953
 20
223.3261859362723101
 30
0.0
  0
VERTEX
  5
15DB5
  8
0
 10
141.6624941004614016
 20
223.3498876690034933
 30
0.0
  0
VERTEX
  5
15DB6
  8
0
 10
141.6017302887983931
 20
223.3743568531855033
 30
0.0
  0
VERTEX
  5
15DB7
  8
0
 10
141.5413716125902113
 20
223.3995840060655951
 30
0.0
  0
VERTEX
  5
15DB8
  8
0
 10
141.481404456594305
 20
223.4255691021286054
 30
0.0
  0
VERTEX
  5
15DB9
  8
0
 10
141.4218289709654925
 20
223.4523122908317134
 30
0.0
  0
VERTEX
  5
15DBA
  8
0
 10
141.3626453058583934
 20
223.4798137216317002
 30
0.0
  0
VERTEX
  5
15DBB
  8
0
 10
141.3038536114279111
 20
223.5080735439858017
 30
0.0
  0
VERTEX
  5
15DBC
  8
0
 10
141.2454540378282957
 20
223.5370919073507991
 30
0.0
  0
VERTEX
  5
15DBD
  8
0
 10
141.1874467352145075
 20
223.5668689611837863
 30
0.0
  0
VERTEX
  5
15DBE
  8
0
 10
141.1298318537411092
 20
223.5974048549421127
 30
0.0
  0
VERTEX
  5
15DBF
  8
0
 10
141.0726095435626917
 20
223.6286997380823891
 30
0.0
  0
VERTEX
  5
15DC0
  8
0
 10
141.0157799548341018
 20
223.6607537600617945
 30
0.0
  0
VERTEX
  5
15DC1
  8
0
 10
140.9593432377097884
 20
223.6935670703373944
 30
0.0
  0
VERTEX
  5
15DC2
  8
0
 10
140.9032995423445982
 20
223.7271398183661972
 30
0.0
  0
VERTEX
  5
15DC3
  8
0
 10
140.8476490188928096
 20
223.7614721536052116
 30
0.0
  0
VERTEX
  5
15DC4
  8
0
 10
140.7923918175098095
 20
223.7965642255113039
 30
0.0
  0
VERTEX
  5
15DC5
  8
0
 10
140.7375241190848101
 20
223.8324212571008047
 30
0.0
  0
VERTEX
  5
15DC6
  8
0
 10
140.6830124005360858
 20
223.8690905848602881
 30
0.0
  0
VERTEX
  5
15DC7
  8
0
 10
140.6288688795555117
 20
223.9065692328919965
 30
0.0
  0
VERTEX
  5
15DC8
  8
0
 10
140.57511840773671
 20
223.944838933013898
 30
0.0
  0
VERTEX
  5
15DC9
  8
0
 10
140.5217858366735015
 20
223.9838814170441026
 30
0.0
  0
VERTEX
  5
15DCA
  8
0
 10
140.4688960179597927
 20
224.0236784168004078
 30
0.0
  0
VERTEX
  5
15DCB
  8
0
 10
140.416473803189092
 20
224.0642116641008101
 30
0.0
  0
VERTEX
  5
15DCC
  8
0
 10
140.3645440439551919
 20
224.105462890763107
 30
0.0
  0
VERTEX
  5
15DCD
  8
0
 10
140.3131315918517998
 20
224.1474138286054938
 30
0.0
  0
VERTEX
  5
15DCE
  8
0
 10
140.2622612984727937
 20
224.1900462094457964
 30
0.0
  0
VERTEX
  5
15DCF
  8
0
 10
140.2119580154117955
 20
224.2333417651018976
 30
0.0
  0
VERTEX
  5
15DD0
  8
0
 10
140.1622465942625126
 20
224.2772822273919928
 30
0.0
  0
VERTEX
  5
15DD1
  8
0
 10
140.1131518866187093
 20
224.3218493281337089
 30
0.0
  0
VERTEX
  5
15DD2
  8
0
 10
140.0646987440742066
 20
224.3670247991450992
 30
0.0
  0
VERTEX
  5
15DD3
  8
0
 10
140.0169120182225129
 20
224.4127903722443023
 30
0.0
  0
VERTEX
  5
15DD4
  8
0
 10
139.9698080491739915
 20
224.4591307989568918
 30
0.0
  0
VERTEX
  5
15DD5
  8
0
 10
139.9233517363786063
 20
224.5060531643071897
 30
0.0
  0
VERTEX
  5
15DD6
  8
0
 10
139.8775367183295089
 20
224.5535607091626105
 30
0.0
  0
VERTEX
  5
15DD7
  8
0
 10
139.8323641579754906
 20
224.6016544585671966
 30
0.0
  0
VERTEX
  5
15DD8
  8
0
 10
139.7878352182663946
 20
224.6503354375649906
 30
0.0
  0
VERTEX
  5
15DD9
  8
0
 10
139.7439510621512113
 20
224.6996046711998076
 30
0.0
  0
VERTEX
  5
15DDA
  8
0
 10
139.7007128525796986
 20
224.749463184515804
 30
0.0
  0
VERTEX
  5
15DDB
  8
0
 10
139.6581217525009038
 20
224.7999120025571074
 30
0.0
  0
VERTEX
  5
15DDC
  8
0
 10
139.6161789248644141
 20
224.8509521503675046
 30
0.0
  0
VERTEX
  5
15DDD
  8
0
 10
139.5748855326197031
 20
224.9025846529908961
 30
0.0
  0
VERTEX
  5
15DDE
  8
0
 10
139.5342427387159034
 20
224.9548105354716085
 30
0.0
  0
VERTEX
  5
15DDF
  8
0
 10
139.4942517061024887
 20
225.0076308228532866
 30
0.0
  0
VERTEX
  5
15DE0
  8
0
 10
139.4549135977289893
 20
225.061046540180314
 30
0.0
  0
VERTEX
  5
15DE1
  8
0
 10
139.4162295765445947
 20
225.115058712496392
 30
0.0
  0
VERTEX
  5
15DE2
  8
0
 10
139.3782008054988069
 20
225.1696683648455064
 30
0.0
  0
VERTEX
  5
15DE3
  8
0
 10
139.3408230372174899
 20
225.2248919582011979
 30
0.0
  0
VERTEX
  5
15DE4
  8
0
 10
139.3040916844265098
 20
225.2807641948413107
 30
0.0
  0
VERTEX
  5
15DE5
  8
0
 10
139.268038342370005
 20
225.3372375993631067
 30
0.0
  0
VERTEX
  5
15DE6
  8
0
 10
139.2326973311286054
 20
225.3942578420520135
 30
0.0
  0
VERTEX
  5
15DE7
  8
0
 10
139.1981029707837934
 20
225.4517705931932028
 30
0.0
  0
VERTEX
  5
15DE8
  8
0
 10
139.1642895814161136
 20
225.5097215230721872
 30
0.0
  0
VERTEX
  5
15DE9
  8
0
 10
139.1312914831067928
 20
225.5680563019743943
 30
0.0
  0
VERTEX
  5
15DEA
  8
0
 10
139.0991421640351859
 20
225.6267215332294995
 30
0.0
  0
VERTEX
  5
15DEB
  8
0
 10
139.0678365024569985
 20
225.6857100792935
 30
0.0
  0
VERTEX
  5
15DEC
  8
0
 10
139.0373607488103005
 20
225.7450327141397963
 30
0.0
  0
VERTEX
  5
15DED
  8
0
 10
139.0077127632571887
 20
225.80468857387649
 30
0.0
  0
VERTEX
  5
15DEE
  8
0
 10
138.9788904059593904
 20
225.8646767946119098
 30
0.0
  0
VERTEX
  5
15DEF
  8
0
 10
138.9508915370788031
 20
225.924996512453788
 30
0.0
  0
VERTEX
  5
15DF0
  8
0
 10
138.9237140167774101
 20
225.9856468635105955
 30
0.0
  0
VERTEX
  5
15DF1
  8
0
 10
138.8973557052171088
 20
226.0466269838902065
 30
0.0
  0
VERTEX
  5
15DF2
  8
0
 10
138.8718116246056127
 20
226.1079426874925105
 30
0.0
  0
VERTEX
  5
15DF3
  8
0
 10
138.8470757898772092
 20
226.1696075661704128
 30
0.0
  0
VERTEX
  5
15DF4
  8
0
 10
138.8231517405467059
 20
226.2316178768678014
 30
0.0
  0
VERTEX
  5
15DF5
  8
0
 10
138.8000433945593102
 20
226.2939690964346084
 30
0.0
  0
VERTEX
  5
15DF6
  8
0
 10
138.7777546698605136
 20
226.3566567017207092
 30
0.0
  0
VERTEX
  5
15DF7
  8
0
 10
138.7562894843952108
 20
226.4196761695760927
 30
0.0
  0
VERTEX
  5
15DF8
  8
0
 10
138.7356517561088083
 20
226.4830229768506058
 30
0.0
  0
VERTEX
  5
15DF9
  8
0
 10
138.715845402946286
 20
226.5466926003942092
 30
0.0
  0
VERTEX
  5
15DFA
  8
0
 10
138.6968743428529933
 20
226.6106805170566929
 30
0.0
  0
VERTEX
  5
15DFB
  8
0
 10
138.6787424937741946
 20
226.6749822036881028
 30
0.0
  0
VERTEX
  5
15DFC
  8
0
 10
138.6614537736550119
 20
226.7395931371382005
 30
0.0
  0
VERTEX
  5
15DFD
  8
0
 10
138.6450121004405958
 20
226.8045087942568898
 30
0.0
  0
VERTEX
  5
15DFE
  8
0
 10
138.6294213920760967
 20
226.8697246518941029
 30
0.0
  0
VERTEX
  5
15DFF
  8
0
 10
138.6146855665066937
 20
226.9352361868999139
 30
0.0
  0
VERTEX
  5
15E00
  8
0
 10
138.6008085416779068
 20
227.0010388761239994
 30
0.0
  0
VERTEX
  5
15E01
  8
0
 10
138.5878073202713949
 20
227.0670511665705078
 30
0.0
  0
VERTEX
  5
15E02
  8
0
 10
138.5757042033282005
 20
227.1331485487363864
 30
0.0
  0
VERTEX
  5
15E03
  8
0
 10
138.5644992127564024
 20
227.1993294086786932
 30
0.0
  0
VERTEX
  5
15E04
  8
0
 10
138.5541920925593047
 20
227.2655937161925976
 30
0.0
  0
VERTEX
  5
15E05
  8
0
 10
138.544782586739899
 20
227.3319414410732975
 30
0.0
  0
VERTEX
  5
15E06
  8
0
 10
138.5362704393012052
 20
227.3983725531161042
 30
0.0
  0
VERTEX
  5
15E07
  8
0
 10
138.5286553942463001
 20
227.4648870221161019
 30
0.0
  0
VERTEX
  5
15E08
  8
0
 10
138.5219371955784027
 20
227.531484817868602
 30
0.0
  0
VERTEX
  5
15E09
  8
0
 10
138.5161155873009022
 20
227.5981659101686034
 30
0.0
  0
VERTEX
  5
15E0A
  8
0
 10
138.5111903134161935
 20
227.6649302688113892
 30
0.0
  0
VERTEX
  5
15E0B
  8
0
 10
138.5071611179280069
 20
227.7317778635922991
 30
0.0
  0
VERTEX
  5
15E0C
  8
0
 10
138.5040277448391066
 20
227.798708664306389
 30
0.0
  0
VERTEX
  5
15E0D
  8
0
 10
138.5017899381527968
 20
227.8657226407487997
 30
0.0
  0
VERTEX
  5
15E0E
  8
0
 10
138.5004474418720122
 20
227.9328197627150132
 30
0.0
  0
VERTEX
  5
15E0F
  8
0
 10
138.5
 20
227.999999999999801
 30
0.0
  0
SEQEND
  5
15E10
  8
0
  0
POLYLINE
  5
14E8C
  8
0
 66
     1
 10
0.0
 20
0.0
 30
0.0
  0
VERTEX
  5
15E11
  8
0
 10
143.5
 20
222.999999999999801
 30
0.0
  0
VERTEX
  5
15E12
  8
0
 10
144.1360106805257999
 20
222.999999999999801
 30
0.0
  0
VERTEX
  5
15E13
  8
0
 10
144.7720850537087927
 20
222.999999999999801
 30
0.0
  0
VERTEX
  5
15E14
  8
0
 10
145.408225419052286
 20
222.999999999999801
 30
0.0
  0
VERTEX
  5
15E15
  8
0
 10
146.0444340760600141
 20
222.999999999999801
 30
0.0
  0
VERTEX
  5
15E16
  8
0
 10
146.6807133242353132
 20
222.999999999999801
 30
0.0
  0
VERTEX
  5
15E17
  8
0
 10
147.3170654630816045
 20
222.999999999999801
 30
0.0
  0
VERTEX
  5
15E18
  8
0
 10
147.9534927921023097
 20
222.999999999999801
 30
0.0
  0
VERTEX
  5
15E19
  8
0
 10
148.5899976108009923
 20
222.999999999999801
 30
0.0
  0
VERTEX
  5
15E1A
  8
0
 10
149.2265822186813011
 20
222.999999999999801
 30
0.0
  0
VERTEX
  5
15E1B
  8
0
 10
149.8632489152464018
 20
222.999999999999801
 30
0.0
  0
VERTEX
  5
15E1C
  8
0
 10
150.5
 20
222.999999999999801
 30
0.0
  0
SEQEND
  5
15E1D
  8
0
  0
POLYLINE
  5
14E8D
  8
0
 66
     1
 10
0.0
 20
0.0
 30
0.0
  0
VERTEX
  5
15E1E
  8
0
 10
150.5
 20
222.999999999999801
 30
0.0
  0
VERTEX
  5
15E1F
  8
0
 10
150.5650197233750873
 20
222.9995806776416032
 30
0.0
  0
VERTEX
  5
15E20
  8
0
 10
150.6299278338117915
 20
222.9983234721561871
 30
0.0
  0
VERTEX
  5
15E21
  8
0
 10
150.6947245709152128
 20
222.9962295259275891
 30
0.0
  0
VERTEX
  5
15E22
  8
0
 10
150.7594101742907071
 20
222.9932999813395043
 30
0.0
  0
VERTEX
  5
15E23
  8
0
 10
150.8239848835430053
 20
222.9895359807757131
 30
0.0
  0
VERTEX
  5
15E24
  8
0
 10
150.8884489382776053
 20
222.9849386666205078
 30
0.0
  0
VERTEX
  5
15E25
  8
0
 10
150.9528025780994085
 20
222.9795091812574981
 30
0.0
  0
VERTEX
  5
15E26
  8
0
 10
151.017046042613714
 20
222.9732486670704077
 30
0.0
  0
VERTEX
  5
15E27
  8
0
 10
151.0811795714255936
 20
222.9661582664433865
 30
0.0
  0
VERTEX
  5
15E28
  8
0
 10
151.1452034041402896
 20
222.9582391217601867
 30
0.0
  0
VERTEX
  5
15E29
  8
0
 10
151.2091177803627886
 20
222.9494923754047875
 30
0.0
  0
VERTEX
  5
15E2A
  8
0
 10
151.2729229396983044
 20
222.9399191697607137
 30
0.0
  0
VERTEX
  5
15E2B
  8
0
 10
151.3366191217519088
 20
222.9295206472123141
 30
0.0
  0
VERTEX
  5
15E2C
  8
0
 10
151.400206566128702
 20
222.9182979501431987
 30
0.0
  0
VERTEX
  5
15E2D
  8
0
 10
151.4636855064534871
 20
222.9062521747885057
 30
0.0
  0
VERTEX
  5
15E2E
  8
0
 10
151.5270555860122954
 20
222.8933798528576062
 30
0.0
  0
VERTEX
  5
15E2F
  8
0
 10
151.5903162144410885
 20
222.8796756838472106
 30
0.0
  0
VERTEX
  5
15E30
  8
0
 10
151.6534670158985989
 20
222.865136016905609
 30
0.0
  0
VERTEX
  5
15E31
  8
0
 10
151.7165076145431044
 20
222.8497572011810917
 30
0.0
  0
VERTEX
  5
15E32
  8
0
 10
151.779437634533906
 20
222.8335355858218065
 30
0.0
  0
VERTEX
  5
15E33
  8
0
 10
151.8422567000289121
 20
222.8164675199759017
 30
0.0
  0
VERTEX
  5
15E34
  8
0
 10
151.9049644351871962
 20
222.7985493527916105
 30
0.0
  0
VERTEX
  5
15E35
  8
0
 10
151.9675739231066984
 20
222.7797701608390923
 30
0.0
  0
VERTEX
  5
15E36
  8
0
 10
152.030098855270893
 20
222.7601147624397129
 30
0.0
  0
VERTEX
  5
15E37
  8
0
 10
152.0924864132157097
 20
222.7395996995711869
 30
0.0
  0
VERTEX
  5
15E38
  8
0
 10
152.1546800840150127
 20
222.7182433757675994
 30
0.0
  0
VERTEX
  5
15E39
  8
0
 10
152.2166233547432057
 20
222.6960641945636041
 30
0.0
  0
VERTEX
  5
15E3A
  8
0
 10
152.2782597124736128
 20
222.6730805594935134
 30
0.0
  0
VERTEX
  5
15E3B
  8
0
 10
152.3395326442808937
 20
222.6493108740918103
 30
0.0
  0
VERTEX
  5
15E3C
  8
0
 10
152.4003881227324086
 20
222.6247732338065077
 30
0.0
  0
VERTEX
  5
15E3D
  8
0
 10
152.4608389932990065
 20
222.5994743502691904
 30
0.0
  0
VERTEX
  5
15E3E
  8
0
 10
152.5209021902973916
 20
222.5734127535093876
 30
0.0
  0
VERTEX
  5
15E3F
  8
0
 10
152.5805775625082106
 20
222.5465879772937114
 30
0.0
  0
VERTEX
  5
15E40
  8
0
 10
152.6398649587121952
 20
222.5189995553884046
 30
0.0
  0
VERTEX
  5
15E41
  8
0
 10
152.6987642276899066
 20
222.4906470215599938
 30
0.0
  0
VERTEX
  5
15E42
  8
0
 10
152.7572752182219915
 20
222.4615299095750913
 30
0.0
  0
VERTEX
  5
15E43
  8
0
 10
152.8153977790892952
 20
222.4316477531997123
 30
0.0
  0
VERTEX
  5
15E44
  8
0
 10
152.8731317590720096
 20
222.4010000862006109
 30
0.0
  0
VERTEX
  5
15E45
  8
0
 10
152.9304770069510084
 20
222.3695864423440014
 30
0.0
  0
VERTEX
  5
15E46
  8
0
 10
152.9874333715071089
 20
222.3374063553964106
 30
0.0
  0
VERTEX
  5
15E47
  8
0
 10
153.0440007015205879
 20
222.3044593591241949
 30
0.0
  0
VERTEX
  5
15E48
  8
0
 10
153.100178845772291
 20
222.2707449872939094
 30
0.0
  0
VERTEX
  5
15E49
  8
0
 10
153.1559676530428931
 20
222.2362627736717968
 30
0.0
  0
VERTEX
  5
15E4A
  8
0
 10
153.2113669721128986
 20
222.2010122520244977
 30
0.0
  0
VERTEX
  5
15E4B
  8
0
 10
153.2663801945899991
 20
222.1649880544592861
 30
0.0
  0
VERTEX
  5
15E4C
  8
0
 10
153.3210361659938883
 20
222.128144687249204
 30
0.0
  0
VERTEX
  5
15E4D
  8
0
 10
153.3753208225950004
 20
222.0904863673846137
 30
0.0
  0
VERTEX
  5
15E4E
  8
0
 10
153.4292086053200137
 20
222.0520322018749084
 30
0.0
  0
VERTEX
  5
15E4F
  8
0
 10
153.4826739550960042
 20
222.0128012977295953
 30
0.0
  0
VERTEX
  5
15E50
  8
0
 10
153.5356913128499059
 20
221.9728127619582949
 30
0.0
  0
VERTEX
  5
15E51
  8
0
 10
153.5882351195089939
 20
221.9320857015702018
 30
0.0
  0
VERTEX
  5
15E52
  8
0
 10
153.6402798159996905
 20
221.8906392235749081
 30
0.0
  0
VERTEX
  5
15E53
  8
0
 10
153.691799843249413
 20
221.8484924349816083
 30
0.0
  0
VERTEX
  5
15E54
  8
0
 10
153.7427696421850101
 20
221.8056644428000084
 30
0.0
  0
VERTEX
  5
15E55
  8
0
 10
153.793163653733501
 20
221.7621743540393027
 30
0.0
  0
VERTEX
  5
15E56
  8
0
 10
153.8429563188215923
 20
221.7180412757091119
 30
0.0
  0
VERTEX
  5
15E57
  8
0
 10
153.8921220783763886
 20
221.673284314818801
 30
0.0
  0
VERTEX
  5
15E58
  8
0
 10
153.940635373325108
 20
221.6279225783777918
 30
0.0
  0
VERTEX
  5
15E59
  8
0
 10
153.9884706445945142
 20
221.5819751733955911
 30
0.0
  0
VERTEX
  5
15E5A
  8
0
 10
154.0356122538979093
 20
221.5354569809709915
 30
0.0
  0
VERTEX
  5
15E5B
  8
0
 10
154.0821032818446099
 20
221.4883541493317978
 30
0.0
  0
VERTEX
  5
15E5C
  8
0
 10
154.1279513839436106
 20
221.4406621288740951
 30
0.0
  0
VERTEX
  5
15E5D
  8
0
 10
154.1731553076907062
 20
221.3923797510911129
 30
0.0
  0
VERTEX
  5
15E5E
  8
0
 10
154.217713800582402
 20
221.3435058474763082
 30
0.0
  0
VERTEX
  5
15E5F
  8
0
 10
154.2616256101150043
 20
221.2940392495229105
 30
0.0
  0
VERTEX
  5
15E60
  8
0
 10
154.3048894837843932
 20
221.2439787887244904
 30
0.0
  0
VERTEX
  5
15E61
  8
0
 10
154.3475041690869034
 20
221.193323296574107
 30
0.0
  0
VERTEX
  5
15E62
  8
0
 10
154.3894684135188982
 20
221.1420716045655013
 30
0.0
  0
VERTEX
  5
15E63
  8
0
 10
154.4307809645762859
 20
221.0902225441917039
 30
0.0
  0
VERTEX
  5
15E64
  8
0
 10
154.4714405697554866
 20
221.0377749469462003
 30
0.0
  0
VERTEX
  5
15E65
  8
0
 10
154.5114459765524089
 20
220.9847276443223905
 30
0.0
  0
VERTEX
  5
15E66
  8
0
 10
154.5507959324635863
 20
220.9310794678135039
 30
0.0
  0
VERTEX
  5
15E67
  8
0
 10
154.5894891849850126
 20
220.8768292489129124
 30
0.0
  0
VERTEX
  5
15E68
  8
0
 10
154.6275244816129089
 20
220.8219758191141864
 30
0.0
  0
VERTEX
  5
15E69
  8
0
 10
154.6649010972492135
 20
220.7665098162183028
 30
0.0
  0
VERTEX
  5
15E6A
  8
0
 10
154.7016058896350046
 20
220.710423993601097
 30
0.0
  0
VERTEX
  5
15E6B
  8
0
 10
154.737607013290301
 20
220.6537691076526073
 30
0.0
  0
VERTEX
  5
15E6C
  8
0
 10
154.7728716940806066
 20
220.5966001814828985
 30
0.0
  0
VERTEX
  5
15E6D
  8
0
 10
154.8073671578713117
 20
220.5389722382024047
 30
0.0
  0
VERTEX
  5
15E6E
  8
0
 10
154.8410606305280055
 20
220.4809403009211906
 30
0.0
  0
VERTEX
  5
15E6F
  8
0
 10
154.8739193379161918
 20
220.422559392749406
 30
0.0
  0
VERTEX
  5
15E70
  8
0
 10
154.905911647334193
 20
220.3638830190249109
 30
0.0
  0
VERTEX
  5
15E71
  8
0
 10
154.9370553531896064
 20
220.3048971463840928
 30
0.0
  0
VERTEX
  5
15E72
  8
0
 10
154.9673701988729135
 20
220.2455800918448006
 30
0.0
  0
VERTEX
  5
15E73
  8
0
 10
154.9968583370674082
 20
220.1859327132250996
 30
0.0
  0
VERTEX
  5
15E74
  8
0
 10
155.0255219204562991
 20
220.1259558683426008
 30
0.0
  0
VERTEX
  5
15E75
  8
0
 10
155.0533631017227094
 20
220.0656504150153125
 30
0.0
  0
VERTEX
  5
15E76
  8
0
 10
155.0803840335499899
 20
220.0050172110611015
 30
0.0
  0
VERTEX
  5
15E77
  8
0
 10
155.106586868621207
 20
219.9440571142976069
 30
0.0
  0
VERTEX
  5
15E78
  8
0
 10
155.1319781981569861
 20
219.8827547047901021
 30
0.0
  0
VERTEX
  5
15E79
  8
0
 10
155.1565672037725108
 20
219.8210772179737944
 30
0.0
  0
VERTEX
  5
15E7A
  8
0
 10
155.1803491235970114
 20
219.7590356607753108
 30
0.0
  0
VERTEX
  5
15E7B
  8
0
 10
155.2033186246131038
 20
219.6966429746312883
 30
0.0
  0
VERTEX
  5
15E7C
  8
0
 10
155.2254703738032049
 20
219.6339121009785913
 30
0.0
  0
VERTEX
  5
15E7D
  8
0
 10
155.2467990381499021
 20
219.5708559812541125
 30
0.0
  0
VERTEX
  5
15E7E
  8
0
 10
155.2672992846356124
 20
219.507487556894489
 30
0.0
  0
VERTEX
  5
15E7F
  8
0
 10
155.2869657802430083
 20
219.4438197693366988
 30
0.0
  0
VERTEX
  5
15E80
  8
0
 10
155.3057931919545922
 20
219.3798655600174072
 30
0.0
  0
VERTEX
  5
15E81
  8
0
 10
155.3237761867528093
 20
219.3156378703733083
 30
0.0
  0
VERTEX
  5
15E82
  8
0
 10
155.3409094316203038
 20
219.2511496418414936
 30
0.0
  0
VERTEX
  5
15E83
  8
0
 10
155.3571875935394928
 20
219.1864138158584012
 30
0.0
  0
VERTEX
  5
15E84
  8
0
 10
155.3726053394929068
 20
219.1214433338610945
 30
0.0
  0
VERTEX
  5
15E85
  8
0
 10
155.3871573364631047
 20
219.0562511372862957
 30
0.0
  0
VERTEX
  5
15E86
  8
0
 10
155.4008382514325035
 20
218.9908501675708123
 30
0.0
  0
VERTEX
  5
15E87
  8
0
 10
155.4136393917756038
 20
218.92529868305121
 30
0.0
  0
VERTEX
  5
15E88
  8
0
 10
155.4255535666436003
 20
218.8596741815339897
 30
0.0
  0
VERTEX
  5
15E89
  8
0
 10
155.436581315410308
 20
218.7939776251922126
 30
0.0
  0
VERTEX
  5
15E8A
  8
0
 10
155.446723261524113
 20
218.7282090176719862
 30
0.0
  0
VERTEX
  5
15E8B
  8
0
 10
155.4559800284336006
 20
218.6623683626195884
 30
0.0
  0
VERTEX
  5
15E8C
  8
0
 10
155.4643522395878108
 20
218.5964556636814109
 30
0.0
  0
VERTEX
  5
15E8D
  8
0
 10
155.4718405184349024
 20
218.5304709245033052
 30
0.0
  0
VERTEX
  5
15E8E
  8
0
 10
155.4784454884240006
 20
218.4644141487320042
 30
0.0
  0
VERTEX
  5
15E8F
  8
0
 10
155.4841677730032075
 20
218.3982853400133024
 30
0.0
  0
VERTEX
  5
15E90
  8
0
 10
155.4890079956215914
 20
218.3320845019939043
 30
0.0
  0
VERTEX
  5
15E91
  8
0
 10
155.4929667797273964
 20
218.2658116383196045
 30
0.0
  0
VERTEX
  5
15E92
  8
0
 10
155.4960447487696058
 20
218.1994667526369085
 30
0.0
  0
VERTEX
  5
15E93
  8
0
 10
155.498242526196691
 20
218.1330498485918952
 30
0.0
  0
VERTEX
  5
15E94
  8
0
 10
155.4995607354572087
 20
218.0665609298308141
 30
0.0
  0
VERTEX
  5
15E95
  8
0
 10
155.5
 20
218.0
 30
0.0
  0
SEQEND
  5
15E96
  8
0
  0
POLYLINE
  5
14E8E
  8
0
 66
     1
 10
0.0
 20
0.0
 30
0.0
  0
VERTEX
  5
15E97
  8
0
 10
155.5
 20
218.0
 30
0.0
  0
VERTEX
  5
15E98
  8
0
 10
155.5
 20
217.0884813138154925
 30
0.0
  0
VERTEX
  5
15E99
  8
0
 10
155.5
 20
216.177490559684486
 30
0.0
  0
VERTEX
  5
15E9A
  8
0
 10
155.5
 20
215.267013612520401
 30
0.0
  0
VERTEX
  5
15E9B
  8
0
 10
155.5
 20
214.3570363472364875
 30
0.0
  0
VERTEX
  5
15E9C
  8
0
 10
155.5
 20
213.447544638746308
 30
0.0
  0
VERTEX
  5
15E9D
  8
0
 10
155.5
 20
212.5385243619631979
 30
0.0
  0
VERTEX
  5
15E9E
  8
0
 10
155.5
 20
211.6299613918004923
 30
0.0
  0
VERTEX
  5
15E9F
  8
0
 10
155.5
 20
210.721841603171697
 30
0.0
  0
VERTEX
  5
15EA0
  8
0
 10
155.5
 20
209.8141508709902041
 30
0.0
  0
VERTEX
  5
15EA1
  8
0
 10
155.5
 20
208.9068750701694057
 30
0.0
  0
VERTEX
  5
15EA2
  8
0
 10
155.5
 20
208.0000000756226939
 30
0.0
  0
SEQEND
  5
15EA3
  8
0
  0
POLYLINE
  5
14E8F
  8
0
 66
     1
 10
0.0
 20
0.0
 30
0.0
  0
VERTEX
  5
15EA4
  8
0
 10
160.5
 20
203.0
 30
0.0
  0
VERTEX
  5
15EA5
  8
0
 10
160.426956768306411
 20
203.0005292632023952
 30
0.0
  0
VERTEX
  5
15EA6
  8
0
 10
160.3540520149338988
 20
203.0021160237292861
 30
0.0
  0
VERTEX
  5
15EA7
  8
0
 10
160.281285619064306
 20
203.0047587379609126
 30
0.0
  0
VERTEX
  5
15EA8
  8
0
 10
160.2086574598804134
 20
203.0084558622766906
 30
0.0
  0
VERTEX
  5
15EA9
  8
0
 10
160.1361674165640068
 20
203.0132058530568031
 30
0.0
  0
VERTEX
  5
15EAA
  8
0
 10
160.063815368297611
 20
203.0190071666810923
 30
0.0
  0
VERTEX
  5
15EAB
  8
0
 10
159.9916011942632963
 20
203.0258582595294001
 30
0.0
  0
VERTEX
  5
15EAC
  8
0
 10
159.9195247736435022
 20
203.0337575879815972
 30
0.0
  0
VERTEX
  5
15EAD
  8
0
 10
159.8475859856204124
 20
203.0427036084176109
 30
0.0
  0
VERTEX
  5
15EAE
  8
0
 10
159.7757847093762109
 20
203.052694777217198
 30
0.0
  0
VERTEX
  5
15EAF
  8
0
 10
159.7041208240931951
 20
203.0637295507603142
 30
0.0
  0
VERTEX
  5
15EB0
  8
0
 10
159.6325942089538046
 20
203.0758063854268869
 30
0.0
  0
VERTEX
  5
15EB1
  8
0
 10
159.5612047431401095
 20
203.0889237375967014
 30
0.0
  0
VERTEX
  5
15EB2
  8
0
 10
159.4899525246985945
 20
203.1030817479274901
 30
0.0
  0
VERTEX
  5
15EB3
  8
0
 10
159.418838644261001
 20
203.1182881779461979
 30
0.0
  0
VERTEX
  5
15EB4
  8
0
 10
159.3478639219003128
 20
203.1345486856309037
 30
0.0
  0
VERTEX
  5
15EB5
  8
0
 10
159.2770291195892867
 20
203.1518684809055912
 30
0.0
  0
VERTEX
  5
15EB6
  8
0
 10
159.206334999300509
 20
203.1702527736943864
 30
0.0
  0
VERTEX
  5
15EB7
  8
0
 10
159.1357823230065094
 20
203.1897067739215004
 30
0.0
  0
VERTEX
  5
15EB8
  8
0
 10
159.0653718526797888
 20
203.2102356915108032
 30
0.0
  0
VERTEX
  5
15EB9
  8
0
 10
158.9950972762698029
 20
203.2318537862159928
 30
0.0
  0
VERTEX
  5
15EBA
  8
0
 10
158.9249978502977001
 20
203.2545575590476972
 30
0.0
  0
VERTEX
  5
15EBB
  8
0
 10
158.8551501550894045
 20
203.2783199752327903
 30
0.0
  0
VERTEX
  5
15EBC
  8
0
 10
158.7856308518246067
 20
203.3031139387443034
 30
0.0
  0
VERTEX
  5
15EBD
  8
0
 10
158.7165166016833098
 20
203.3289123535548981
 30
0.0
  0
VERTEX
  5
15EBE
  8
0
 10
158.6478840658450054
 20
203.355688123637691
 30
0.0
  0
VERTEX
  5
15EBF
  8
0
 10
158.5798058832222068
 20
203.3834149352331053
 30
0.0
  0
VERTEX
  5
15EC0
  8
0
 10
158.5122503261015936
 20
203.4120900695691887
 30
0.0
  0
VERTEX
  5
15EC1
  8
0
 10
158.4451886066717066
 20
203.4417184134682088
 30
0.0
  0
VERTEX
  5
15EC2
  8
0
 10
158.3786209738775028
 20
203.4723003935957024
 30
0.0
  0
VERTEX
  5
15EC3
  8
0
 10
158.3125476766643089
 20
203.5038364366176893
 30
0.0
  0
VERTEX
  5
15EC4
  8
0
 10
158.2469689639767125
 20
203.5363269691999051
 30
0.0
  0
VERTEX
  5
15EC5
  8
0
 10
158.1818850847596138
 20
203.5697724180083128
 30
0.0
  0
VERTEX
  5
15EC6
  8
0
 10
158.1172962879581974
 20
203.604173209708506
 30
0.0
  0
VERTEX
  5
15EC7
  8
0
 10
158.0532028225171075
 20
203.6395297709667886
 30
0.0
  0
VERTEX
  5
15EC8
  8
0
 10
157.9896049373813867
 20
203.6758425284488112
 30
0.0
  0
VERTEX
  5
15EC9
  8
0
 10
157.9265028814959066
 20
203.7131119088201103
 30
0.0
  0
VERTEX
  5
15ECA
  8
0
 10
157.8638969038055961
 20
203.7513383387469048
 30
0.0
  0
VERTEX
  5
15ECB
  8
0
 10
157.8017872532554122
 20
203.7905222448951008
 30
0.0
  0
VERTEX
  5
15ECC
  8
0
 10
157.7401741787903973
 20
203.8306640539302919
 30
0.0
  0
VERTEX
  5
15ECD
  8
0
 10
157.6790535183178008
 20
203.8717832272886881
 30
0.0
  0
VERTEX
  5
15ECE
  8
0
 10
157.618437192375012
 20
203.9138946975687077
 30
0.0
  0
VERTEX
  5
15ECF
  8
0
 10
157.5583571799419929
 20
203.9569723944686928
 30
0.0
  0
VERTEX
  5
15ED0
  8
0
 10
157.4988456331008138
 20
204.0009897890255104
 30
0.0
  0
VERTEX
  5
15ED1
  8
0
 10
157.4399347039334032
 20
204.0459203522759992
 30
0.0
  0
VERTEX
  5
15ED2
  8
0
 10
157.3816565445220022
 20
204.0917375552567989
 30
0.0
  0
VERTEX
  5
15ED3
  8
0
 10
157.3240433069483117
 20
204.1384148690048903
 30
0.0
  0
VERTEX
  5
15ED4
  8
0
 10
157.2671271432946014
 20
204.1859257645567993
 30
0.0
  0
VERTEX
  5
15ED5
  8
0
 10
157.2109402056427996
 20
204.2342437129495067
 30
0.0
  0
VERTEX
  5
15ED6
  8
0
 10
157.1555146460750052
 20
204.2833421852197944
 30
0.0
  0
VERTEX
  5
15ED7
  8
0
 10
157.1008826166732888
 20
204.3331946524043872
 30
0.0
  0
VERTEX
  5
15ED8
  8
0
 10
157.0470762695194935
 20
204.3837745855400954
 30
0.0
  0
VERTEX
  5
15ED9
  8
0
 10
156.9941277566958036
 20
204.4350554556635871
 30
0.0
  0
VERTEX
  5
15EDA
  8
0
 10
156.9420544655951062
 20
204.4870189478280054
 30
0.0
  0
VERTEX
  5
15EDB
  8
0
 10
156.8907885844650991
 20
204.5396983858798876
 30
0.0
  0
VERTEX
  5
15EDC
  8
0
 10
156.8403184294656114
 20
204.5931024638063036
 30
0.0
  0
VERTEX
  5
15EDD
  8
0
 10
156.7906458174794011
 20
204.6472328358792083
 30
0.0
  0
VERTEX
  5
15EDE
  8
0
 10
156.7417725653886009
 20
204.7020911563706136
 30
0.0
  0
VERTEX
  5
15EDF
  8
0
 10
156.6937004900755994
 20
204.7576790795527018
 30
0.0
  0
VERTEX
  5
15EE0
  8
0
 10
156.6464314084228988
 20
204.8139982596975983
 30
0.0
  0
VERTEX
  5
15EE1
  8
0
 10
156.5999671373128876
 20
204.8710503510774004
 30
0.0
  0
VERTEX
  5
15EE2
  8
0
 10
156.5543094936280966
 20
204.928837007964205
 30
0.0
  0
VERTEX
  5
15EE3
  8
0
 10
156.5094602942506015
 20
204.9873598846299956
 30
0.0
  0
VERTEX
  5
15EE4
  8
0
 10
156.4654213560633877
 20
205.0466206353470113
 30
0.0
  0
VERTEX
  5
15EE5
  8
0
 10
156.4221944959481903
 20
205.1066209143872072
 30
0.0
  0
VERTEX
  5
15EE6
  8
0
 10
156.3797815307881081
 20
205.1673623760229077
 30
0.0
  0
VERTEX
  5
15EE7
  8
0
 10
156.3381855537236902
 20
205.228844902927591
 30
0.0
  0
VERTEX
  5
15EE8
  8
0
 10
156.2975080057871935
 20
205.2909291446011082
 30
0.0
  0
VERTEX
  5
15EE9
  8
0
 10
156.2578135547566092
 20
205.3535182836423871
 30
0.0
  0
VERTEX
  5
15EEA
  8
0
 10
156.219104377697505
 20
205.4166006049916859
 30
0.0
  0
VERTEX
  5
15EEB
  8
0
 10
156.1813826516757899
 20
205.4801643935894901
 30
0.0
  0
VERTEX
  5
15EEC
  8
0
 10
156.1446505537570886
 20
205.5441979343760011
 30
0.0
  0
VERTEX
  5
15EED
  8
0
 10
156.108910261007793
 20
205.6086895122917042
 30
0.0
  0
VERTEX
  5
15EEE
  8
0
 10
156.0741639504929879
 20
205.6736274122768009
 30
0.0
  0
VERTEX
  5
15EEF
  8
0
 10
156.0404137992788094
 20
205.7389999192716914
 30
0.0
  0
VERTEX
  5
15EF0
  8
0
 10
156.007661984430996
 20
205.8047953182166907
 30
0.0
  0
VERTEX
  5
15EF1
  8
0
 10
155.9759106830152859
 20
205.8710018940523128
 30
0.0
  0
VERTEX
  5
15EF2
  8
0
 10
155.9451620720973892
 20
205.9376079317185884
 30
0.0
  0
VERTEX
  5
15EF3
  8
0
 10
155.915418328743101
 20
206.004601716156202
 30
0.0
  0
VERTEX
  5
15EF4
  8
0
 10
155.8866816300185008
 20
206.0719715323052128
 30
0.0
  0
VERTEX
  5
15EF5
  8
0
 10
155.8589421163333952
 20
206.1397461019128059
 30
0.0
  0
VERTEX
  5
15EF6
  8
0
 10
155.8321760136672935
 20
206.2080045658213976
 30
0.0
  0
VERTEX
  5
15EF7
  8
0
 10
155.8063908928166086
 20
206.2767242118605964
 30
0.0
  0
VERTEX
  5
15EF8
  8
0
 10
155.7815957328382126
 20
206.3458776718277079
 30
0.0
  0
VERTEX
  5
15EF9
  8
0
 10
155.7577995127888073
 20
206.4154375775206063
 30
0.0
  0
VERTEX
  5
15EFA
  8
0
 10
155.7350112117250944
 20
206.485376560736313
 30
0.0
  0
VERTEX
  5
15EFB
  8
0
 10
155.7132398087040031
 20
206.5556672532723894
 30
0.0
  0
VERTEX
  5
15EFC
  8
0
 10
155.6924942827822065
 20
206.6262822869263118
 30
0.0
  0
VERTEX
  5
15EFD
  8
0
 10
155.6727836130162927
 20
206.6971942934956132
 30
0.0
  0
VERTEX
  5
15EFE
  8
0
 10
155.6541167784635036
 20
206.7683759047775993
 30
0.0
  0
VERTEX
  5
15EFF
  8
0
 10
155.6365027581801996
 20
206.8397997525698884
 30
0.0
  0
VERTEX
  5
15F00
  8
0
 10
155.6199505312231111
 20
206.9114384686697008
 30
0.0
  0
VERTEX
  5
15F01
  8
0
 10
155.6044690766491954
 20
206.9832646848749107
 30
0.0
  0
VERTEX
  5
15F02
  8
0
 10
155.5900661320769984
 20
207.0552480778682138
 30
0.0
  0
VERTEX
  5
15F03
  8
0
 10
155.5767347765560942
 20
207.1273390049867089
 30
0.0
  0
VERTEX
  5
15F04
  8
0
 10
155.5644718360630065
 20
207.1995273756128029
 30
0.0
  0
VERTEX
  5
15F05
  8
0
 10
155.5532769788408132
 20
207.2718130825874141
 30
0.0
  0
VERTEX
  5
15F06
  8
0
 10
155.5431498731329043
 20
207.3441960187516884
 30
0.0
  0
VERTEX
  5
15F07
  8
0
 10
155.5340901871817891
 20
207.4166760769466009
 30
0.0
  0
VERTEX
  5
15F08
  8
0
 10
155.5260975892313127
 20
207.4892531500130985
 30
0.0
  0
VERTEX
  5
15F09
  8
0
 10
155.5191717475238136
 20
207.5619271307922133
 30
0.0
  0
VERTEX
  5
15F0A
  8
0
 10
155.5133123303027105
 20
207.6346979121250911
 30
0.0
  0
VERTEX
  5
15F0B
  8
0
 10
155.5085190058109106
 20
207.707565386852707
 30
0.0
  0
VERTEX
  5
15F0C
  8
0
 10
155.5047914422918041
 20
207.7805294478160079
 30
0.0
  0
VERTEX
  5
15F0D
  8
0
 10
155.5021293079882128
 20
207.8535899878561111
 30
0.0
  0
VERTEX
  5
15F0E
  8
0
 10
155.5005322711431006
 20
207.9267468998139066
 30
0.0
  0
VERTEX
  5
15F0F
  8
0
 10
155.499999999999801
 20
208.000000076530597
 30
0.0
  0
SEQEND
  5
15F10
  8
0
  0
POLYLINE
  5
14E90
  8
0
 66
     1
 10
0.0
 20
0.0
 30
0.0
  0
VERTEX
  5
15F11
  8
0
 10
155.5
 20
282.0
 30
0.0
  0
VERTEX
  5
15F12
  8
0
 10
155.5005318159074932
 20
282.0732209019752759
 30
0.0
  0
VERTEX
  5
15F13
  8
0
 10
155.5021261945682056
 20
282.1463011829324046
 30
0.0
  0
VERTEX
  5
15F14
  8
0
 10
155.5047815323885914
 20
282.2192409834909768
 30
0.0
  0
VERTEX
  5
15F15
  8
0
 10
155.5084962257757013
 20
282.2920404442709241
 30
0.0
  0
VERTEX
  5
15F16
  8
0
 10
155.5132686711363021
 20
282.3646997058920078
 30
0.0
  0
VERTEX
  5
15F17
  8
0
 10
155.51909726487699
 20
282.4372189089741028
 30
0.0
  0
VERTEX
  5
15F18
  8
0
 10
155.5259804034047022
 20
282.5095981941369132
 30
0.0
  0
VERTEX
  5
15F19
  8
0
 10
155.5339164831262053
 20
282.581837702000314
 30
0.0
  0
VERTEX
  5
15F1A
  8
0
 10
155.5429039004484082
 20
282.6539375731841233
 30
0.0
  0
VERTEX
  5
15F1B
  8
0
 10
155.5529410517779922
 20
282.7258979483082157
 30
0.0
  0
VERTEX
  5
15F1C
  8
0
 10
155.5640263335216105
 20
282.7977189679921821
 30
0.0
  0
VERTEX
  5
15F1D
  8
0
 10
155.5761581420865127
 20
282.8694007728560109
 30
0.0
  0
VERTEX
  5
15F1E
  8
0
 10
155.589334873879011
 20
282.9409435035194065
 30
0.0
  0
VERTEX
  5
15F1F
  8
0
 10
155.60355662717879
 20
283.0123470775182
 30
0.0
  0
VERTEX
  5
15F20
  8
0
 10
155.6188311981717902
 20
283.0836104013076806
 30
0.0
  0
VERTEX
  5
15F21
  8
0
 10
155.6351642543808111
 20
283.154732657902116
 30
0.0
  0
VERTEX
  5
15F22
  8
0
 10
155.6525610104569068
 20
283.2257130895711157
 30
0.0
  0
VERTEX
  5
15F23
  8
0
 10
155.671026681051103
 20
283.2965509385836071
 30
0.0
  0
VERTEX
  5
15F24
  8
0
 10
155.6905664808149083
 20
283.3672454472089726
 30
0.0
  0
VERTEX
  5
15F25
  8
0
 10
155.7111856243994055
 20
283.4377958577168215
 30
0.0
  0
VERTEX
  5
15F26
  8
0
 10
155.7328968448472892
 20
283.5082037741615864
 30
0.0
  0
VERTEX
  5
15F27
  8
0
 10
155.7556946390891142
 20
283.5784245645290866
 30
0.0
  0
VERTEX
  5
15F28
  8
0
 10
155.7795518709519911
 20
283.6483826062104754
 30
0.0
  0
VERTEX
  5
15F29
  8
0
 10
155.8044413497511016
 20
283.7180022173211
 30
0.0
  0
VERTEX
  5
15F2A
  8
0
 10
155.8303358848017126
 20
283.7872077159761943
 30
0.0
  0
VERTEX
  5
15F2B
  8
0
 10
155.8572082854184941
 20
283.8559234202913899
 30
0.0
  0
VERTEX
  5
15F2C
  8
0
 10
155.8850321895299089
 20
283.9240777618966263
 30
0.0
  0
VERTEX
  5
15F2D
  8
0
 10
155.9138058185397995
 20
283.9917052073136006
 30
0.0
  0
VERTEX
  5
15F2E
  8
0
 10
155.9435344347295995
 20
284.0588354820699806
 30
0.0
  0
VERTEX
  5
15F2F
  8
0
 10
155.9742184285987037
 20
284.1254683644535817
 30
0.0
  0
VERTEX
  5
15F30
  8
0
 10
156.0058581906469897
 20
284.1916036327523898
 30
0.0
  0
VERTEX
  5
15F31
  8
0
 10
156.0384541113735963
 20
284.2572410652542203
 30
0.0
  0
VERTEX
  5
15F32
  8
0
 10
156.0720065812780888
 20
284.3223804402470023
 30
0.0
  0
VERTEX
  5
15F33
  8
0
 10
156.1065159908602027
 20
284.387021536018608
 30
0.0
  0
VERTEX
  5
15F34
  8
0
 10
156.1419827306191905
 20
284.4511641308570802
 30
0.0
  0
VERTEX
  5
15F35
  8
0
 10
156.178407191054589
 20
284.5148080030498932
 30
0.0
  0
VERTEX
  5
15F36
  8
0
 10
156.2157897626661054
 20
284.5779529308854876
 30
0.0
  0
VERTEX
  5
15F37
  8
0
 10
156.2541308359527932
 20
284.6405986926513947
 30
0.0
  0
VERTEX
  5
15F38
  8
0
 10
156.293430801414587
 20
284.702745066635714
 30
0.0
  0
VERTEX
  5
15F39
  8
0
 10
156.3336900495509099
 20
284.7643918311262041
 30
0.0
  0
VERTEX
  5
15F3A
  8
0
 10
156.3749252431161096
 20
284.8255394620981065
 30
0.0
  0
VERTEX
  5
15F3B
  8
0
 10
156.4171470068511098
 20
284.8861706206160989
 30
0.0
  0
VERTEX
  5
15F3C
  8
0
 10
156.4603293920202134
 20
284.946254071392616
 30
0.0
  0
VERTEX
  5
15F3D
  8
0
 10
156.5044460481624071
 20
285.0057584838888829
 30
0.0
  0
VERTEX
  5
15F3E
  8
0
 10
156.5494706248173031
 20
285.0646525275669774
 30
0.0
  0
VERTEX
  5
15F3F
  8
0
 10
156.5953767715240872
 20
285.1229048718878971
 30
0.0
  0
VERTEX
  5
15F40
  8
0
 10
156.6421381378218882
 20
285.1804841863132083
 30
0.0
  0
VERTEX
  5
15F41
  8
0
 10
156.6897283732502046
 20
285.237359140304477
 30
0.0
  0
VERTEX
  5
15F42
  8
0
 10
156.7381211273481085
 20
285.2934984033232126
 30
0.0
  0
VERTEX
  5
15F43
  8
0
 10
156.787290049655013
 20
285.3488706448306971
 30
0.0
  0
VERTEX
  5
15F44
  8
0
 10
156.8372087897101039
 20
285.4034445342886102
 30
0.0
  0
VERTEX
  5
15F45
  8
0
 10
156.8878509970525954
 20
285.4571887411585749
 30
0.0
  0
VERTEX
  5
15F46
  8
0
 10
156.9391903212219859
 20
285.5100719349018163
 30
0.0
  0
VERTEX
  5
15F47
  8
0
 10
156.9912089336058045
 20
285.5620777003096009
 30
0.0
  0
VERTEX
  5
15F48
  8
0
 10
157.043942115467388
 20
285.6132752648788937
 30
0.0
  0
VERTEX
  5
15F49
  8
0
 10
157.0973988731464885
 20
285.6636764933230097
 30
0.0
  0
VERTEX
  5
15F4A
  8
0
 10
157.1515808578716076
 20
285.713279564587026
 30
0.0
  0
VERTEX
  5
15F4B
  8
0
 10
157.2064897208709908
 20
285.7620826576160766
 30
0.0
  0
VERTEX
  5
15F4C
  8
0
 10
157.2621271133731113
 20
285.8100839513554092
 30
0.0
  0
VERTEX
  5
15F4D
  8
0
 10
157.3184946866063001
 20
285.8572816247503283
 30
0.0
  0
VERTEX
  5
15F4E
  8
0
 10
157.375594091798888
 20
285.9036738567459111
 30
0.0
  0
VERTEX
  5
15F4F
  8
0
 10
157.4334269801794903
 20
285.9492588262872914
 30
0.0
  0
VERTEX
  5
15F50
  8
0
 10
157.4919950029762106
 20
285.9940347123197171
 30
0.0
  0
VERTEX
  5
15F51
  8
0
 10
157.551299811417806
 20
286.0379996937886062
 30
0.0
  0
VERTEX
  5
15F52
  8
0
 10
157.6113430567324087
 20
286.0811519496389224
 30
0.0
  0
VERTEX
  5
15F53
  8
0
 10
157.6721263901482928
 20
286.1234896588156857
 30
0.0
  0
VERTEX
  5
15F54
  8
0
 10
157.7336494651802923
 20
286.165009607522677
 30
0.0
  0
VERTEX
  5
15F55
  8
0
 10
157.795755966422405
 20
286.205601705786421
 30
0.0
  0
VERTEX
  5
15F56
  8
0
 10
157.8583407860386956
 20
286.2451973975556143
 30
0.0
  0
VERTEX
  5
15F57
  8
0
 10
157.9213954066140104
 20
286.2837965919028989
 30
0.0
  0
VERTEX
  5
15F58
  8
0
 10
157.9849113107331959
 20
286.3213991979009165
 30
0.0
  0
VERTEX
  5
15F59
  8
0
 10
158.0488799809807006
 20
286.3580051246223093
 30
0.0
  0
VERTEX
  5
15F5A
  8
0
 10
158.113292899941797
 20
286.393614281139719
 30
0.0
  0
VERTEX
  5
15F5B
  8
0
 10
158.1781415502009054
 20
286.428226576525617
 30
0.0
  0
VERTEX
  5
15F5C
  8
0
 10
158.2434174143430141
 20
286.4618419198528159
 30
0.0
  0
VERTEX
  5
15F5D
  8
0
 10
158.3091119749529128
 20
286.4944602201936164
 30
0.0
  0
VERTEX
  5
15F5E
  8
0
 10
158.3752167146151919
 20
286.5260813866208878
 30
0.0
  0
VERTEX
  5
15F5F
  8
0
 10
158.4417231159148116
 20
286.5567053282073857
 30
0.0
  0
VERTEX
  5
15F60
  8
0
 10
158.5086226614363909
 20
286.5863319540254111
 30
0.0
  0
VERTEX
  5
15F61
  8
0
 10
158.5759068337648046
 20
286.6149611731477194
 30
0.0
  0
VERTEX
  5
15F62
  8
0
 10
158.6436040862641903
 20
286.6426020694398744
 30
0.0
  0
VERTEX
  5
15F63
  8
0
 10
158.711785936310406
 20
286.6692723869422821
 30
0.0
  0
VERTEX
  5
15F64
  8
0
 10
158.7804279308581101
 20
286.6949641507025035
 30
0.0
  0
VERTEX
  5
15F65
  8
0
 10
158.8495012980129957
 20
286.7196682726266204
 30
0.0
  0
VERTEX
  5
15F66
  8
0
 10
158.9189772658812103
 20
286.743375664620487
 30
0.0
  0
VERTEX
  5
15F67
  8
0
 10
158.9888270625683049
 20
286.7660772385900145
 30
0.0
  0
VERTEX
  5
15F68
  8
0
 10
159.0590219161803986
 20
286.7877639064411142
 30
0.0
  0
VERTEX
  5
15F69
  8
0
 10
159.129533054823213
 20
286.808426580079697
 30
0.0
  0
VERTEX
  5
15F6A
  8
0
 10
159.2003317066026966
 20
286.8280561714115038
 30
0.0
  0
VERTEX
  5
15F6B
  8
0
 10
159.2713890996245141
 20
286.8466435923426729
 30
0.0
  0
VERTEX
  5
15F6C
  8
0
 10
159.3426764619946994
 20
286.8641797547788883
 30
0.0
  0
VERTEX
  5
15F6D
  8
0
 10
159.4141650218192012
 20
286.8806555706261179
 30
0.0
  0
VERTEX
  5
15F6E
  8
0
 10
159.4858260072037126
 20
286.8960619517902728
 30
0.0
  0
VERTEX
  5
15F6F
  8
0
 10
159.5576289323981882
 20
286.9103913771019165
 30
0.0
  0
VERTEX
  5
15F70
  8
0
 10
159.6295361556940122
 20
286.9236540795828887
 30
0.0
  0
VERTEX
  5
15F71
  8
0
 10
159.7015409373422017
 20
286.9358540923798273
 30
0.0
  0
VERTEX
  5
15F72
  8
0
 10
159.7736431641021113
 20
286.9469917067028177
 30
0.0
  0
VERTEX
  5
15F73
  8
0
 10
159.8458427227338063
 20
286.9570672137612064
 30
0.0
  0
VERTEX
  5
15F74
  8
0
 10
159.9181394999964994
 20
286.9660809047647945
 30
0.0
  0
VERTEX
  5
15F75
  8
0
 10
159.9905333826507103
 20
286.974033070923781
 30
0.0
  0
VERTEX
  5
15F76
  8
0
 10
160.0630242574557087
 20
286.9809240034475124
 30
0.0
  0
VERTEX
  5
15F77
  8
0
 10
160.1356120111711903
 20
286.9867539935460172
 30
0.0
  0
VERTEX
  5
15F78
  8
0
 10
160.2082965305569928
 20
286.9915233324288124
 30
0.0
  0
VERTEX
  5
15F79
  8
0
 10
160.2810777023732953
 20
286.9952323113059265
 30
0.0
  0
VERTEX
  5
15F7A
  8
0
 10
160.3539554133793956
 20
286.9978812213868764
 30
0.0
  0
VERTEX
  5
15F7B
  8
0
 10
160.4269295503349895
 20
286.999470353881577
 30
0.0
  0
VERTEX
  5
15F7C
  8
0
 10
160.5000000000001137
 20
287.0
 30
0.0
  0
SEQEND
  5
15F7D
  8
0
  0
POLYLINE
  5
14E91
  8
0
 66
     1
 10
0.0
 20
0.0
 30
0.0
  0
VERTEX
  5
15F7E
  8
0
 10
261.5
 20
228.0000000000001137
 30
0.0
  0
VERTEX
  5
15F7F
  8
0
 10
261.4994476551145226
 20
227.9253641622798909
 30
0.0
  0
VERTEX
  5
15F80
  8
0
 10
261.4977924101967233
 20
227.8508998950669024
 30
0.0
  0
VERTEX
  5
15F81
  8
0
 10
261.4950369498529881
 20
227.776606786718304
 30
0.0
  0
VERTEX
  5
15F82
  8
0
 10
261.4911839586906126
 20
227.702484425591507
 30
0.0
  0
VERTEX
  5
15F83
  8
0
 10
261.4862361213166082
 20
227.6285324000438095
 30
0.0
  0
VERTEX
  5
15F84
  8
0
 10
261.480196122337702
 20
227.5547502984325092
 30
0.0
  0
VERTEX
  5
15F85
  8
0
 10
261.4730666463611897
 20
227.481137709115103
 30
0.0
  0
VERTEX
  5
15F86
  8
0
 10
261.4648503779937982
 20
227.4076942204486897
 30
0.0
  0
VERTEX
  5
15F87
  8
0
 10
261.4555500018428233
 20
227.3344194207907094
 30
0.0
  0
VERTEX
  5
15F88
  8
0
 10
261.4451682025148784
 20
227.2613128984984883
 30
0.0
  0
VERTEX
  5
15F89
  8
0
 10
261.4337076646172022
 20
227.1883742419294947
 30
0.0
  0
VERTEX
  5
15F8A
  8
0
 10
261.4211710727568061
 20
227.1156030394407992
 30
0.0
  0
VERTEX
  5
15F8B
  8
0
 10
261.407561111540474
 20
227.0429988793898985
 30
0.0
  0
VERTEX
  5
15F8C
  8
0
 10
261.3928691621504186
 20
226.9705396783793958
 30
0.0
  0
VERTEX
  5
15F8D
  8
0
 10
261.3770589202110273
 20
226.8981604676685038
 30
0.0
  0
VERTEX
  5
15F8E
  8
0
 10
261.3601367937648092
 20
226.8258905974645074
 30
0.0
  0
VERTEX
  5
15F8F
  8
0
 10
261.3421134471109895
 20
226.7537681213349003
 30
0.0
  0
VERTEX
  5
15F90
  8
0
 10
261.322999544548793
 20
226.6818310928470908
 30
0.0
  0
VERTEX
  5
15F91
  8
0
 10
261.3028057503776722
 20
226.6101175655686006
 30
0.0
  0
VERTEX
  5
15F92
  8
0
 10
261.2815427288970227
 20
226.5386655930666109
 30
0.0
  0
VERTEX
  5
15F93
  8
0
 10
261.2592211444058989
 20
226.467513228908814
 30
0.0
  0
VERTEX
  5
15F94
  8
0
 10
261.2358516612038102
 20
226.3966985266623908
 30
0.0
  0
VERTEX
  5
15F95
  8
0
 10
261.2114449435900951
 20
226.3262595398950054
 30
0.0
  0
VERTEX
  5
15F96
  8
0
 10
261.186011655863922
 20
226.2562343221738956
 30
0.0
  0
VERTEX
  5
15F97
  8
0
 10
261.1595624623249137
 20
226.1866609270666117
 30
0.0
  0
VERTEX
  5
15F98
  8
0
 10
261.1321080272718973
 20
226.1175774081405052
 30
0.0
  0
VERTEX
  5
15F99
  8
0
 10
261.1036598044807988
 20
226.0490208538400054
 30
0.0
  0
VERTEX
  5
15F9A
  8
0
 10
261.0742431322868811
 20
225.980998132539014
 30
0.0
  0
VERTEX
  5
15F9B
  8
0
 10
261.0438664036132081
 20
225.9135039770359015
 30
0.0
  0
VERTEX
  5
15F9C
  8
0
 10
261.0125299360955182
 20
225.8465382233395076
 30
0.0
  0
VERTEX
  5
15F9D
  8
0
 10
260.9802340473698905
 20
225.7801007074585016
 30
0.0
  0
VERTEX
  5
15F9E
  8
0
 10
260.9469790550726884
 20
225.7141912654018086
 30
0.0
  0
VERTEX
  5
15F9F
  8
0
 10
260.912765276839707
 20
225.6488097331782114
 30
0.0
  0
VERTEX
  5
15FA0
  8
0
 10
260.8775930303074801
 20
225.5839559467962943
 30
0.0
  0
VERTEX
  5
15FA1
  8
0
 10
260.8414626331115755
 20
225.5196297422650105
 30
0.0
  0
VERTEX
  5
15FA2
  8
0
 10
260.8043744028888113
 20
225.4558309555931999
 30
0.0
  0
VERTEX
  5
15FA3
  8
0
 10
260.7663286572745847
 20
225.3925594227893896
 30
0.0
  0
VERTEX
  5
15FA4
  8
0
 10
260.7273257139053726
 20
225.3298149798627037
 30
0.0
  0
VERTEX
  5
15FA5
  8
0
 10
260.6873658904170838
 20
225.2675974628216125
 30
0.0
  0
VERTEX
  5
15FA6
  8
0
 10
260.6464495044460818
 20
225.2059067076748988
 30
0.0
  0
VERTEX
  5
15FA7
  8
0
 10
260.604548269361203
 20
225.1447174508182059
 30
0.0
  0
VERTEX
  5
15FA8
  8
0
 10
260.5616459009099231
 20
225.0840283524227914
 30
0.0
  0
VERTEX
  5
15FA9
  8
0
 10
260.5177913806974743
 20
225.023904746139209
 30
0.0
  0
VERTEX
  5
15FAA
  8
0
 10
260.4730344026742728
 20
224.9644126502043946
 30
0.0
  0
VERTEX
  5
15FAB
  8
0
 10
260.4274246607903933
 20
224.9056180828551135
 30
0.0
  0
VERTEX
  5
15FAC
  8
0
 10
260.3810118489960246
 20
224.8475870623286141
 30
0.0
  0
VERTEX
  5
15FAD
  8
0
 10
260.3338452354906281
 20
224.7903845755147927
 30
0.0
  0
VERTEX
  5
15FAE
  8
0
 10
260.2859478156445903
 20
224.7340219857942998
 30
0.0
  0
VERTEX
  5
15FAF
  8
0
 10
260.2373200193546268
 20
224.6784839171621115
 30
0.0
  0
VERTEX
  5
15FB0
  8
0
 10
260.187965169096401
 20
224.6237666916117917
 30
0.0
  0
VERTEX
  5
15FB1
  8
0
 10
260.1378865873462018
 20
224.5698666311371028
 30
0.0
  0
VERTEX
  5
15FB2
  8
0
 10
260.087087596579579
 20
224.5167800577314949
 30
0.0
  0
VERTEX
  5
15FB3
  8
0
 10
260.0355715192728212
 20
224.4645032933885034
 30
0.0
  0
VERTEX
  5
15FB4
  8
0
 10
259.9833382821162786
 20
224.4130295021604127
 30
0.0
  0
VERTEX
  5
15FB5
  8
0
 10
259.9303719165368989
 20
224.362339890766691
 30
0.0
  0
VERTEX
  5
15FB6
  8
0
 10
259.8766751185859221
 20
224.3124374171090096
 30
0.0
  0
VERTEX
  5
15FB7
  8
0
 10
259.8222541005065978
 20
224.2633286228499117
 30
0.0
  0
VERTEX
  5
15FB8
  8
0
 10
259.7671150745421187
 20
224.2150200496517982
 30
0.0
  0
VERTEX
  5
15FB9
  8
0
 10
259.7112642529360755
 20
224.1675182391774968
 30
0.0
  0
VERTEX
  5
15FBA
  8
0
 10
259.6547078479317747
 20
224.1208297330894084
 30
0.0
  0
VERTEX
  5
15FBB
  8
0
 10
259.597452071772409
 20
224.0749610730501047
 30
0.0
  0
VERTEX
  5
15FBC
  8
0
 10
259.5395031367015122
 20
224.0299188007222995
 30
0.0
  0
VERTEX
  5
15FBD
  8
0
 10
259.480867254962277
 20
223.9857094577683085
 30
0.0
  0
VERTEX
  5
15FBE
  8
0
 10
259.4215506387981236
 20
223.9423395858509025
 30
0.0
  0
VERTEX
  5
15FBF
  8
0
 10
259.3615595004524721
 20
223.8998157266327951
 30
0.0
  0
VERTEX
  5
15FC0
  8
0
 10
259.3009000521685721
 20
223.8581444217761884
 30
0.0
  0
VERTEX
  5
15FC1
  8
0
 10
259.2395803571649253
 20
223.8173333530492926
 30
0.0
  0
VERTEX
  5
15FC2
  8
0
 10
259.1777500581155209
 20
223.7774757833404067
 30
0.0
  0
VERTEX
  5
15FC3
  8
0
 10
259.1155021540631083
 20
223.7386249918058923
 30
0.0
  0
VERTEX
  5
15FC4
  8
0
 10
259.0528383742062033
 20
223.700777057350507
 30
0.0
  0
VERTEX
  5
15FC5
  8
0
 10
258.9897604477438904
 20
223.6639280588790939
 30
0.0
  0
VERTEX
  5
15FC6
  8
0
 10
258.9262701038746854
 20
223.6280740752966096
 30
0.0
  0
VERTEX
  5
15FC7
  8
0
 10
258.862369071797275
 20
223.5932111855076982
 30
0.0
  0
VERTEX
  5
15FC8
  8
0
 10
258.7980590807106864
 20
223.559335468417089
 30
0.0
  0
VERTEX
  5
15FC9
  8
0
 10
258.7333418598133221
 20
223.5264430029299092
 30
0.0
  0
VERTEX
  5
15FCA
  8
0
 10
258.6682191383039822
 20
223.4945298679506891
 30
0.0
  0
VERTEX
  5
15FCB
  8
0
 10
258.6026926453814099
 20
223.4635921423844138
 30
0.0
  0
VERTEX
  5
15FCC
  8
0
 10
258.5367641102441212
 20
223.4336259051358127
 30
0.0
  0
VERTEX
  5
15FCD
  8
0
 10
258.4704352620913141
 20
223.4046272351097002
 30
0.0
  0
VERTEX
  5
15FCE
  8
0
 10
258.4037078301212773
 20
223.3765922112110047
 30
0.0
  0
VERTEX
  5
15FCF
  8
0
 10
258.3365569077167265
 20
223.3495146452262077
 30
0.0
  0
VERTEX
  5
15FD0
  8
0
 10
258.2689339585796233
 20
223.3233915899002966
 30
0.0
  0
VERTEX
  5
15FD1
  8
0
 10
258.2008665320936984
 20
223.2982315046849919
 30
0.0
  0
VERTEX
  5
15FD2
  8
0
 10
258.1323854401222775
 20
223.2740432339070082
 30
0.0
  0
VERTEX
  5
15FD3
  8
0
 10
258.0635214945281746
 20
223.2508356218936001
 30
0.0
  0
VERTEX
  5
15FD4
  8
0
 10
257.9943055071748859
 20
223.2286175129713115
 30
0.0
  0
VERTEX
  5
15FD5
  8
0
 10
257.9247682899253959
 20
223.2073977514671981
 30
0.0
  0
VERTEX
  5
15FD6
  8
0
 10
257.8549406546429168
 20
223.1871851817080028
 30
0.0
  0
VERTEX
  5
15FD7
  8
0
 10
257.7848534131907741
 20
223.1679886480208097
 30
0.0
  0
VERTEX
  5
15FD8
  8
0
 10
257.7145373774320092
 20
223.1498169947323902
 30
0.0
  0
VERTEX
  5
15FD9
  8
0
 10
257.6440233592297204
 20
223.1326790661696862
 30
0.0
  0
VERTEX
  5
15FDA
  8
0
 10
257.5733421704470061
 20
223.1165837066596112
 30
0.0
  0
VERTEX
  5
15FDB
  8
0
 10
257.5025246229474192
 20
223.1015397605289081
 30
0.0
  0
VERTEX
  5
15FDC
  8
0
 10
257.4315998764204778
 20
223.0875537613272002
 30
0.0
  0
VERTEX
  5
15FDD
  8
0
 10
257.3605718006630241
 20
223.0746077063803057
 30
0.0
  0
VERTEX
  5
15FDE
  8
0
 10
257.2894378802632218
 20
223.0626959742147051
 30
0.0
  0
VERTEX
  5
15FDF
  8
0
 10
257.2181981879325008
 20
223.0518188018097021
 30
0.0
  0
VERTEX
  5
15FE0
  8
0
 10
257.1468527963821771
 20
223.0419764261444016
 30
0.0
  0
VERTEX
  5
15FE1
  8
0
 10
257.0754017783240784
 20
223.0331690841977945
 30
0.0
  0
VERTEX
  5
15FE2
  8
0
 10
257.0038452064695207
 20
223.0253970129492131
 30
0.0
  0
VERTEX
  5
15FE3
  8
0
 10
256.9321831535297065
 20
223.0186604493777054
 30
0.0
  0
VERTEX
  5
15FE4
  8
0
 10
256.8604156922165203
 20
223.0129596304624044
 30
0.0
  0
VERTEX
  5
15FE5
  8
0
 10
256.7885428952409939
 20
223.0082947931826141
 30
0.0
  0
VERTEX
  5
15FE6
  8
0
 10
256.7165648353148981
 20
223.0046661745172969
 30
0.0
  0
VERTEX
  5
15FE7
  8
0
 10
256.6444815851494923
 20
223.0020740114455862
 30
0.0
  0
VERTEX
  5
15FE8
  8
0
 10
256.5722932174563766
 20
223.0005185409468993
 30
0.0
  0
VERTEX
  5
15FE9
  8
0
 10
256.4999998049469241
 20
223.0
 30
0.0
  0
SEQEND
  5
15FEA
  8
0
  0
POLYLINE
  5
14E92
  8
0
 66
     1
 10
0.0
 20
0.0
 30
0.0
  0
VERTEX
  5
15FEB
  8
0
 10
256.4999999999998863
 20
267.0
 30
0.0
  0
VERTEX
  5
15FEC
  8
0
 10
256.5650133530970152
 20
266.9995806985565991
 30
0.0
  0
VERTEX
  5
15FED
  8
0
 10
256.6299111676439111
 20
266.9983236903137822
 30
0.0
  0
VERTEX
  5
15FEE
  8
0
 10
256.694693560978294
 20
266.9962303194029118
 30
0.0
  0
VERTEX
  5
15FEF
  8
0
 10
256.7593606504378272
 20
266.9933019299551802
 30
0.0
  0
VERTEX
  5
15FF0
  8
0
 10
256.8239125533601737
 20
266.9895398661017794
 30
0.0
  0
VERTEX
  5
15FF1
  8
0
 10
256.8883493870828261
 20
266.9849454719744131
 30
0.0
  0
VERTEX
  5
15FF2
  8
0
 10
256.9526712689436749
 20
266.9795200917035913
 30
0.0
  0
VERTEX
  5
15FF3
  8
0
 10
257.0168783162802129
 20
266.9732650694214158
 30
0.0
  0
VERTEX
  5
15FF4
  8
0
 10
257.0809706464302735
 20
266.9661817492585101
 30
0.0
  0
VERTEX
  5
15FF5
  8
0
 10
257.1449483767314064
 20
266.9582714753464074
 30
0.0
  0
VERTEX
  5
15FF6
  8
0
 10
257.2088116245212177
 20
266.9495355918164137
 30
0.0
  0
VERTEX
  5
15FF7
  8
0
 10
257.2725605071373138
 20
266.9399754427996072
 30
0.0
  0
VERTEX
  5
15FF8
  8
0
 10
257.3361951419174147
 20
266.9295923724272939
 30
0.0
  0
VERTEX
  5
15FF9
  8
0
 10
257.3997156461992972
 20
266.9183877248311205
 30
0.0
  0
VERTEX
  5
15FFA
  8
0
 10
257.463122130950012
 20
266.9063627987928271
 30
0.0
  0
VERTEX
  5
15FFB
  8
0
 10
257.5264140776915269
 20
266.893514419112023
 30
0.0
  0
VERTEX
  5
15FFC
  8
0
 10
257.5895907170752253
 20
266.8798376459661768
 30
0.0
  0
VERTEX
  5
15FFD
  8
0
 10
257.6526515078700754
 20
266.8653291675051946
 30
0.0
  0
VERTEX
  5
15FFE
  8
0
 10
257.7155959088461259
 20
266.8499856718785281
 30
0.0
  0
VERTEX
  5
15FFF
  8
0
 10
257.7784233787730273
 20
266.833803847235572
 30
0.0
  0
VERTEX
  5
16000
  8
0
 10
257.841133376420089
 20
266.8167803817260051
 30
0.0
  0
VERTEX
  5
16001
  8
0
 10
257.9037253605567912
 20
266.7989119634992221
 30
0.0
  0
VERTEX
  5
16002
  8
0
 10
257.966214035795872
 20
266.7801875470054256
 30
0.0
  0
VERTEX
  5
16003
  8
0
 10
258.0286189119544815
 20
266.7605904872287965
 30
0.0
  0
VERTEX
  5
16004
  8
0
 10
258.0908885738675167
 20
266.7401367251641773
 30
0.0
  0
VERTEX
  5
16005
  8
0
 10
258.1529675625585014
 20
266.7188441446601246
 30
0.0
  0
VERTEX
  5
16006
  8
0
 10
258.2148004190515849
 20
266.6967306295650246
 30
0.0
  0
VERTEX
  5
16007
  8
0
 10
258.2763316843701773
 20
266.6738140637276047
 30
0.0
  0
VERTEX
  5
16008
  8
0
 10
258.3375058995382005
 20
266.6501123309964214
 30
0.0
  0
VERTEX
  5
16009
  8
0
 10
258.398269711201408
 20
266.6256431468144115
 30
0.0
  0
VERTEX
  5
1600A
  8
0
 10
258.4586283874095898
 20
266.6004159939341775
 30
0.0
  0
VERTEX
  5
1600B
  8
0
 10
258.5185955434055245
 20
266.5744308978711956
 30
0.0
  0
VERTEX
  5
1600C
  8
0
 10
258.5781710290341948
 20
266.5476877091680876
 30
0.0
  0
VERTEX
  5
1600D
  8
0
 10
258.6373546941412087
 20
266.5201862783681008
 30
0.0
  0
VERTEX
  5
1600E
  8
0
 10
258.6961463885717762
 20
266.4919264560140846
 30
0.0
  0
VERTEX
  5
1600F
  8
0
 10
258.7545459621713917
 20
266.4629080926490019
 30
0.0
  0
VERTEX
  5
16010
  8
0
 10
258.8125532647850946
 20
266.4331310388159864
 30
0.0
  0
VERTEX
  5
16011
  8
0
 10
258.8701681462586066
 20
266.4025951450577736
 30
0.0
  0
VERTEX
  5
16012
  8
0
 10
258.9273904564369104
 20
266.3713002619174972
 30
0.0
  0
VERTEX
  5
16013
  8
0
 10
258.984220045165614
 20
266.3392462399381202
 30
0.0
  0
VERTEX
  5
16014
  8
0
 10
259.0406567622898137
 20
266.3064329296624919
 30
0.0
  0
VERTEX
  5
16015
  8
0
 10
259.0967004576551176
 20
266.2728601816335754
 30
0.0
  0
VERTEX
  5
16016
  8
0
 10
259.1523509811066788
 20
266.2385278463946747
 30
0.0
  0
VERTEX
  5
16017
  8
0
 10
259.2076081824898779
 20
266.2034357744884119
 30
0.0
  0
VERTEX
  5
16018
  8
0
 10
259.2624758809146783
 20
266.1675787428990247
 30
0.0
  0
VERTEX
  5
16019
  8
0
 10
259.3169875994635731
 20
266.1309094151395129
 30
0.0
  0
VERTEX
  5
1601A
  8
0
 10
259.371131120444204
 20
266.0934307671078045
 30
0.0
  0
VERTEX
  5
1601B
  8
0
 10
259.4248815922629774
 20
266.0551610669858178
 30
0.0
  0
VERTEX
  5
1601C
  8
0
 10
259.4782141633260721
 20
266.0161185829556985
 30
0.0
  0
VERTEX
  5
1601D
  8
0
 10
259.5311039820397809
 20
265.976321583199308
 30
0.0
  0
VERTEX
  5
1601E
  8
0
 10
259.5835261968105101
 20
265.9357883358990762
 30
0.0
  0
VERTEX
  5
1601F
  8
0
 10
259.6354559560443818
 20
265.8945371092365804
 30
0.0
  0
VERTEX
  5
16020
  8
0
 10
259.6868684081478023
 20
265.8525861713943073
 30
0.0
  0
VERTEX
  5
16021
  8
0
 10
259.73773870152678
 20
265.8099537905540046
 30
0.0
  0
VERTEX
  5
16022
  8
0
 10
259.7880419845877782
 20
265.7666582348979887
 30
0.0
  0
VERTEX
  5
16023
  8
0
 10
259.8377534057370895
 20
265.7227177726078935
 30
0.0
  0
VERTEX
  5
16024
  8
0
 10
259.8868481133807791
 20
265.6781506718662058
 30
0.0
  0
VERTEX
  5
16025
  8
0
 10
259.9353012559254807
 20
265.6329752008546734
 30
0.0
  0
VERTEX
  5
16026
  8
0
 10
259.9830879817770892
 20
265.5872096277553851
 30
0.0
  0
VERTEX
  5
16027
  8
0
 10
260.0301919508257242
 20
265.5408692010428808
 30
0.0
  0
VERTEX
  5
16028
  8
0
 10
260.0766482636208821
 20
265.493946835692725
 30
0.0
  0
VERTEX
  5
16029
  8
0
 10
260.1224632816702069
 20
265.4464392908373043
 30
0.0
  0
VERTEX
  5
1602A
  8
0
 10
260.1676358420240831
 20
265.3983455414327182
 30
0.0
  0
VERTEX
  5
1602B
  8
0
 10
260.2121647817332928
 20
265.3496645624348957
 30
0.0
  0
VERTEX
  5
1602C
  8
0
 10
260.2560489378483908
 20
265.3003953287999934
 30
0.0
  0
VERTEX
  5
1602D
  8
0
 10
260.2992871474202161
 20
265.2505368154839971
 30
0.0
  0
VERTEX
  5
1602E
  8
0
 10
260.341878247498812
 20
265.2000879974427789
 30
0.0
  0
VERTEX
  5
1602F
  8
0
 10
260.3838210751353017
 20
265.1490478496323249
 30
0.0
  0
VERTEX
  5
16030
  8
0
 10
260.4251144673801264
 20
265.0974153470087913
 30
0.0
  0
VERTEX
  5
16031
  8
0
 10
260.4657572612838976
 20
265.0451894645282778
 30
0.0
  0
VERTEX
  5
16032
  8
0
 10
260.5057482938973976
 20
264.9923691771463723
 30
0.0
  0
VERTEX
  5
16033
  8
0
 10
260.5450864022707833
 20
264.9389534598195723
 30
0.0
  0
VERTEX
  5
16034
  8
0
 10
260.5837704234551779
 20
264.8849412875035227
 30
0.0
  0
VERTEX
  5
16035
  8
0
 10
260.6217991945010795
 20
264.8303316351543799
 30
0.0
  0
VERTEX
  5
16036
  8
0
 10
260.6591769627822828
 20
264.7751080417987168
 30
0.0
  0
VERTEX
  5
16037
  8
0
 10
260.695908315573206
 20
264.7192358051585188
 30
0.0
  0
VERTEX
  5
16038
  8
0
 10
260.7319616576298813
 20
264.6627624006367228
 30
0.0
  0
VERTEX
  5
16039
  8
0
 10
260.767302668871082
 20
264.6057421579478728
 30
0.0
  0
VERTEX
  5
1603A
  8
0
 10
260.8018970292159793
 20
264.5482294068066267
 30
0.0
  0
VERTEX
  5
1603B
  8
0
 10
260.8357104185835169
 20
264.4902784769275854
 30
0.0
  0
VERTEX
  5
1603C
  8
0
 10
260.8687085168928093
 20
264.4319436980252931
 30
0.0
  0
VERTEX
  5
1603D
  8
0
 10
260.9008578359644162
 20
264.3732784667702731
 30
0.0
  0
VERTEX
  5
1603E
  8
0
 10
260.9321634975426036
 20
264.3142899207064147
 30
0.0
  0
VERTEX
  5
1603F
  8
0
 10
260.9626392511892732
 20
264.2549672858600047
 30
0.0
  0
VERTEX
  5
16040
  8
0
 10
260.9922872367424134
 20
264.1953114261232258
 30
0.0
  0
VERTEX
  5
16041
  8
0
 10
261.0211095940401833
 20
264.1353232053879765
 30
0.0
  0
VERTEX
  5
16042
  8
0
 10
261.049108462920799
 20
264.0750034875459846
 30
0.0
  0
VERTEX
  5
16043
  8
0
 10
261.0762859832220784
 20
264.0143531364892056
 30
0.0
  0
VERTEX
  5
16044
  8
0
 10
261.102644294782408
 20
263.9533730161097083
 30
0.0
  0
VERTEX
  5
16045
  8
0
 10
261.1281883753940747
 20
263.8920573125072906
 30
0.0
  0
VERTEX
  5
16046
  8
0
 10
261.1529242101224781
 20
263.8303924338295019
 30
0.0
  0
VERTEX
  5
16047
  8
0
 10
261.1768482594530951
 20
263.7683821231321986
 30
0.0
  0
VERTEX
  5
16048
  8
0
 10
261.1999566054403772
 20
263.7060309035653063
 30
0.0
  0
VERTEX
  5
16049
  8
0
 10
261.2222453301391738
 20
263.6433432982790919
 30
0.0
  0
VERTEX
  5
1604A
  8
0
 10
261.243710515604505
 20
263.5803238304238221
 30
0.0
  0
VERTEX
  5
1604B
  8
0
 10
261.2643482438908791
 20
263.5169770231490816
 30
0.0
  0
VERTEX
  5
1604C
  8
0
 10
261.284154597053373
 20
263.4533073996055919
 30
0.0
  0
VERTEX
  5
1604D
  8
0
 10
261.3031256571467225
 20
263.3893194829429945
 30
0.0
  0
VERTEX
  5
1604E
  8
0
 10
261.3212575062254928
 20
263.3250177963117835
 30
0.0
  0
VERTEX
  5
1604F
  8
0
 10
261.3385462263448176
 20
263.2604068628617142
 30
0.0
  0
VERTEX
  5
16050
  8
0
 10
261.3549878995592053
 20
263.1954912057428828
 30
0.0
  0
VERTEX
  5
16051
  8
0
 10
261.3705786079236759
 20
263.1302753481056129
 30
0.0
  0
VERTEX
  5
16052
  8
0
 10
261.3853144334929084
 20
263.0647638130998871
 30
0.0
  0
VERTEX
  5
16053
  8
0
 10
261.3991914583219227
 20
262.9989611238758016
 30
0.0
  0
VERTEX
  5
16054
  8
0
 10
261.4121926797283209
 20
262.9329488334292932
 30
0.0
  0
VERTEX
  5
16055
  8
0
 10
261.4242957966715153
 20
262.8668514512634147
 30
0.0
  0
VERTEX
  5
16056
  8
0
 10
261.4355007872431997
 20
262.8006705913211931
 30
0.0
  0
VERTEX
  5
16057
  8
0
 10
261.4458079074403258
 20
262.7344062838072887
 30
0.0
  0
VERTEX
  5
16058
  8
0
 10
261.4552174132599021
 20
262.6680585589264183
 30
0.0
  0
VERTEX
  5
16059
  8
0
 10
261.4637295606985958
 20
262.6016274468836968
 30
0.0
  0
VERTEX
  5
1605A
  8
0
 10
261.4713446057534156
 20
262.5351129778837276
 30
0.0
  0
VERTEX
  5
1605B
  8
0
 10
261.4780628044213131
 20
262.4685151821312274
 30
0.0
  0
VERTEX
  5
1605C
  8
0
 10
261.4838844126990125
 20
262.4018340898313113
 30
0.0
  0
VERTEX
  5
1605D
  8
0
 10
261.4888096865835223
 20
262.3350697311884119
 30
0.0
  0
VERTEX
  5
1605E
  8
0
 10
261.4928388820719078
 20
262.2682221364074735
 30
0.0
  0
VERTEX
  5
1605F
  8
0
 10
261.4959722551607229
 20
262.2012913356933836
 30
0.0
  0
VERTEX
  5
16060
  8
0
 10
261.4982100618470895
 20
262.1342773592509729
 30
0.0
  0
VERTEX
  5
16061
  8
0
 10
261.4995525581277889
 20
262.0671802372849015
 30
0.0
  0
VERTEX
  5
16062
  8
0
 10
261.4999999999998863
 20
262.0
 30
0.0
  0
SEQEND
  5
16063
  8
0
  0
POLYLINE
  5
14E93
  8
0
 66
     1
 10
0.0
 20
0.0
 30
0.0
  0
VERTEX
  5
16064
  8
0
 10
256.4999999999998863
 20
267.0
 30
0.0
  0
VERTEX
  5
16065
  8
0
 10
255.8639893194740864
 20
267.0
 30
0.0
  0
VERTEX
  5
16066
  8
0
 10
255.2279149462910937
 20
267.0
 30
0.0
  0
VERTEX
  5
16067
  8
0
 10
254.5917745809476003
 20
267.0
 30
0.0
  0
VERTEX
  5
16068
  8
0
 10
253.9555659239399006
 20
267.0000000000001137
 30
0.0
  0
VERTEX
  5
16069
  8
0
 10
253.3192866757646016
 20
267.0000000000001137
 30
0.0
  0
VERTEX
  5
1606A
  8
0
 10
252.6829345369183102
 20
267.0000000000001137
 30
0.0
  0
VERTEX
  5
1606B
  8
0
 10
252.0465072078974913
 20
267.0000000000001137
 30
0.0
  0
VERTEX
  5
1606C
  8
0
 10
251.4100023891988087
 20
267.0000000000001137
 30
0.0
  0
VERTEX
  5
1606D
  8
0
 10
250.7734177813186136
 20
267.0000000000001137
 30
0.0
  0
VERTEX
  5
1606E
  8
0
 10
250.1367510847533993
 20
267.0
 30
0.0
  0
VERTEX
  5
1606F
  8
0
 10
249.4999999999998863
 20
267.0
 30
0.0
  0
SEQEND
  5
16070
  8
0
  0
POLYLINE
  5
14E94
  8
0
 66
     1
 10
0.0
 20
0.0
 30
0.0
  0
VERTEX
  5
16071
  8
0
 10
249.4999999999998863
 20
267.0
 30
0.0
  0
VERTEX
  5
16072
  8
0
 10
249.4349802766247137
 20
267.0004193223583115
 30
0.0
  0
VERTEX
  5
16073
  8
0
 10
249.3700721661880095
 20
267.0016765278435855
 30
0.0
  0
VERTEX
  5
16074
  8
0
 10
249.305275429084702
 20
267.0037704740723257
 30
0.0
  0
VERTEX
  5
16075
  8
0
 10
249.2405898257092076
 20
267.0067000186604105
 30
0.0
  0
VERTEX
  5
16076
  8
0
 10
249.1760151164567958
 20
267.0104640192240026
 30
0.0
  0
VERTEX
  5
16077
  8
0
 10
249.1115510617221958
 20
267.0150613333793217
 30
0.0
  0
VERTEX
  5
16078
  8
0
 10
249.0471974219003926
 20
267.0204908187424735
 30
0.0
  0
VERTEX
  5
16079
  8
0
 10
248.9829539573860018
 20
267.0267513329292797
 30
0.0
  0
VERTEX
  5
1607A
  8
0
 10
248.9188204285740937
 20
267.0338417335565282
 30
0.0
  0
VERTEX
  5
1607B
  8
0
 10
248.8547965958595114
 20
267.0417608782396997
 30
0.0
  0
VERTEX
  5
1607C
  8
0
 10
248.7908822196370124
 20
267.0505076245951841
 30
0.0
  0
VERTEX
  5
1607D
  8
0
 10
248.7270770603016103
 20
267.0600808302390874
 30
0.0
  0
VERTEX
  5
1607E
  8
0
 10
248.663380878247807
 20
267.0704793527875722
 30
0.0
  0
VERTEX
  5
1607F
  8
0
 10
248.5997934338709001
 20
267.081702049856915
 30
0.0
  0
VERTEX
  5
16080
  8
0
 10
248.5363144935463993
 20
267.0937478252113806
 30
0.0
  0
VERTEX
  5
16081
  8
0
 10
248.4729444139875056
 20
267.1066201471423938
 30
0.0
  0
VERTEX
  5
16082
  8
0
 10
248.4096837855587978
 20
267.1203243161527894
 30
0.0
  0
VERTEX
  5
16083
  8
0
 10
248.3465329841012021
 20
267.1348639830943057
 30
0.0
  0
VERTEX
  5
16084
  8
0
 10
248.2834923854566114
 20
267.1502427988187947
 30
0.0
  0
VERTEX
  5
16085
  8
0
 10
248.220562365466094
 20
267.1664644141782219
 30
0.0
  0
VERTEX
  5
16086
  8
0
 10
248.157743299970889
 20
267.1835324800240983
 30
0.0
  0
VERTEX
  5
16087
  8
0
 10
248.0950355648126049
 20
267.2014506472083895
 30
0.0
  0
VERTEX
  5
16088
  8
0
 10
248.0324260768929889
 20
267.2202298391608792
 30
0.0
  0
VERTEX
  5
16089
  8
0
 10
247.9699011447287944
 20
267.2398852375602019
 30
0.0
  0
VERTEX
  5
1608A
  8
0
 10
247.9075135867840061
 20
267.2604003004288984
 30
0.0
  0
VERTEX
  5
1608B
  8
0
 10
247.8453199159845042
 20
267.2817566242324006
 30
0.0
  0
VERTEX
  5
1608C
  8
0
 10
247.7833766452565953
 20
267.3039358054364243
 30
0.0
  0
VERTEX
  5
1608D
  8
0
 10
247.7217402875259893
 20
267.326919440506515
 30
0.0
  0
VERTEX
  5
1608E
  8
0
 10
247.6604673557189074
 20
267.3506891259079907
 30
0.0
  0
VERTEX
  5
1608F
  8
0
 10
247.5996118772671934
 20
267.3752267661935207
 30
0.0
  0
VERTEX
  5
16090
  8
0
 10
247.5391610067007093
 20
267.4005256497308096
 30
0.0
  0
VERTEX
  5
16091
  8
0
 10
247.4790978097022958
 20
267.4265872464904987
 30
0.0
  0
VERTEX
  5
16092
  8
0
 10
247.4194224374915905
 20
267.4534120227061749
 30
0.0
  0
VERTEX
  5
16093
  8
0
 10
247.3601350412874922
 20
267.4810004446114817
 30
0.0
  0
VERTEX
  5
16094
  8
0
 10
247.3012357723098091
 20
267.5093529784397788
 30
0.0
  0
VERTEX
  5
16095
  8
0
 10
247.2427247817776959
 20
267.5384700904248803
 30
0.0
  0
VERTEX
  5
16096
  8
0
 10
247.1846022209105058
 20
267.5683522468002025
 30
0.0
  0
VERTEX
  5
16097
  8
0
 10
247.1268682409277062
 20
267.5989999137993891
 30
0.0
  0
VERTEX
  5
16098
  8
0
 10
247.0695229930487926
 20
267.630413557656027
 30
0.0
  0
VERTEX
  5
16099
  8
0
 10
247.0125666284926922
 20
267.6625936446035894
 30
0.0
  0
VERTEX
  5
1609A
  8
0
 10
246.9559992984790995
 20
267.6955406408757767
 30
0.0
  0
VERTEX
  5
1609B
  8
0
 10
246.8998211542273111
 20
267.729255012706119
 30
0.0
  0
VERTEX
  5
1609C
  8
0
 10
246.844032346956908
 20
267.7637372263282032
 30
0.0
  0
VERTEX
  5
1609D
  8
0
 10
246.7886330278867888
 20
267.7989877479755023
 30
0.0
  0
VERTEX
  5
1609E
  8
0
 10
246.7336198054096883
 20
267.8350119455407139
 30
0.0
  0
VERTEX
  5
1609F
  8
0
 10
246.6789638340057991
 20
267.8718553127508244
 30
0.0
  0
VERTEX
  5
160A0
  8
0
 10
246.6246791774048006
 20
267.9095136326154147
 30
0.0
  0
VERTEX
  5
160A1
  8
0
 10
246.5707913946797021
 20
267.9479677981250916
 30
0.0
  0
VERTEX
  5
160A2
  8
0
 10
246.5173260449037116
 20
267.9871987022702911
 30
0.0
  0
VERTEX
  5
160A3
  8
0
 10
246.4643086871496962
 20
268.0271872380416198
 30
0.0
  0
VERTEX
  5
160A4
  8
0
 10
246.4117648804908924
 20
268.0679142984296845
 30
0.0
  0
VERTEX
  5
160A5
  8
0
 10
246.3597201839999968
 20
268.1093607764250919
 30
0.0
  0
VERTEX
  5
160A6
  8
0
 10
246.3082001567503028
 20
268.1515075650183917
 30
0.0
  0
VERTEX
  5
160A7
  8
0
 10
246.2572303578147057
 20
268.19433555720002
 30
0.0
  0
VERTEX
  5
160A8
  8
0
 10
246.2068363462663001
 20
268.2378256459605836
 30
0.0
  0
VERTEX
  5
160A9
  8
0
 10
246.1570436811780951
 20
268.2819587242909165
 30
0.0
  0
VERTEX
  5
160AA
  8
0
 10
246.1078779216232988
 20
268.3267156851812274
 30
0.0
  0
VERTEX
  5
160AB
  8
0
 10
246.059364626674693
 20
268.3720774216221798
 30
0.0
  0
VERTEX
  5
160AC
  8
0
 10
246.0115293554052869
 20
268.4180248266044941
 30
0.0
  0
VERTEX
  5
160AD
  8
0
 10
245.9643877461018064
 20
268.4645430190290085
 30
0.0
  0
VERTEX
  5
160AE
  8
0
 10
245.9178967181551911
 20
268.5116458506681738
 30
0.0
  0
VERTEX
  5
160AF
  8
0
 10
245.8720486160561904
 20
268.5593378711259902
 30
0.0
  0
VERTEX
  5
160B0
  8
0
 10
245.8268446923090096
 20
268.6076202489089724
 30
0.0
  0
VERTEX
  5
160B1
  8
0
 10
245.7822861994173138
 20
268.6564941525238055
 30
0.0
  0
VERTEX
  5
160B2
  8
0
 10
245.7383743898847115
 20
268.7059607504771179
 30
0.0
  0
VERTEX
  5
160B3
  8
0
 10
245.6951105162152942
 20
268.7560212112754812
 30
0.0
  0
VERTEX
  5
160B4
  8
0
 10
245.6524958309128124
 20
268.8066767034256941
 30
0.0
  0
VERTEX
  5
160B5
  8
0
 10
245.6105315864809029
 20
268.8579283954344987
 30
0.0
  0
VERTEX
  5
160B6
  8
0
 10
245.5692190354234015
 20
268.9097774558082961
 30
0.0
  0
VERTEX
  5
160B7
  8
0
 10
245.5285594302443997
 20
268.9622250530538281
 30
0.0
  0
VERTEX
  5
160B8
  8
0
 10
245.4885540234473922
 20
269.0152723556776095
 30
0.0
  0
VERTEX
  5
160B9
  8
0
 10
245.4492040675361864
 20
269.0689205321863824
 30
0.0
  0
VERTEX
  5
160BA
  8
0
 10
245.4105108150147032
 20
269.1231707510870024
 30
0.0
  0
VERTEX
  5
160BB
  8
0
 10
245.3724755183868922
 20
269.1780241808858136
 30
0.0
  0
VERTEX
  5
160BC
  8
0
 10
245.3350989027505022
 20
269.2334901837817256
 30
0.0
  0
VERTEX
  5
160BD
  8
0
 10
245.2983941103645975
 20
269.2895760063988746
 30
0.0
  0
VERTEX
  5
160BE
  8
0
 10
245.2623929867093011
 20
269.3462308923473074
 30
0.0
  0
VERTEX
  5
160BF
  8
0
 10
245.2271283059191092
 20
269.4033998185170731
 30
0.0
  0
VERTEX
  5
160C0
  8
0
 10
245.192632842128404
 20
269.4610277617975953
 30
0.0
  0
VERTEX
  5
160C1
  8
0
 10
245.1589393694717103
 20
269.5190596990789231
 30
0.0
  0
VERTEX
  5
160C2
  8
0
 10
245.1260806620834956
 20
269.5774406072508214
 30
0.0
  0
VERTEX
  5
160C3
  8
0
 10
245.0940883526654943
 20
269.6361169809750891
 30
0.0
  0
VERTEX
  5
160C4
  8
0
 10
245.0629446468099957
 20
269.6951028536159924
 30
0.0
  0
VERTEX
  5
160C5
  8
0
 10
245.0326298011268022
 20
269.7544199081552279
 30
0.0
  0
VERTEX
  5
160C6
  8
0
 10
245.0031416629323076
 20
269.8140672867749004
 30
0.0
  0
VERTEX
  5
160C7
  8
0
 10
244.974478079543502
 20
269.8740441316575129
 30
0.0
  0
VERTEX
  5
160C8
  8
0
 10
244.9466368982770064
 20
269.9343495849847727
 30
0.0
  0
VERTEX
  5
160C9
  8
0
 10
244.9196159664498111
 20
269.9949827889390122
 30
0.0
  0
VERTEX
  5
160CA
  8
0
 10
244.893413131378594
 20
270.0559428857022795
 30
0.0
  0
VERTEX
  5
160CB
  8
0
 10
244.8680218018427013
 20
270.1172452952098979
 30
0.0
  0
VERTEX
  5
160CC
  8
0
 10
244.8434327962272903
 20
270.1789227820261772
 30
0.0
  0
VERTEX
  5
160CD
  8
0
 10
244.8196508764027897
 20
270.2409643392247744
 30
0.0
  0
VERTEX
  5
160CE
  8
0
 10
244.7966813753866973
 20
270.3033570253688254
 30
0.0
  0
VERTEX
  5
160CF
  8
0
 10
244.7745296261965109
 20
270.3660878990215224
 30
0.0
  0
VERTEX
  5
160D0
  8
0
 10
244.7532009618498989
 20
270.4291440187458875
 30
0.0
  0
VERTEX
  5
160D1
  8
0
 10
244.7327007153641034
 20
270.4925124431056247
 30
0.0
  0
VERTEX
  5
160D2
  8
0
 10
244.7130342197567927
 20
270.5561802306633012
 30
0.0
  0
VERTEX
  5
160D3
  8
0
 10
244.6942068080450952
 20
270.6201344399827917
 30
0.0
  0
VERTEX
  5
160D4
  8
0
 10
244.6762238132469065
 20
270.684362129626777
 30
0.0
  0
VERTEX
  5
160D5
  8
0
 10
244.6590905683794972
 20
270.748850358158677
 30
0.0
  0
VERTEX
  5
160D6
  8
0
 10
244.6428124064603082
 20
270.813586184141684
 30
0.0
  0
VERTEX
  5
160D7
  8
0
 10
244.6273946605068943
 20
270.8785566661389907
 30
0.0
  0
VERTEX
  5
160D8
  8
0
 10
244.6128426635366111
 20
270.9437488627136759
 30
0.0
  0
VERTEX
  5
160D9
  8
0
 10
244.5991617485672123
 20
271.0091498324292729
 30
0.0
  0
VERTEX
  5
160DA
  8
0
 10
244.586360608224112
 20
271.07470131694879
 30
0.0
  0
VERTEX
  5
160DB
  8
0
 10
244.574446433356087
 20
271.1403258184660103
 30
0.0
  0
VERTEX
  5
160DC
  8
0
 10
244.5634186845894931
 20
271.2060223748080148
 30
0.0
  0
VERTEX
  5
160DD
  8
0
 10
244.553276738475688
 20
271.2717909823281275
 30
0.0
  0
VERTEX
  5
160DE
  8
0
 10
244.5440199715660015
 20
271.3376316373804116
 30
0.0
  0
VERTEX
  5
160DF
  8
0
 10
244.5356477604119902
 20
271.4035443363187028
 30
0.0
  0
VERTEX
  5
160E0
  8
0
 10
244.5281594815648134
 20
271.4695290754967232
 30
0.0
  0
VERTEX
  5
160E1
  8
0
 10
244.5215545115759994
 20
271.5355858512680243
 30
0.0
  0
VERTEX
  5
160E2
  8
0
 10
244.5158322269965083
 20
271.601714659986726
 30
0.0
  0
VERTEX
  5
160E3
  8
0
 10
244.510992004378295
 20
271.6679154980062094
 30
0.0
  0
VERTEX
  5
160E4
  8
0
 10
244.5070332202724046
 20
271.7341883616804807
 30
0.0
  0
VERTEX
  5
160E5
  8
0
 10
244.5039552512303089
 20
271.8005332473632052
 30
0.0
  0
VERTEX
  5
160E6
  8
0
 10
244.5017574738031954
 20
271.8669501514082185
 30
0.0
  0
VERTEX
  5
160E7
  8
0
 10
244.500439264542706
 20
271.9334390701691859
 30
0.0
  0
VERTEX
  5
160E8
  8
0
 10
244.4999999999998863
 20
272.0
 30
0.0
  0
SEQEND
  5
160E9
  8
0
  0
POLYLINE
  5
14E95
  8
0
 66
     1
 10
0.0
 20
0.0
 30
0.0
  0
VERTEX
  5
160EA
  8
0
 10
244.4999999999998863
 20
272.0
 30
0.0
  0
VERTEX
  5
160EB
  8
0
 10
244.4999999999998863
 20
272.9115186794301735
 30
0.0
  0
VERTEX
  5
160EC
  8
0
 10
244.4999999999998863
 20
273.8225094253685938
 30
0.0
  0
VERTEX
  5
160ED
  8
0
 10
244.4999999999998863
 20
274.7329863632231195
 30
0.0
  0
VERTEX
  5
160EE
  8
0
 10
244.4999999999998863
 20
275.6429636184014953
 30
0.0
  0
VERTEX
  5
160EF
  8
0
 10
244.4999999999998863
 20
276.5524553163115797
 30
0.0
  0
VERTEX
  5
160F0
  8
0
 10
244.4999999999998863
 20
277.4614755823615724
 30
0.0
  0
VERTEX
  5
160F1
  8
0
 10
244.4999999999998863
 20
278.3700385419591044
 30
0.0
  0
VERTEX
  5
160F2
  8
0
 10
244.4999999999998863
 20
279.2781583205119773
 30
0.0
  0
VERTEX
  5
160F3
  8
0
 10
244.4999999999998863
 20
280.1858490434281066
 30
0.0
  0
VERTEX
  5
160F4
  8
0
 10
244.4999999999998863
 20
281.0931248361154076
 30
0.0
  0
VERTEX
  5
160F5
  8
0
 10
244.4999999999998863
 20
281.9999998239816819
 30
0.0
  0
SEQEND
  5
160F6
  8
0
  0
POLYLINE
  5
14E96
  8
0
 66
     1
 10
0.0
 20
0.0
 30
0.0
  0
VERTEX
  5
160F7
  8
0
 10
239.4999999999998863
 20
287.0
 30
0.0
  0
VERTEX
  5
160F8
  8
0
 10
239.5730432326338928
 20
286.9994707367841897
 30
0.0
  0
VERTEX
  5
160F9
  8
0
 10
239.6459479869436109
 20
286.9978839762164853
 30
0.0
  0
VERTEX
  5
160FA
  8
0
 10
239.7187143837464873
 20
286.9952412619174993
 30
0.0
  0
VERTEX
  5
160FB
  8
0
 10
239.7913425438603952
 20
286.9915441375068781
 30
0.0
  0
VERTEX
  5
160FC
  8
0
 10
239.8638325881030937
 20
286.9867941466051207
 30
0.0
  0
VERTEX
  5
160FD
  8
0
 10
239.9361846372925129
 20
286.980992832831987
 30
0.0
  0
VERTEX
  5
160FE
  8
0
 10
240.0083988122460141
 20
286.9741417398079761
 30
0.0
  0
VERTEX
  5
160FF
  8
0
 10
240.0804752337814989
 20
286.9662424111530186
 30
0.0
  0
VERTEX
  5
16100
  8
0
 10
240.1524140227166129
 20
286.9572963904871017
 30
0.0
  0
VERTEX
  5
16101
  8
0
 10
240.2242152998695133
 20
286.9473052214307245
 30
0.0
  0
VERTEX
  5
16102
  8
0
 10
240.2958791860573058
 20
286.9362704476035901
 30
0.0
  0
VERTEX
  5
16103
  8
0
 10
240.3674058020984035
 20
286.9241936126263113
 30
0.0
  0
VERTEX
  5
16104
  8
0
 10
240.4387952688099119
 20
286.9110762601184774
 30
0.0
  0
VERTEX
  5
16105
  8
0
 10
240.5100474881458013
 20
286.8969182494228107
 30
0.0
  0
VERTEX
  5
16106
  8
0
 10
240.5811613694741027
 20
286.8817118190115139
 30
0.0
  0
VERTEX
  5
16107
  8
0
 10
240.6521360927216904
 20
286.8654513109063942
 30
0.0
  0
VERTEX
  5
16108
  8
0
 10
240.7229708959158074
 20
286.8481315151828994
 30
0.0
  0
VERTEX
  5
16109
  8
0
 10
240.7936650170840096
 20
286.8297472219165911
 30
0.0
  0
VERTEX
  5
1610A
  8
0
 10
240.8642176942535116
 20
286.8102932211830876
 30
0.0
  0
VERTEX
  5
1610B
  8
0
 10
240.9346281654518975
 20
286.7897643030578934
 30
0.0
  0
VERTEX
  5
1610C
  8
0
 10
241.0049027427187127
 20
286.7681462077903802
 30
0.0
  0
VERTEX
  5
1610D
  8
0
 10
241.075002169520701
 20
286.7454424343741834
 30
0.0
  0
VERTEX
  5
1610E
  8
0
 10
241.1448498655321089
 20
286.7216800175830258
 30
0.0
  0
VERTEX
  5
1610F
  8
0
 10
241.2143691695750931
 20
286.6968860534443024
 30
0.0
  0
VERTEX
  5
16110
  8
0
 10
241.2834834204705885
 20
286.6710876379859201
 30
0.0
  0
VERTEX
  5
16111
  8
0
 10
241.352115957040013
 20
286.6443118672353876
 30
0.0
  0
VERTEX
  5
16112
  8
0
 10
241.42019414037199
 20
286.6165850549527931
 30
0.0
  0
VERTEX
  5
16113
  8
0
 10
241.487749698187514
 20
286.5879099199073039
 30
0.0
  0
VERTEX
  5
16114
  8
0
 10
241.5548114182998916
 20
286.5582815752754868
 30
0.0
  0
VERTEX
  5
16115
  8
0
 10
241.6213790517641087
 20
286.5276995943916063
 30
0.0
  0
VERTEX
  5
16116
  8
0
 10
241.6874523496352936
 20
286.4961635505891877
 30
0.0
  0
VERTEX
  5
16117
  8
0
 10
241.7530310629682049
 20
286.4636730172023249
 30
0.0
  0
VERTEX
  5
16118
  8
0
 10
241.8181149428178003
 20
286.4302275675647138
 30
0.0
  0
VERTEX
  5
16119
  8
0
 10
241.882703740239009
 20
286.3958267750103914
 30
0.0
  0
VERTEX
  5
1611A
  8
0
 10
241.9467972062867887
 20
286.3604702128731105
 30
0.0
  0
VERTEX
  5
1611B
  8
0
 10
242.0103950920160116
 20
286.3241574544866808
 30
0.0
  0
VERTEX
  5
1611C
  8
0
 10
242.0734971484816072
 20
286.2868880731850822
 30
0.0
  0
VERTEX
  5
1611D
  8
0
 10
242.1361031267385044
 20
286.2486616423021815
 30
0.0
  0
VERTEX
  5
1611E
  8
0
 10
242.1982127778418032
 20
286.209477735171788
 30
0.0
  0
VERTEX
  5
1611F
  8
0
 10
242.2598258528462054
 20
286.1693359251278252
 30
0.0
  0
VERTEX
  5
16120
  8
0
 10
242.3209465138361054
 20
286.1282167507392273
 30
0.0
  0
VERTEX
  5
16121
  8
0
 10
242.3815628402610969
 20
286.0861052794161878
 30
0.0
  0
VERTEX
  5
16122
  8
0
 10
242.4416428531419001
 20
286.0430275814608763
 30
0.0
  0
VERTEX
  5
16123
  8
0
 10
242.5011544003972972
 20
285.9990101858364824
 30
0.0
  0
VERTEX
  5
16124
  8
0
 10
242.5600653299458997
 20
285.9540796215068212
 30
0.0
  0
VERTEX
  5
16125
  8
0
 10
242.6183434897064899
 20
285.9082624174351963
 30
0.0
  0
VERTEX
  5
16126
  8
0
 10
242.6759567275979066
 20
285.8615851025851953
 30
0.0
  0
VERTEX
  5
16127
  8
0
 10
242.7328728915387046
 20
285.8140742059201784
 30
0.0
  0
VERTEX
  5
16128
  8
0
 10
242.7890598294476092
 20
285.765756256403904
 30
0.0
  0
VERTEX
  5
16129
  8
0
 10
242.8444853892434878
 20
285.7166577829996186
 30
0.0
  0
VERTEX
  5
1612A
  8
0
 10
242.8991174188448099
 20
285.6668053146710804
 30
0.0
  0
VERTEX
  5
1612B
  8
0
 10
242.9529237661704997
 20
285.6162253803815929
 30
0.0
  0
VERTEX
  5
1612C
  8
0
 10
243.0058722791391119
 20
285.5649445090948007
 30
0.0
  0
VERTEX
  5
1612D
  8
0
 10
243.0579455703594078
 20
285.5129810157567931
 30
0.0
  0
VERTEX
  5
1612E
  8
0
 10
243.1092114515888909
 20
285.4603015765147802
 30
0.0
  0
VERTEX
  5
1612F
  8
0
 10
243.1596816066679025
 20
285.4068974973803279
 30
0.0
  0
VERTEX
  5
16130
  8
0
 10
243.2093542187137132
 20
285.3527671240809127
 30
0.0
  0
VERTEX
  5
16131
  8
0
 10
243.258227470843309
 20
285.2979088023440113
 30
0.0
  0
VERTEX
  5
16132
  8
0
 10
243.3062995461737046
 20
285.2423208778972139
 30
0.0
  0
VERTEX
  5
16133
  8
0
 10
243.3535686278223977
 20
285.1860016964677129
 30
0.0
  0
VERTEX
  5
16134
  8
0
 10
243.4000328989058062
 20
285.1289496037832123
 30
0.0
  0
VERTEX
  5
16135
  8
0
 10
243.4456905425417119
 20
285.0711629455710749
 30
0.0
  0
VERTEX
  5
16136
  8
0
 10
243.4905397418467885
 20
285.0126400675587774
 30
0.0
  0
VERTEX
  5
16137
  8
0
 10
243.5345786799381074
 20
284.9533793154736827
 30
0.0
  0
VERTEX
  5
16138
  8
0
 10
243.5778055399333084
 20
284.8933790350436084
 30
0.0
  0
VERTEX
  5
16139
  8
0
 10
243.6202185049488094
 20
284.8326375719955195
 30
0.0
  0
VERTEX
  5
1613A
  8
0
 10
243.6618144818432086
 20
284.771155043656222
 30
0.0
  0
VERTEX
  5
1613B
  8
0
 10
243.7024920295579875
 20
284.7090708005769102
 30
0.0
  0
VERTEX
  5
1613C
  8
0
 10
243.7421864803025073
 20
284.6464816601852021
 30
0.0
  0
VERTEX
  5
1613D
  8
0
 10
243.7808956570160035
 20
284.5833993375326827
 30
0.0
  0
VERTEX
  5
1613E
  8
0
 10
243.8186173826379957
 20
284.5198355476711072
 30
0.0
  0
VERTEX
  5
1613F
  8
0
 10
243.8553494801074066
 20
284.4558020056522878
 30
0.0
  0
VERTEX
  5
16140
  8
0
 10
243.8910897723638129
 20
284.391310426527923
 30
0.0
  0
VERTEX
  5
16141
  8
0
 10
243.9258360823461942
 20
284.3263725253498251
 30
0.0
  0
VERTEX
  5
16142
  8
0
 10
243.9595862329940132
 20
284.2610000171695788
 30
0.0
  0
VERTEX
  5
16143
  8
0
 10
243.9923380472463919
 20
284.1952046170392805
 30
0.0
  0
VERTEX
  5
16144
  8
0
 10
244.0240893480427928
 20
284.1289980400105151
 30
0.0
  0
VERTEX
  5
16145
  8
0
 10
244.0548379583223095
 20
284.0623920011348105
 30
0.0
  0
VERTEX
  5
16146
  8
0
 10
244.0845817010242058
 20
283.9953982154639789
 30
0.0
  0
VERTEX
  5
16147
  8
0
 10
244.1133183990878877
 20
283.9280283980501736
 30
0.0
  0
VERTEX
  5
16148
  8
0
 10
244.141057912100905
 20
283.8602538271431968
 30
0.0
  0
VERTEX
  5
16149
  8
0
 10
244.1678240140680884
 20
283.7919953619125977
 30
0.0
  0
VERTEX
  5
1614A
  8
0
 10
244.1936091341910071
 20
283.723275714536328
 30
0.0
  0
VERTEX
  5
1614B
  8
0
 10
244.2184042934117087
 20
283.6541222532245001
 30
0.0
  0
VERTEX
  5
1614C
  8
0
 10
244.2422005126724969
 20
283.5845623461868854
 30
0.0
  0
VERTEX
  5
1614D
  8
0
 10
244.2649888129153055
 20
283.5146233616338236
 30
0.0
  0
VERTEX
  5
1614E
  8
0
 10
244.2867602150820119
 20
283.4443326677746882
 30
0.0
  0
VERTEX
  5
1614F
  8
0
 10
244.3075057401152037
 20
283.3737176328195915
 30
0.0
  0
VERTEX
  5
16150
  8
0
 10
244.3272164089565024
 20
283.3028056249784754
 30
0.0
  0
VERTEX
  5
16151
  8
0
 10
244.3458832425482115
 20
283.231624012461225
 30
0.0
  0
VERTEX
  5
16152
  8
0
 10
244.3634972618322934
 20
283.1602001634777821
 30
0.0
  0
VERTEX
  5
16153
  8
0
 10
244.3800494877511085
 20
283.0885614462379181
 30
0.0
  0
VERTEX
  5
16154
  8
0
 10
244.3955309412465056
 20
283.0167352289515748
 30
0.0
  0
VERTEX
  5
16155
  8
0
 10
244.4099338846999956
 20
282.944751834938927
 30
0.0
  0
VERTEX
  5
16156
  8
0
 10
244.4232652390759881
 20
282.8726609068216931
 30
0.0
  0
VERTEX
  5
16157
  8
0
 10
244.435528178401313
 20
282.8004725352058131
 30
0.0
  0
VERTEX
  5
16158
  8
0
 10
244.4467230344324946
 20
282.7281868272502834
 30
0.0
  0
VERTEX
  5
16159
  8
0
 10
244.456850138925887
 20
282.6558038901141003
 30
0.0
  0
VERTEX
  5
1615A
  8
0
 10
244.4659098236382988
 20
282.5833238309560898
 30
0.0
  0
VERTEX
  5
1615B
  8
0
 10
244.4739024203259987
 20
282.5107467569351911
 30
0.0
  0
VERTEX
  5
1615C
  8
0
 10
244.4808282607455965
 20
282.4380727752106282
 30
0.0
  0
VERTEX
  5
1615D
  8
0
 10
244.4866876766537018
 20
282.3653019929408856
 30
0.0
  0
VERTEX
  5
1615E
  8
0
 10
244.4914809998066971
 20
282.2924345172853009
 30
0.0
  0
VERTEX
  5
1615F
  8
0
 10
244.4952085619613911
 20
282.2194704554026998
 30
0.0
  0
VERTEX
  5
16160
  8
0
 10
244.4978706948741092
 20
282.1464099144519082
 30
0.0
  0
VERTEX
  5
16161
  8
0
 10
244.4994677303014043
 20
282.0732530015919224
 30
0.0
  0
VERTEX
  5
16162
  8
0
 10
244.499999999999801
 20
281.9999998239817955
 30
0.0
  0
SEQEND
  5
16163
  8
0
  0
POLYLINE
  5
14E97
  8
0
 66
     1
 10
0.0
 20
0.0
 30
0.0
  0
VERTEX
  5
16164
  8
0
 10
244.4999999999998863
 20
208.0
 30
0.0
  0
VERTEX
  5
16165
  8
0
 10
244.4994681840923079
 20
207.9267790980246957
 30
0.0
  0
VERTEX
  5
16166
  8
0
 10
244.4978738054317091
 20
207.8536988170677091
 30
0.0
  0
VERTEX
  5
16167
  8
0
 10
244.495218467611295
 20
207.7807590165091085
 30
0.0
  0
VERTEX
  5
16168
  8
0
 10
244.4915037742242134
 20
207.7079595557291896
 30
0.0
  0
VERTEX
  5
16169
  8
0
 10
244.4867313288636979
 20
207.6353002941081058
 30
0.0
  0
VERTEX
  5
1616A
  8
0
 10
244.48090273512301
 20
207.5627810910260109
 30
0.0
  0
VERTEX
  5
1616B
  8
0
 10
244.4740195965952125
 20
207.4904018058632005
 30
0.0
  0
VERTEX
  5
1616C
  8
0
 10
244.4660835168737094
 20
207.4181622979997996
 30
0.0
  0
VERTEX
  5
1616D
  8
0
 10
244.4570960995517055
 20
207.3460624268159904
 30
0.0
  0
VERTEX
  5
1616E
  8
0
 10
244.4470589482220078
 20
207.2741020516920116
 30
0.0
  0
VERTEX
  5
1616F
  8
0
 10
244.4359736664781906
 20
207.2022810320079884
 30
0.0
  0
VERTEX
  5
16170
  8
0
 10
244.423841857913402
 20
207.130599227144188
 30
0.0
  0
VERTEX
  5
16171
  8
0
 10
244.4106651261209038
 20
207.0590564964807072
 30
0.0
  0
VERTEX
  5
16172
  8
0
 10
244.3964433728210963
 20
206.987652922481999
 30
0.0
  0
VERTEX
  5
16173
  8
0
 10
244.3811688018280108
 20
206.9163895986924899
 30
0.0
  0
VERTEX
  5
16174
  8
0
 10
244.3648357456191889
 20
206.8452673420979124
 30
0.0
  0
VERTEX
  5
16175
  8
0
 10
244.3474389895430079
 20
206.774286910429197
 30
0.0
  0
VERTEX
  5
16176
  8
0
 10
244.3289733189486981
 20
206.7034490614165918
 30
0.0
  0
VERTEX
  5
16177
  8
0
 10
244.3094335191848074
 20
206.6327545527911127
 30
0.0
  0
VERTEX
  5
16178
  8
0
 10
244.2888143756005093
 20
206.5622041422832922
 30
0.0
  0
VERTEX
  5
16179
  8
0
 10
244.2671031551525971
 20
206.4917962258384989
 30
0.0
  0
VERTEX
  5
1617A
  8
0
 10
244.2443053609106869
 20
206.4215754354709134
 30
0.0
  0
VERTEX
  5
1617B
  8
0
 10
244.2204481290478952
 20
206.3516173937896099
 30
0.0
  0
VERTEX
  5
1617C
  8
0
 10
244.1955586502486995
 20
206.2819977826790989
 30
0.0
  0
VERTEX
  5
1617D
  8
0
 10
244.1696641151982021
 20
206.2127922840238909
 30
0.0
  0
VERTEX
  5
1617E
  8
0
 10
244.1427917145813069
 20
206.1440765797086954
 30
0.0
  0
VERTEX
  5
1617F
  8
0
 10
244.1149678104698921
 20
206.0759222381036011
 30
0.0
  0
VERTEX
  5
16180
  8
0
 10
244.0861941814600016
 20
206.0082947926865984
 30
0.0
  0
VERTEX
  5
16181
  8
0
 10
244.0564655652702015
 20
205.9411645179301047
 30
0.0
  0
VERTEX
  5
16182
  8
0
 10
244.0257815714010974
 20
205.8745316355465036
 30
0.0
  0
VERTEX
  5
16183
  8
0
 10
243.9941418093528966
 20
205.8083963672478092
 30
0.0
  0
VERTEX
  5
16184
  8
0
 10
243.9615458886262047
 20
205.7427589347460071
 30
0.0
  0
VERTEX
  5
16185
  8
0
 10
243.9279934187217123
 20
205.6776195597531967
 30
0.0
  0
VERTEX
  5
16186
  8
0
 10
243.893484009139712
 20
205.6129784639815057
 30
0.0
  0
VERTEX
  5
16187
  8
0
 10
243.8580172693806105
 20
205.548835869143204
 30
0.0
  0
VERTEX
  5
16188
  8
0
 10
243.821592808945212
 20
205.4851919969501068
 30
0.0
  0
VERTEX
  5
16189
  8
0
 10
243.7842102373338946
 20
205.4220470691147113
 30
0.0
  0
VERTEX
  5
1618A
  8
0
 10
243.7458691640470079
 20
205.3594013073486906
 30
0.0
  0
VERTEX
  5
1618B
  8
0
 10
243.7065691985852993
 20
205.2972549333643997
 30
0.0
  0
VERTEX
  5
1618C
  8
0
 10
243.6663099504490049
 20
205.2356081688739948
 30
0.0
  0
VERTEX
  5
1618D
  8
0
 10
243.6250747568838904
 20
205.1744605379018935
 30
0.0
  0
VERTEX
  5
1618E
  8
0
 10
243.5828529931488902
 20
205.1138293793839864
 30
0.0
  0
VERTEX
  5
1618F
  8
0
 10
243.5396706079797866
 20
205.0537459286074977
 30
0.0
  0
VERTEX
  5
16190
  8
0
 10
243.4955539518375929
 20
204.9942415161110887
 30
0.0
  0
VERTEX
  5
16191
  8
0
 10
243.4505293751826969
 20
204.9353474724331079
 30
0.0
  0
VERTEX
  5
16192
  8
0
 10
243.4046232284759128
 20
204.8770951281121881
 30
0.0
  0
VERTEX
  5
16193
  8
0
 10
243.3578618621781118
 20
204.8195158136869054
 30
0.0
  0
VERTEX
  5
16194
  8
0
 10
243.3102716267497954
 20
204.7626408596956082
 30
0.0
  0
VERTEX
  5
16195
  8
0
 10
243.2618788726518915
 20
204.706501596676901
 30
0.0
  0
VERTEX
  5
16196
  8
0
 10
243.212709950344987
 20
204.6511293551693029
 30
0.0
  0
VERTEX
  5
16197
  8
0
 10
243.1627912102898961
 20
204.5965554657113898
 30
0.0
  0
VERTEX
  5
16198
  8
0
 10
243.1121490029474046
 20
204.5428112588415956
 30
0.0
  0
VERTEX
  5
16199
  8
0
 10
243.0608096787779004
 20
204.489928065098411
 30
0.0
  0
VERTEX
  5
1619A
  8
0
 10
243.0087910663941102
 20
204.4379222996905128
 30
0.0
  0
VERTEX
  5
1619B
  8
0
 10
242.9560578845324983
 20
204.3867247351211915
 30
0.0
  0
VERTEX
  5
1619C
  8
0
 10
242.9026011268533978
 20
204.336323506677104
 30
0.0
  0
VERTEX
  5
1619D
  8
0
 10
242.8484191421281935
 20
204.2867204354130877
 30
0.0
  0
VERTEX
  5
1619E
  8
0
 10
242.7935102791288955
 20
204.2379173423840086
 30
0.0
  0
VERTEX
  5
1619F
  8
0
 10
242.7378728866266897
 20
204.1899160486447045
 30
0.0
  0
VERTEX
  5
161A0
  8
0
 10
242.6815053133935862
 20
204.1427183752498138
 30
0.0
  0
VERTEX
  5
161A1
  8
0
 10
242.6244059082009983
 20
204.0963261432542026
 30
0.0
  0
VERTEX
  5
161A2
  8
0
 10
242.566573019820396
 20
204.0507411737127939
 30
0.0
  0
VERTEX
  5
161A3
  8
0
 10
242.5080049970237042
 20
204.0059652876803113
 30
0.0
  0
VERTEX
  5
161A4
  8
0
 10
242.448700188581995
 20
203.9620003062115074
 30
0.0
  0
VERTEX
  5
161A5
  8
0
 10
242.388656943267506
 20
203.9188480503611913
 30
0.0
  0
VERTEX
  5
161A6
  8
0
 10
242.3278736098515083
 20
203.8765103411842858
 30
0.0
  0
VERTEX
  5
161A7
  8
0
 10
242.266350534819594
 20
203.8349903924774935
 30
0.0
  0
VERTEX
  5
161A8
  8
0
 10
242.2042440335773961
 20
203.7943982942138064
 30
0.0
  0
VERTEX
  5
161A9
  8
0
 10
242.1416592139611055
 20
203.7548026024446131
 30
0.0
  0
VERTEX
  5
161AA
  8
0
 10
242.0786045933857906
 20
203.7162034080973001
 30
0.0
  0
VERTEX
  5
161AB
  8
0
 10
242.0150886892666904
 20
203.6786008020991972
 30
0.0
  0
VERTEX
  5
161AC
  8
0
 10
241.9511200190191005
 20
203.6419948753778897
 30
0.0
  0
VERTEX
  5
161AD
  8
0
 10
241.8867071000580893
 20
203.6063857188605084
 30
0.0
  0
VERTEX
  5
161AE
  8
0
 10
241.8218584497988957
 20
203.5717734234746956
 30
0.0
  0
VERTEX
  5
161AF
  8
0
 10
241.7565825856567869
 20
203.5381580801476105
 30
0.0
  0
VERTEX
  5
161B0
  8
0
 10
241.690888025047002
 20
203.5055397798066963
 30
0.0
  0
VERTEX
  5
161B1
  8
0
 10
241.6247832853846944
 20
203.4739186133793112
 30
0.0
  0
VERTEX
  5
161B2
  8
0
 10
241.5582768840851031
 20
203.4432946717928985
 30
0.0
  0
VERTEX
  5
161B3
  8
0
 10
241.4913773385634101
 20
203.4136680459747879
 30
0.0
  0
VERTEX
  5
161B4
  8
0
 10
241.4240931662349112
 20
203.385038826852508
 30
0.0
  0
VERTEX
  5
161B5
  8
0
 10
241.356395913735696
 20
203.3573979305604098
 30
0.0
  0
VERTEX
  5
161B6
  8
0
 10
241.2882140636895087
 20
203.3307276130580874
 30
0.0
  0
VERTEX
  5
161B7
  8
0
 10
241.2195720691418046
 20
203.3050358492978091
 30
0.0
  0
VERTEX
  5
161B8
  8
0
 10
241.1504987019866917
 20
203.2803317273736923
 30
0.0
  0
VERTEX
  5
161B9
  8
0
 10
241.0810227341185055
 20
203.2566243353797972
 30
0.0
  0
VERTEX
  5
161BA
  8
0
 10
241.0111729374314109
 20
203.2339227614102128
 30
0.0
  0
VERTEX
  5
161BB
  8
0
 10
240.9409780838194877
 20
203.2122360935591132
 30
0.0
  0
VERTEX
  5
161BC
  8
0
 10
240.8704669451767018
 20
203.1915734199205019
 30
0.0
  0
VERTEX
  5
161BD
  8
0
 10
240.7996682933971897
 20
203.1719438285886099
 30
0.0
  0
VERTEX
  5
161BE
  8
0
 10
240.728610900375287
 20
203.1533564076576113
 30
0.0
  0
VERTEX
  5
161BF
  8
0
 10
240.6573235380049027
 20
203.1358202452213106
 30
0.0
  0
VERTEX
  5
161C0
  8
0
 10
240.5858349781805998
 20
203.1193444293741095
 30
0.0
  0
VERTEX
  5
161C1
  8
0
 10
240.5141739927960032
 20
203.1039380482098977
 30
0.0
  0
VERTEX
  5
161C2
  8
0
 10
240.4423710676016981
 20
203.0896086228981119
 30
0.0
  0
VERTEX
  5
161C3
  8
0
 10
240.3704638443057036
 20
203.0763459204171966
 30
0.0
  0
VERTEX
  5
161C4
  8
0
 10
240.298459062657713
 20
203.0641459076202011
 30
0.0
  0
VERTEX
  5
161C5
  8
0
 10
240.2263568358976897
 20
203.0530082932972959
 30
0.0
  0
VERTEX
  5
161C6
  8
0
 10
240.1541572772661937
 20
203.0429327862389073
 30
0.0
  0
VERTEX
  5
161C7
  8
0
 10
240.081860500003188
 20
203.0339190952352055
 30
0.0
  0
VERTEX
  5
161C8
  8
0
 10
240.0094666173492044
 20
203.0259669290763043
 30
0.0
  0
VERTEX
  5
161C9
  8
0
 10
239.936975742544206
 20
203.0190759965524876
 30
0.0
  0
VERTEX
  5
161CA
  8
0
 10
239.8643879888286108
 20
203.0132460064540965
 30
0.0
  0
VERTEX
  5
161CB
  8
0
 10
239.7917034694426093
 20
203.0084766675711876
 30
0.0
  0
VERTEX
  5
161CC
  8
0
 10
239.7189222976265057
 20
203.0047676886941019
 30
0.0
  0
VERTEX
  5
161CD
  8
0
 10
239.6460445866204907
 20
203.0021187786130952
 30
0.0
  0
VERTEX
  5
161CE
  8
0
 10
239.5730704496648968
 20
203.0005296461183093
 30
0.0
  0
VERTEX
  5
161CF
  8
0
 10
239.499999999999801
 20
203.0
 30
0.0
  0
SEQEND
  5
161D0
  8
0
  0
POLYLINE
  5
14E98
  8
0
 66
     1
 10
0.0
 20
0.0
 30
0.0
  0
VERTEX
  5
161D1
  8
0
 10
244.4999999999998863
 20
208.0
 30
0.0
  0
VERTEX
  5
161D2
  8
0
 10
244.4999999999998863
 20
208.9068750037941982
 30
0.0
  0
VERTEX
  5
161D3
  8
0
 10
244.4999999999998863
 20
209.8141508124220138
 30
0.0
  0
VERTEX
  5
161D4
  8
0
 10
244.4999999999998863
 20
210.7218415512917886
 30
0.0
  0
VERTEX
  5
161D5
  8
0
 10
244.4999999999998863
 20
211.6299613458124895
 30
0.0
  0
VERTEX
  5
161D6
  8
0
 10
244.4999999999998863
 20
212.5385243213924014
 30
0.0
  0
VERTEX
  5
161D7
  8
0
 10
244.4999999999998863
 20
213.4475446034402921
 30
0.0
  0
VERTEX
  5
161D8
  8
0
 10
244.4999999999998863
 20
214.3570363173647877
 30
0.0
  0
VERTEX
  5
161D9
  8
0
 10
244.4999999999998863
 20
215.2670135885742866
 30
0.0
  0
VERTEX
  5
161DA
  8
0
 10
244.4999999999998863
 20
216.1774905424776136
 30
0.0
  0
VERTEX
  5
161DB
  8
0
 10
244.4999999999998863
 20
217.0884813044833095
 30
0.0
  0
VERTEX
  5
161DC
  8
0
 10
244.4999999999998863
 20
218.0
 30
0.0
  0
SEQEND
  5
161DD
  8
0
  0
POLYLINE
  5
14E99
  8
0
 66
     1
 10
0.0
 20
0.0
 30
0.0
  0
VERTEX
  5
161DE
  8
0
 10
244.4999999999998863
 20
218.0
 30
0.0
  0
VERTEX
  5
161DF
  8
0
 10
244.5005424228913
 20
218.0739567820455136
 30
0.0
  0
VERTEX
  5
161E0
  8
0
 10
244.5021686172295858
 20
218.1477689690838133
 30
0.0
  0
VERTEX
  5
161E1
  8
0
 10
244.5048769715106118
 20
218.2214368325315093
 30
0.0
  0
VERTEX
  5
161E2
  8
0
 10
244.5086658742303882
 20
218.2949606438054104
 30
0.0
  0
VERTEX
  5
161E3
  8
0
 10
244.5135337138846978
 20
218.3683406743222122
 30
0.0
  0
VERTEX
  5
161E4
  8
0
 10
244.5194788789696076
 20
218.4415771954986951
 30
0.0
  0
VERTEX
  5
161E5
  8
0
 10
244.5264997579810995
 20
218.5146704787516967
 30
0.0
  0
VERTEX
  5
161E6
  8
0
 10
244.5345947394148993
 20
218.5876207954977986
 30
0.0
  0
VERTEX
  5
161E7
  8
0
 10
244.5437622117671879
 20
218.660428417153895
 30
0.0
  0
VERTEX
  5
161E8
  8
0
 10
244.5540005635338048
 20
218.7330936151365108
 30
0.0
  0
VERTEX
  5
161E9
  8
0
 10
244.5653081832105897
 20
218.8056166608627109
 30
0.0
  0
VERTEX
  5
161EA
  8
0
 10
244.5776834592936098
 20
218.8779978257489063
 30
0.0
  0
VERTEX
  5
161EB
  8
0
 10
244.5911247802785908
 20
218.950237381212105
 30
0.0
  0
VERTEX
  5
161EC
  8
0
 10
244.6056418813799951
 20
219.0223575838224122
 30
0.0
  0
VERTEX
  5
161ED
  8
0
 10
244.6212721585897043
 20
219.094424188365906
 30
0.0
  0
VERTEX
  5
161EE
  8
0
 10
244.6380099724339914
 20
219.1664072578194009
 30
0.0
  0
VERTEX
  5
161EF
  8
0
 10
244.6558454039133039
 20
219.2382680255504113
 30
0.0
  0
VERTEX
  5
161F0
  8
0
 10
244.6747685340282032
 20
219.3099677249263948
 30
0.0
  0
VERTEX
  5
161F1
  8
0
 10
244.6947694437789096
 20
219.3814675893148092
 30
0.0
  0
VERTEX
  5
161F2
  8
0
 10
244.7158382141662116
 20
219.4527288520829131
 30
0.0
  0
VERTEX
  5
161F3
  8
0
 10
244.7379649261903864
 20
219.5237127465983917
 30
0.0
  0
VERTEX
  5
161F4
  8
0
 10
244.7611396608521943
 20
219.5943805062285037
 30
0.0
  0
VERTEX
  5
161F5
  8
0
 10
244.7853524991517986
 20
219.664693364340792
 30
0.0
  0
VERTEX
  5
161F6
  8
0
 10
244.8105935220899028
 20
219.7346125543026005
 30
0.0
  0
VERTEX
  5
161F7
  8
0
 10
244.8368528106670112
 20
219.8040993094813018
 30
0.0
  0
VERTEX
  5
161F8
  8
0
 10
244.8641204458834011
 20
219.8731148632444956
 30
0.0
  0
VERTEX
  5
161F9
  8
0
 10
244.8923857307001128
 20
219.9416214778412098
 30
0.0
  0
VERTEX
  5
161FA
  8
0
 10
244.9216243065824017
 20
220.0096130677866881
 30
0.0
  0
VERTEX
  5
161FB
  8
0
 10
244.9518285692948893
 20
220.0770950855884962
 30
0.0
  0
VERTEX
  5
161FC
  8
0
 10
244.9829988807975099
 20
220.1440673402869947
 30
0.0
  0
VERTEX
  5
161FD
  8
0
 10
245.015135603050112
 20
220.2105296409231983
 30
0.0
  0
VERTEX
  5
161FE
  8
0
 10
245.0482390980128002
 20
220.2764817965376096
 30
0.0
  0
VERTEX
  5
161FF
  8
0
 10
245.0823097276455087
 20
220.3419236161711865
 30
0.0
  0
VERTEX
  5
16200
  8
0
 10
245.1173478539081998
 20
220.4068549088644033
 30
0.0
  0
VERTEX
  5
16201
  8
0
 10
245.1533538387608075
 20
220.4712754836581041
 30
0.0
  0
VERTEX
  5
16202
  8
0
 10
245.1903280441634081
 20
220.5351851495929054
 30
0.0
  0
VERTEX
  5
16203
  8
0
 10
245.2282708320757081
 20
220.5985837157095091
 30
0.0
  0
VERTEX
  5
16204
  8
0
 10
245.267182564458011
 20
220.6614709910487022
 30
0.0
  0
VERTEX
  5
16205
  8
0
 10
245.3070636032701088
 20
220.7238467846511867
 30
0.0
  0
VERTEX
  5
16206
  8
0
 10
245.3479143104719071
 20
220.7857109055576075
 30
0.0
  0
VERTEX
  5
16207
  8
0
 10
245.3897639297055946
 20
220.8470883401755032
 30
0.0
  0
VERTEX
  5
16208
  8
0
 10
245.4326284329908106
 20
220.9079785365661053
 30
0.0
  0
VERTEX
  5
16209
  8
0
 10
245.4764570839662952
 20
220.9683129810265996
 30
0.0
  0
VERTEX
  5
1620A
  8
0
 10
245.5211984218938142
 20
221.0280224663000865
 30
0.0
  0
VERTEX
  5
1620B
  8
0
 10
245.5668009860351901
 20
221.0870377851296951
 30
0.0
  0
VERTEX
  5
1620C
  8
0
 10
245.6132133156517909
 20
221.1452897302588099
 30
0.0
  0
VERTEX
  5
1620D
  8
0
 10
245.6603844756095896
 20
221.2027102729634009
 30
0.0
  0
VERTEX
  5
1620E
  8
0
 10
245.7082938734945117
 20
221.259291034070003
 30
0.0
  0
VERTEX
  5
1620F
  8
0
 10
245.756942944968614
 20
221.3150496566879895
 30
0.0
  0
VERTEX
  5
16210
  8
0
 10
245.8063285753453044
 20
221.3699896549439927
 30
0.0
  0
VERTEX
  5
16211
  8
0
 10
245.8564476499383034
 20
221.4241145429649862
 30
0.0
  0
VERTEX
  5
16212
  8
0
 10
245.9072970540613028
 20
221.4774278348774033
 30
0.0
  0
VERTEX
  5
16213
  8
0
 10
245.9588736730275969
 20
221.5299330448083026
 30
0.0
  0
VERTEX
  5
16214
  8
0
 10
246.0111797279039934
 20
221.5816381056712032
 30
0.0
  0
VERTEX
  5
16215
  8
0
 10
246.0642415869199908
 20
221.6325682353742081
 30
0.0
  0
VERTEX
  5
16216
  8
0
 10
246.1180550014966002
 20
221.6827190773142888
 30
0.0
  0
VERTEX
  5
16217
  8
0
 10
246.1726101060127121
 20
221.7320813217745012
 30
0.0
  0
VERTEX
  5
16218
  8
0
 10
246.2278970348471887
 20
221.7806456590384983
 30
0.0
  0
VERTEX
  5
16219
  8
0
 10
246.2839059223790059
 20
221.8284027793887958
 30
0.0
  0
VERTEX
  5
1621A
  8
0
 10
246.3406269029873101
 20
221.8753433731089899
 30
0.0
  0
VERTEX
  5
1621B
  8
0
 10
246.398050111050992
 20
221.9214581304821081
 30
0.0
  0
VERTEX
  5
1621C
  8
0
 10
246.4561656809491978
 20
221.9667377417912064
 30
0.0
  0
VERTEX
  5
1621D
  8
0
 10
246.5149637470605057
 20
222.0111728973195113
 30
0.0
  0
VERTEX
  5
1621E
  8
0
 10
246.5744344437644884
 20
222.0547542873501072
 30
0.0
  0
VERTEX
  5
1621F
  8
0
 10
246.634567905439809
 20
222.0974726021663912
 30
0.0
  0
VERTEX
  5
16220
  8
0
 10
246.6953542664653014
 20
222.1393185320513055
 30
0.0
  0
VERTEX
  5
16221
  8
0
 10
246.7567820268911873
 20
222.1802818067581029
 30
0.0
  0
VERTEX
  5
16222
  8
0
 10
246.8187156098373123
 20
222.220280971031201
 30
0.0
  0
VERTEX
  5
16223
  8
0
 10
246.8810723730653081
 20
222.2592711293883951
 30
0.0
  0
VERTEX
  5
16224
  8
0
 10
246.9438508250266864
 20
222.2972561315191911
 30
0.0
  0
VERTEX
  5
16225
  8
0
 10
247.0070494741723053
 20
222.3342398271132083
 30
0.0
  0
VERTEX
  5
16226
  8
0
 10
247.0706668289531933
 20
222.3702260658598107
 30
0.0
  0
VERTEX
  5
16227
  8
0
 10
247.1347013978204075
 20
222.4052186974485039
 30
0.0
  0
VERTEX
  5
16228
  8
0
 10
247.1991516892254879
 20
222.4392215715689076
 30
0.0
  0
VERTEX
  5
16229
  8
0
 10
247.2640162116190083
 20
222.4722385379103002
 30
0.0
  0
VERTEX
  5
1622A
  8
0
 10
247.329293473452509
 20
222.5042734461623013
 30
0.0
  0
VERTEX
  5
1622B
  8
0
 10
247.3949819831769048
 20
222.5353301460145019
 30
0.0
  0
VERTEX
  5
1622C
  8
0
 10
247.4610802492433947
 20
222.5654124871562942
 30
0.0
  0
VERTEX
  5
1622D
  8
0
 10
247.5275867801030074
 20
222.5945243192772125
 30
0.0
  0
VERTEX
  5
1622E
  8
0
 10
247.5945000842067998
 20
222.6226694920665068
 30
0.0
  0
VERTEX
  5
1622F
  8
0
 10
247.6618435545740908
 20
222.6498527530301033
 30
0.0
  0
VERTEX
  5
16230
  8
0
 10
247.7296601832042882
 20
222.6760736489088117
 30
0.0
  0
VERTEX
  5
16231
  8
0
 10
247.7979195534502139
 20
222.7013235317423892
 30
0.0
  0
VERTEX
  5
16232
  8
0
 10
247.8665881501331114
 20
222.7255935212095892
 30
0.0
  0
VERTEX
  5
16233
  8
0
 10
247.9356324580741102
 20
222.7488747369881992
 30
0.0
  0
VERTEX
  5
16234
  8
0
 10
248.0050189620943115
 20
222.7711582987568875
 30
0.0
  0
VERTEX
  5
16235
  8
0
 10
248.0747141470147881
 20
222.7924353261940098
 30
0.0
  0
VERTEX
  5
16236
  8
0
 10
248.1446844976566126
 20
222.8126969389778083
 30
0.0
  0
VERTEX
  5
16237
  8
0
 10
248.2148964988413979
 20
222.8319342567868091
 30
0.0
  0
VERTEX
  5
16238
  8
0
 10
248.2853166353897052
 20
222.8501383992991123
 30
0.0
  0
VERTEX
  5
16239
  8
0
 10
248.355911392123204
 20
222.867300486193102
 30
0.0
  0
VERTEX
  5
1623A
  8
0
 10
248.4266472538623987
 20
222.8834116371473044
 30
0.0
  0
VERTEX
  5
1623B
  8
0
 10
248.4974907054291862
 20
222.8984629718397059
 30
0.0
  0
VERTEX
  5
1623C
  8
0
 10
248.5684122582786983
 20
222.9124485525252055
 30
0.0
  0
VERTEX
  5
1623D
  8
0
 10
248.6394310626257038
 20
222.9253929386246114
 30
0.0
  0
VERTEX
  5
1623E
  8
0
 10
248.710556265956086
 20
222.9373034526902018
 30
0.0
  0
VERTEX
  5
1623F
  8
0
 10
248.7817880226916998
 20
222.9481798025780961
 30
0.0
  0
VERTEX
  5
16240
  8
0
 10
248.8531264872532063
 20
222.9580216961441863
 30
0.0
  0
VERTEX
  5
16241
  8
0
 10
248.9245718140622898
 20
222.9668288412445065
 30
0.0
  0
VERTEX
  5
16242
  8
0
 10
248.9961241575402084
 20
222.9746009457352045
 30
0.0
  0
VERTEX
  5
16243
  8
0
 10
249.0677836721081917
 20
222.981337717472087
 30
0.0
  0
VERTEX
  5
16244
  8
0
 10
249.1395505121874976
 20
222.987038864311188
 30
0.0
  0
VERTEX
  5
16245
  8
0
 10
249.2114248321994125
 20
222.9917040941085133
 30
0.0
  0
VERTEX
  5
16246
  8
0
 10
249.2834067865653935
 20
222.995333114720097
 30
0.0
  0
VERTEX
  5
16247
  8
0
 10
249.3554965297064996
 20
222.9979256340018026
 30
0.0
  0
VERTEX
  5
16248
  8
0
 10
249.4276942160443014
 20
222.9994813598098062
 30
0.0
  0
VERTEX
  5
16249
  8
0
 10
249.4999999999998863
 20
223.0
 30
0.0
  0
SEQEND
  5
1624A
  8
0
  0
POLYLINE
  5
14E9A
  8
0
 66
     1
 10
0.0
 20
0.0
 30
0.0
  0
VERTEX
  5
1624B
  8
0
 10
249.4999999999998863
 20
223.0
 30
0.0
  0
VERTEX
  5
1624C
  8
0
 10
250.1367510670008869
 20
223.0
 30
0.0
  0
VERTEX
  5
1624D
  8
0
 10
250.7734177458181932
 20
223.0
 30
0.0
  0
VERTEX
  5
1624E
  8
0
 10
251.4100023359549141
 20
223.0
 30
0.0
  0
VERTEX
  5
1624F
  8
0
 10
252.0465071369144141
 20
223.0
 30
0.0
  0
VERTEX
  5
16250
  8
0
 10
252.682934448200001
 20
223.0
 30
0.0
  0
VERTEX
  5
16251
  8
0
 10
253.31928656931521
 20
223.0
 30
0.0
  0
VERTEX
  5
16252
  8
0
 10
253.9555657997630078
 20
223.0
 30
0.0
  0
VERTEX
  5
16253
  8
0
 10
254.5917744390467021
 20
223.0
 30
0.0
  0
VERTEX
  5
16254
  8
0
 10
255.2279147866697997
 20
223.0
 30
0.0
  0
VERTEX
  5
16255
  8
0
 10
255.8639891421352957
 20
223.0
 30
0.0
  0
VERTEX
  5
16256
  8
0
 10
256.4999998049469241
 20
223.0
 30
0.0
  0
SEQEND
  5
16257
  8
0
  0
POLYLINE
  5
14E9B
  8
0
 66
     1
 10
0.0
 20
0.0
 30
0.0
 70
     1
  0
VERTEX
  5
16258
  8
0
 10
54.9999999999996518
 20
158.2102893531665018
 30
0.0
  0
VERTEX
  5
16259
  8
0
 10
55.0504459295590323
 20
158.2091414759663053
 30
0.0
  0
VERTEX
  5
1625A
  8
0
 10
55.1006776771592328
 20
158.208345338003511
 30
0.0
  0
VERTEX
  5
1625B
  8
0
 10
55.1506963326808091
 20
158.2078991538965909
 30
0.0
  0
VERTEX
  5
1625C
  8
0
 10
55.2005029860045511
 20
158.2078011382641023
 30
0.0
  0
VERTEX
  5
1625D
  8
0
 10
55.2500987270110429
 20
158.2080495057244036
 30
0.0
  0
VERTEX
  5
1625E
  8
0
 10
55.2994846455808826
 20
158.208642470896109
 30
0.0
  0
VERTEX
  5
1625F
  8
0
 10
55.348661831594832
 20
158.2095782483976052
 30
0.0
  0
VERTEX
  5
16260
  8
0
 10
55.3976313749334821
 20
158.2108550528473927
 30
0.0
  0
VERTEX
  5
16261
  8
0
 10
55.4464482378814409
 20
158.2124784100005002
 30
0.0
  0
VERTEX
  5
16262
  8
0
 10
55.4951181898978803
 20
158.2144523595625003
 30
0.0
  0
VERTEX
  5
16263
  8
0
 10
55.5435685316257306
 20
158.2167728870778944
 30
0.0
  0
VERTEX
  5
16264
  8
0
 10
55.5917265637077591
 20
158.2194359780910133
 30
0.0
  0
VERTEX
  5
16265
  8
0
 10
55.6395195867867827
 20
158.2224376181459888
 30
0.0
  0
VERTEX
  5
16266
  8
0
 10
55.6868749015056324
 20
158.2257737927874928
 30
0.0
  0
VERTEX
  5
16267
  8
0
 10
55.7337198085071535
 20
158.2294404875597138
 30
0.0
  0
VERTEX
  5
16268
  8
0
 10
55.7799816084340705
 20
158.2334336880070111
 30
0.0
  0
VERTEX
  5
16269
  8
0
 10
55.8256215224102377
 20
158.2377459771545034
 30
0.0
  0
VERTEX
  5
1626A
  8
0
 10
55.8706497140683993
 20
158.2423725747759136
 30
0.0
  0
VERTEX
  5
1626B
  8
0
 10
55.9150668978147678
 20
158.2473134215381947
 30
0.0
  0
VERTEX
  5
1626C
  8
0
 10
55.9588737880554206
 20
158.2525684581086125
 30
0.0
  0
VERTEX
  5
1626D
  8
0
 10
56.0020710991966482
 20
158.2581376251544896
 30
0.0
  0
VERTEX
  5
1626E
  8
0
 10
56.0446595456446488
 20
158.2640208633428074
 30
0.0
  0
VERTEX
  5
1626F
  8
0
 10
56.0866398418056633
 20
158.2702181133410022
 30
0.0
  0
VERTEX
  5
16270
  8
0
 10
56.1280127020857478
 20
158.2767293158157997
 30
0.0
  0
VERTEX
  5
16271
  8
0
 10
56.1687350892376998
 20
158.2835520722958051
 30
0.0
  0
VERTEX
  5
16272
  8
0
 10
56.2087356242137304
 20
158.2906771219157065
 30
0.0
  0
VERTEX
  5
16273
  8
0
 10
56.2479725087194282
 20
158.2980941117527891
 30
0.0
  0
VERTEX
  5
16274
  8
0
 10
56.2672915200789703
 20
158.3019088489645867
 30
0.0
  0
VERTEX
  5
16275
  8
0
 10
56.2864039444605027
 20
158.3057926888845941
 30
0.0
  0
VERTEX
  5
16276
  8
0
 10
56.3053045570773634
 20
158.3097443373974897
 30
0.0
  0
VERTEX
  5
16277
  8
0
 10
56.3239881331426275
 20
158.3137625003880089
 30
0.0
  0
VERTEX
  5
16278
  8
0
 10
56.3424494478695621
 20
158.3178458837408868
 30
0.0
  0
VERTEX
  5
16279
  8
0
 10
56.360683276471363
 20
158.3219931933406031
 30
0.0
  0
VERTEX
  5
1627A
  8
0
 10
56.3786843941612119
 20
158.3262031350720065
 30
0.0
  0
VERTEX
  5
1627B
  8
0
 10
56.3964475761524113
 20
158.3304744148196903
 30
0.0
  0
VERTEX
  5
1627C
  8
0
 10
56.4139675976580222
 20
158.3348057384681908
 30
0.0
  0
VERTEX
  5
1627D
  8
0
 10
56.4312392338913469
 20
158.3391958119023002
 30
0.0
  0
VERTEX
  5
1627E
  8
0
 10
56.4482746925996821
 20
158.3436482251995869
 30
0.0
  0
VERTEX
  5
1627F
  8
0
 10
56.4650882512990435
 20
158.3481667696433135
 30
0.0
  0
VERTEX
  5
16280
  8
0
 10
56.4816777898554818
 20
158.3527504529259886
 30
0.0
  0
VERTEX
  5
16281
  8
0
 10
56.4980411881350619
 20
158.3573982827404905
 30
0.0
  0
VERTEX
  5
16282
  8
0
 10
56.5141763260039625
 20
158.362109266779413
 30
0.0
  0
VERTEX
  5
16283
  8
0
 10
56.5300810833281773
 20
158.3668824127354924
 30
0.0
  0
VERTEX
  5
16284
  8
0
 10
56.5457533399738921
 20
158.3717167283014078
 30
0.0
  0
VERTEX
  5
16285
  8
0
 10
56.5611909758071718
 20
158.3766112211698953
 30
0.0
  0
VERTEX
  5
16286
  8
0
 10
56.5763918706941169
 20
158.3815648990336058
 30
0.0
  0
VERTEX
  5
16287
  8
0
 10
56.5913539045008065
 20
158.3865767695853037
 30
0.0
  0
VERTEX
  5
16288
  8
0
 10
56.6060749570933694
 20
158.3916458405176968
 30
0.0
  0
VERTEX
  5
16289
  8
0
 10
56.6205529083379133
 20
158.3967711195232937
 30
0.0
  0
VERTEX
  5
1628A
  8
0
 10
56.6347856381004817
 20
158.4019516142953137
 30
0.0
  0
VERTEX
  5
1628B
  8
0
 10
56.6487710262471822
 20
158.407186332525896
 30
0.0
  0
VERTEX
  5
1628C
  8
0
 10
56.6625069526441507
 20
158.4124742819078051
 30
0.0
  0
VERTEX
  5
1628D
  8
0
 10
56.6759912971575091
 20
158.4178144701342035
 30
0.0
  0
VERTEX
  5
1628E
  8
0
 10
56.6892219396532866
 20
158.4232059048974008
 30
0.0
  0
VERTEX
  5
1628F
  8
0
 10
56.702196759997598
 20
158.4286475938901901
 30
0.0
  0
VERTEX
  5
16290
  8
0
 10
56.7149136380566006
 20
158.4341385448051938
 30
0.0
  0
VERTEX
  5
16291
  8
0
 10
56.7273704536962526
 20
158.4396777653352899
 30
0.0
  0
VERTEX
  5
16292
  8
0
 10
56.7395650867828181
 20
158.4452642631729873
 30
0.0
  0
VERTEX
  5
16293
  8
0
 10
56.7514954171822978
 20
158.4508970460111925
 30
0.0
  0
VERTEX
  5
16294
  8
0
 10
56.7631593247608066
 20
158.4565751215426133
 30
0.0
  0
VERTEX
  5
16295
  8
0
 10
56.7745546893845017
 20
158.4622974974597014
 30
0.0
  0
VERTEX
  5
16296
  8
0
 10
56.7856793909193698
 20
158.4680631814553067
 30
0.0
  0
VERTEX
  5
16297
  8
0
 10
56.7965313092315611
 20
158.4738711812221936
 30
0.0
  0
VERTEX
  5
16298
  8
0
 10
56.8071083241871975
 20
158.4797205044528994
 30
0.0
  0
VERTEX
  5
16299
  8
0
 10
56.8174083156523508
 20
158.4856101588403021
 30
0.0
  0
VERTEX
  5
1629A
  8
0
 10
56.8274291634931501
 20
158.4915391520771948
 30
0.0
  0
VERTEX
  5
1629B
  8
0
 10
56.8371687475756815
 20
158.4975064918560008
 30
0.0
  0
VERTEX
  5
1629C
  8
0
 10
56.8466249477659602
 20
158.5035111858695984
 30
0.0
  0
VERTEX
  5
1629D
  8
0
 10
56.8557956439302004
 20
158.50955224181061
 30
0.0
  0
VERTEX
  5
1629E
  8
0
 10
56.8646900802534105
 20
158.5156355521179989
 30
0.0
  0
VERTEX
  5
1629F
  8
0
 10
56.8733174515742235
 20
158.5217662321443868
 30
0.0
  0
VERTEX
  5
162A0
  8
0
 10
56.8816755637393001
 20
158.5279421239528119
 30
0.0
  0
VERTEX
  5
162A1
  8
0
 10
56.8897622225953228
 20
158.5341610696061139
 30
0.0
  0
VERTEX
  5
162A2
  8
0
 10
56.8975752339890306
 20
158.5404209111673879
 30
0.0
  0
VERTEX
  5
162A3
  8
0
 10
56.9051124037670277
 20
158.5467194906997008
 30
0.0
  0
VERTEX
  5
162A4
  8
0
 10
56.9123715377759893
 20
158.5530546502660911
 30
0.0
  0
VERTEX
  5
162A5
  8
0
 10
56.919350441862548
 20
158.5594242319293983
 30
0.0
  0
VERTEX
  5
162A6
  8
0
 10
56.9260469218734215
 20
158.5658260777528028
 30
0.0
  0
VERTEX
  5
162A7
  8
0
 10
56.9324587836552993
 20
158.572258029799201
 30
0.0
  0
VERTEX
  5
162A8
  8
0
 10
56.9385838330547926
 20
158.578717930131603
 30
0.0
  0
VERTEX
  5
162A9
  8
0
 10
56.9444198759185767
 20
158.5852036208131892
 30
0.0
  0
VERTEX
  5
162AA
  8
0
 10
56.9499647180933692
 20
158.5917129439067992
 30
0.0
  0
VERTEX
  5
162AB
  8
0
 10
56.9552161654257816
 20
158.5982437414754997
 30
0.0
  0
VERTEX
  5
162AC
  8
0
 10
56.9601720237625315
 20
158.6047938555823009
 30
0.0
  0
VERTEX
  5
162AD
  8
0
 10
56.9648300989501735
 20
158.6113611282902127
 30
0.0
  0
VERTEX
  5
162AE
  8
0
 10
56.9691936818365434
 20
158.6179447122217994
 30
0.0
  0
VERTEX
  5
162AF
  8
0
 10
56.9732676313493016
 20
158.6245452072899127
 30
0.0
  0
VERTEX
  5
162B0
  8
0
 10
56.977052105455293
 20
158.6311626264923973
 30
0.0
  0
VERTEX
  5
162B1
  8
0
 10
56.9805472621212488
 20
158.6377969828274104
 30
0.0
  0
VERTEX
  5
162B2
  8
0
 10
56.9837532593139713
 20
158.6444482892929955
 30
0.0
  0
VERTEX
  5
162B3
  8
0
 10
56.9866702550003197
 20
158.6511165588873098
 30
0.0
  0
VERTEX
  5
162B4
  8
0
 10
56.9892984071469684
 20
158.6578018046083969
 30
0.0
  0
VERTEX
  5
162B5
  8
0
 10
56.9916378737207765
 20
158.6645040394541013
 30
0.0
  0
VERTEX
  5
162B6
  8
0
 10
56.9936888126884895
 20
158.6712232764230066
 30
0.0
  0
VERTEX
  5
162B7
  8
0
 10
56.9954513820169879
 20
158.6779595285125026
 30
0.0
  0
VERTEX
  5
162B8
  8
0
 10
56.9969257396729319
 20
158.6847128087212866
 30
0.0
  0
VERTEX
  5
162B9
  8
0
 10
56.9981120436231521
 20
158.6914831300470894
 30
0.0
  0
VERTEX
  5
162BA
  8
0
 10
56.9990104518345291
 20
158.6982705054880114
 30
0.0
  0
VERTEX
  5
162BB
  8
0
 10
56.9996211222737585
 20
158.7050749480420961
 30
0.0
  0
VERTEX
  5
162BC
  8
0
 10
56.9999442129076073
 20
158.7118964707075008
 30
0.0
  0
VERTEX
  5
162BD
  8
0
 10
56.9999798817029202
 20
158.7187350864822122
 30
0.0
  0
VERTEX
  5
162BE
  8
0
 10
56.9997242465279328
 20
158.7255916196147041
 30
0.0
  0
VERTEX
  5
162BF
  8
0
 10
56.9991740175102635
 20
158.732465329946308
 30
0.0
  0
VERTEX
  5
162C0
  8
0
 10
56.9983302410055899
 20
158.7393538838653058
 30
0.0
  0
VERTEX
  5
162C1
  8
0
 10
56.9971939633696323
 20
158.7462549477596099
 30
0.0
  0
VERTEX
  5
162C2
  8
0
 10
56.9957662309581679
 20
158.7531661880177012
 30
0.0
  0
VERTEX
  5
162C3
  8
0
 10
56.9940480901269666
 20
158.7600852710274069
 30
0.0
  0
VERTEX
  5
162C4
  8
0
 10
56.9920405872316422
 20
158.7670098631768951
 30
0.0
  0
VERTEX
  5
162C5
  8
0
 10
56.9897447686280501
 20
158.7739376308543058
 30
0.0
  0
VERTEX
  5
162C6
  8
0
 10
56.987161680671818
 20
158.7808662404476934
 30
0.0
  0
VERTEX
  5
162C7
  8
0
 10
56.9842923697187871
 20
158.7877933583453114
 30
0.0
  0
VERTEX
  5
162C8
  8
0
 10
56.9811378821245924
 20
158.7947166509351007
 30
0.0
  0
VERTEX
  5
162C9
  8
0
 10
56.9776992642450608
 20
158.8016337846052863
 30
0.0
  0
VERTEX
  5
162CA
  8
0
 10
56.9739775624358273
 20
158.8085424257438092
 30
0.0
  0
VERTEX
  5
162CB
  8
0
 10
56.9699738230527331
 20
158.815440240739008
 30
0.0
  0
VERTEX
  5
162CC
  8
0
 10
56.9656890924513704
 20
158.8223248959789942
 30
0.0
  0
VERTEX
  5
162CD
  8
0
 10
56.961124416987623
 20
158.8291940578517085
 30
0.0
  0
VERTEX
  5
162CE
  8
0
 10
56.9562816932741995
 20
158.8360502148539126
 30
0.0
  0
VERTEX
  5
162CF
  8
0
 10
56.9511617742598304
 20
158.8428973886921938
 30
0.0
  0
VERTEX
  5
162D0
  8
0
 10
56.9457641408036466
 20
158.8497355455693025
 30
0.0
  0
VERTEX
  5
162D1
  8
0
 10
56.9400882737649994
 20
158.8565646516881031
 30
0.0
  0
VERTEX
  5
162D2
  8
0
 10
56.9341336540031335
 20
158.8633846732512893
 30
0.0
  0
VERTEX
  5
162D3
  8
0
 10
56.9278997623772511
 20
158.8701955764618106
 30
0.0
  0
VERTEX
  5
162D4
  8
0
 10
56.9213860797466396
 20
158.876997327522389
 30
0.0
  0
VERTEX
  5
162D5
  8
0
 10
56.9145920869706288
 20
158.8837898926360026
 30
0.0
  0
VERTEX
  5
162D6
  8
0
 10
56.9075172649084422
 20
158.8905732380052029
 30
0.0
  0
VERTEX
  5
162D7
  8
0
 10
56.9001610944193175
 20
158.8973473298329964
 30
0.0
  0
VERTEX
  5
162D8
  8
0
 10
56.8925230563625135
 20
158.9041121343219913
 30
0.0
  0
VERTEX
  5
162D9
  8
0
 10
56.8846026315973603
 20
158.9108676176753079
 30
0.0
  0
VERTEX
  5
162DA
  8
0
 10
56.8763993009831097
 20
158.9176137460954976
 30
0.0
  0
VERTEX
  5
162DB
  8
0
 10
56.8679125453789425
 20
158.92435048578551
 30
0.0
  0
VERTEX
  5
162DC
  8
0
 10
56.8591418456442028
 20
158.9310778029480105
 30
0.0
  0
VERTEX
  5
162DD
  8
0
 10
56.8500866826382207
 20
158.9377956637860052
 30
0.0
  0
VERTEX
  5
162DE
  8
0
 10
56.8407509494525627
 20
158.9444988436520987
 30
0.0
  0
VERTEX
  5
162DF
  8
0
 10
56.8311407433141085
 20
158.9511811440065969
 30
0.0
  0
VERTEX
  5
162E0
  8
0
 10
56.82125885128481
 20
158.9578410702131066
 30
0.0
  0
VERTEX
  5
162E1
  8
0
 10
56.8111080604265908
 20
158.964477127635206
 30
0.0
  0
VERTEX
  5
162E2
  8
0
 10
56.8006911578013813
 20
158.971087821636587
 30
0.0
  0
VERTEX
  5
162E3
  8
0
 10
56.7900109304711123
 20
158.9776716575809132
 30
0.0
  0
VERTEX
  5
162E4
  8
0
 10
56.7790701654976715
 20
158.9842271408317913
 30
0.0
  0
VERTEX
  5
162E5
  8
0
 10
56.7678716499429967
 20
158.9907527767529984
 30
0.0
  0
VERTEX
  5
162E6
  8
0
 10
56.7564181708690398
 20
158.9972470707081982
 30
0.0
  0
VERTEX
  5
162E7
  8
0
 10
56.7447125153377669
 20
159.0037085280609119
 30
0.0
  0
VERTEX
  5
162E8
  8
0
 10
56.7327574704110589
 20
159.0101356541748032
 30
0.0
  0
VERTEX
  5
162E9
  8
0
 10
56.7205558231507894
 20
159.0165269544137914
 30
0.0
  0
VERTEX
  5
162EA
  8
0
 10
56.7081103606190027
 20
159.0228809341411988
 30
0.0
  0
VERTEX
  5
162EB
  8
0
 10
56.6954238698775086
 20
159.0291960987208881
 30
0.0
  0
VERTEX
  5
162EC
  8
0
 10
56.6824991379883087
 20
159.0354709535164943
 30
0.0
  0
VERTEX
  5
162ED
  8
0
 10
56.6693389520133195
 20
159.0417040038915957
 30
0.0
  0
VERTEX
  5
162EE
  8
0
 10
56.6559407688847116
 20
159.0478976899732118
 30
0.0
  0
VERTEX
  5
162EF
  8
0
 10
56.6422995093610595
 20
159.054055313402614
 30
0.0
  0
VERTEX
  5
162F0
  8
0
 10
56.6284141562440482
 20
159.0601766718141903
 30
0.0
  0
VERTEX
  5
162F1
  8
0
 10
56.6142836923353272
 20
159.0662615628430103
 30
0.0
  0
VERTEX
  5
162F2
  8
0
 10
56.5999071004364893
 20
159.0723097841232914
 30
0.0
  0
VERTEX
  5
162F3
  8
0
 10
56.5852833633490917
 20
159.0783211332899896
 30
0.0
  0
VERTEX
  5
162F4
  8
0
 10
56.5704114638749118
 20
159.0842954079776064
 30
0.0
  0
VERTEX
  5
162F5
  8
0
 10
56.5552903848154074
 20
159.0902324058210979
 30
0.0
  0
VERTEX
  5
162F6
  8
0
 10
56.539919108972299
 20
159.0961319244549088
 30
0.0
  0
VERTEX
  5
162F7
  8
0
 10
56.5242966191472007
 20
159.101993761513711
 30
0.0
  0
VERTEX
  5
162F8
  8
0
 10
56.5084218981416981
 20
159.1078177146324037
 30
0.0
  0
VERTEX
  5
162F9
  8
0
 10
56.4922939287574621
 20
159.1136035814454033
 30
0.0
  0
VERTEX
  5
162FA
  8
0
 10
56.4759116937961565
 20
159.1193511595876089
 30
0.0
  0
VERTEX
  5
162FB
  8
0
 10
56.4592741760592816
 20
159.1250602466934083
 30
0.0
  0
VERTEX
  5
162FC
  8
0
 10
56.4423803583486006
 20
159.1307306403977861
 30
0.0
  0
VERTEX
  5
162FD
  8
0
 10
56.4252292234656423
 20
159.136362138335187
 30
0.0
  0
VERTEX
  5
162FE
  8
0
 10
56.3902939733785615
 20
159.1474616256504078
 30
0.0
  0
VERTEX
  5
162FF
  8
0
 10
56.354611359353207
 20
159.1583119002577007
 30
0.0
  0
VERTEX
  5
16300
  8
0
 10
56.3181852905316305
 20
159.1689125767433097
 30
0.0
  0
VERTEX
  5
16301
  8
0
 10
56.2810196760559975
 20
159.1792632696931946
 30
0.0
  0
VERTEX
  5
16302
  8
0
 10
56.2431184250685305
 20
159.189363593693713
 30
0.0
  0
VERTEX
  5
16303
  8
0
 10
56.2044854467112529
 20
159.1992131633305974
 30
0.0
  0
VERTEX
  5
16304
  8
0
 10
56.1651246501264723
 20
159.2088115931902053
 30
0.0
  0
VERTEX
  5
16305
  8
0
 10
56.1250399444562476
 20
159.2181584978586955
 30
0.0
  0
VERTEX
  5
16306
  8
0
 10
56.104712387173997
 20
159.2227397159267923
 30
0.0
  0
VERTEX
  5
16307
  8
0
 10
56.0841787032897514
 20
159.2272614211427992
 30
0.0
  0
VERTEX
  5
16308
  8
0
 10
56.0425147404973174
 20
159.2361206806976952
 30
0.0
  0
VERTEX
  5
16309
  8
0
 10
56.0000916256430514
 20
159.2447250518816872
 30
0.0
  0
VERTEX
  5
1630A
  8
0
 10
55.9569529282908178
 20
159.2530633100531929
 30
0.0
  0
VERTEX
  5
1630B
  8
0
 10
55.9131422180047295
 20
159.2611242305702035
 30
0.0
  0
VERTEX
  5
1630C
  8
0
 10
55.8687030643487716
 20
159.2688965887915913
 30
0.0
  0
VERTEX
  5
1630D
  8
0
 10
55.8236790368869009
 20
159.2763691600752054
 30
0.0
  0
VERTEX
  5
1630E
  8
0
 10
55.7781137051832232
 20
159.2835307197796055
 30
0.0
  0
VERTEX
  5
1630F
  8
0
 10
55.7321104504540017
 20
159.2903660692196866
 30
0.0
  0
VERTEX
  5
16310
  8
0
 10
55.6857435906242628
 20
159.2968672443022911
 30
0.0
  0
VERTEX
  5
16311
  8
0
 10
55.6390131003206534
 20
159.303033872273005
 30
0.0
  0
VERTEX
  5
16312
  8
0
 10
55.5919189541698415
 20
159.3088655803776987
 30
0.0
  0
VERTEX
  5
16313
  8
0
 10
55.5444611267984669
 20
159.3143619958619865
 30
0.0
  0
VERTEX
  5
16314
  8
0
 10
55.4966395928332901
 20
159.3195227459717955
 30
0.0
  0
VERTEX
  5
16315
  8
0
 10
55.4484543269008512
 20
159.3243474579527117
 30
0.0
  0
VERTEX
  5
16316
  8
0
 10
55.3999053036279179
 20
159.3288357590504063
 30
0.0
  0
VERTEX
  5
16317
  8
0
 10
55.3509599521270275
 20
159.3329856604520103
 30
0.0
  0
VERTEX
  5
16318
  8
0
 10
55.3016221794614466
 20
159.336791618624801
 30
0.0
  0
VERTEX
  5
16319
  8
0
 10
55.2519466771840371
 20
159.3402479287360052
 30
0.0
  0
VERTEX
  5
1631A
  8
0
 10
55.2019881368476106
 20
159.3433488859521105
 30
0.0
  0
VERTEX
  5
1631B
  8
0
 10
55.1518012500049508
 20
159.3460887854402017
 30
0.0
  0
VERTEX
  5
1631C
  8
0
 10
55.1014407082088127
 20
159.3484619223671928
 30
0.0
  0
VERTEX
  5
1631D
  8
0
 10
55.0509612030121502
 20
159.3504625918999977
 30
0.0
  0
VERTEX
  5
1631E
  8
0
 10
55.0004174259675978
 20
159.3520850892055023
 30
0.0
  0
VERTEX
  5
1631F
  8
0
 10
54.94996667233886
 20
159.3533262354353042
 30
0.0
  0
VERTEX
  5
16320
  8
0
 10
54.8997292005686717
 20
159.3541879460655935
 30
0.0
  0
VERTEX
  5
16321
  8
0
 10
54.8497041469789721
 20
159.3546721577496896
 30
0.0
  0
VERTEX
  5
16322
  8
0
 10
54.7998906478914591
 20
159.3547808071413101
 30
0.0
  0
VERTEX
  5
16323
  8
0
 10
54.7502878396279016
 20
159.3545158308938028
 30
0.0
  0
VERTEX
  5
16324
  8
0
 10
54.7008948585101393
 20
159.3538791656606861
 30
0.0
  0
VERTEX
  5
16325
  8
0
 10
54.651710840859927
 20
159.3528727480955922
 30
0.0
  0
VERTEX
  5
16326
  8
0
 10
54.6027349229990975
 20
159.3514985148518122
 30
0.0
  0
VERTEX
  5
16327
  8
0
 10
54.5539122922371575
 20
159.349750576679412
 30
0.0
  0
VERTEX
  5
16328
  8
0
 10
54.5052376510867589
 20
159.3476250026070886
 30
0.0
  0
VERTEX
  5
16329
  8
0
 10
54.4567844086741388
 20
159.3451266667065909
 30
0.0
  0
VERTEX
  5
1632A
  8
0
 10
54.4086259741255276
 20
159.3422604430498097
 30
0.0
  0
VERTEX
  5
1632B
  8
0
 10
54.3608357565671625
 20
159.3390312057086078
 30
0.0
  0
VERTEX
  5
1632C
  8
0
 10
54.3134871651252382
 20
159.3354438287547055
 30
0.0
  0
VERTEX
  5
1632D
  8
0
 10
54.2666536089260916
 20
159.3315031862599938
 30
0.0
  0
VERTEX
  5
1632E
  8
0
 10
54.2204084970960025
 20
159.3272141522963068
 30
0.0
  0
VERTEX
  5
1632F
  8
0
 10
54.1747885977610508
 20
159.3225851182070869
 30
0.0
  0
VERTEX
  5
16330
  8
0
 10
54.1297811763570209
 20
159.317621780075001
 30
0.0
  0
VERTEX
  5
16331
  8
0
 10
54.0853853879743269
 20
159.3123249690808905
 30
0.0
  0
VERTEX
  5
16332
  8
0
 10
54.0416003877032765
 20
159.3066955164051137
 30
0.0
  0
VERTEX
  5
16333
  8
0
 10
53.9984253306343334
 20
159.3007342532283133
 30
0.0
  0
VERTEX
  5
16334
  8
0
 10
53.9558593718577981
 20
159.2944420107313022
 30
0.0
  0
VERTEX
  5
16335
  8
0
 10
53.9139016664641417
 20
159.2878196200944956
 30
0.0
  0
VERTEX
  5
16336
  8
0
 10
53.8725513695437073
 20
159.2808679124985929
 30
0.0
  0
VERTEX
  5
16337
  8
0
 10
53.8318566265778671
 20
159.2735915409897132
 30
0.0
  0
VERTEX
  5
16338
  8
0
 10
53.7918924637469971
 20
159.2660023128017883
 30
0.0
  0
VERTEX
  5
16339
  8
0
 10
53.7721966861755618
 20
159.2620939907230024
 30
0.0
  0
VERTEX
  5
1633A
  8
0
 10
53.752698357189999
 20
159.2581117903980896
 30
0.0
  0
VERTEX
  5
1633B
  8
0
 10
53.7334024113076225
 20
159.2540571571350085
 30
0.0
  0
VERTEX
  5
1633C
  8
0
 10
53.7143137830458386
 20
159.2499315362418884
 30
0.0
  0
VERTEX
  5
1633D
  8
0
 10
53.6954374069219327
 20
159.2457363730262045
 30
0.0
  0
VERTEX
  5
1633E
  8
0
 10
53.676778217453311
 20
159.2414731127960863
 30
0.0
  0
VERTEX
  5
1633F
  8
0
 10
53.6583411491573585
 20
159.237143200859407
 30
0.0
  0
VERTEX
  5
16340
  8
0
 10
53.6401311365514175
 20
159.2327480825238979
 30
0.0
  0
VERTEX
  5
16341
  8
0
 10
53.6221531141528729
 20
159.2282892030976882
 30
0.0
  0
VERTEX
  5
16342
  8
0
 10
53.6044120164789817
 20
159.2237680078885091
 30
0.0
  0
VERTEX
  5
16343
  8
0
 10
53.5869127780472283
 20
159.219185942204291
 30
0.0
  0
VERTEX
  5
16344
  8
0
 10
53.5696603333749906
 20
159.2145444513529924
 30
0.0
  0
VERTEX
  5
16345
  8
0
 10
53.5526429907765618
 20
159.2098400791007009
 30
0.0
  0
VERTEX
  5
16346
  8
0
 10
53.5358471528272091
 20
159.2050691591786062
 30
0.0
  0
VERTEX
  5
16347
  8
0
 10
53.5192748954355082
 20
159.2002328218422917
 30
0.0
  0
VERTEX
  5
16348
  8
0
 10
53.5029282945100704
 20
159.1953321973477955
 30
0.0
  0
VERTEX
  5
16349
  8
0
 10
53.4868094259593931
 20
159.1903684159505019
 30
0.0
  0
VERTEX
  5
1634A
  8
0
 10
53.470920365692038
 20
159.185342607906307
 30
0.0
  0
VERTEX
  5
1634B
  8
0
 10
53.455263189616737
 20
159.1802559034707087
 30
0.0
  0
VERTEX
  5
1634C
  8
0
 10
53.439839973641881
 20
159.1751094328994895
 30
0.0
  0
VERTEX
  5
1634D
  8
0
 10
53.4246527936760884
 20
159.1699043264484033
 30
0.0
  0
VERTEX
  5
1634E
  8
0
 10
53.4097037256279279
 20
159.1646417143728911
 30
0.0
  0
VERTEX
  5
1634F
  8
0
 10
53.3949948454060674
 20
159.1593227269289059
 30
0.0
  0
VERTEX
  5
16350
  8
0
 10
53.3805282289189194
 20
159.1539484943720026
 30
0.0
  0
VERTEX
  5
16351
  8
0
 10
53.3663059520751517
 20
159.148520146957992
 30
0.0
  0
VERTEX
  5
16352
  8
0
 10
53.3523300907833615
 20
159.1430388149422015
 30
0.0
  0
VERTEX
  5
16353
  8
0
 10
53.3386027209520535
 20
159.1375056285808967
 30
0.0
  0
VERTEX
  5
16354
  8
0
 10
53.3251259184897819
 20
159.1319217181292913
 30
0.0
  0
VERTEX
  5
16355
  8
0
 10
53.311901759305151
 20
159.1262882138431962
 30
0.0
  0
VERTEX
  5
16356
  8
0
 10
53.2989323193068003
 20
159.1206062459783936
 30
0.0
  0
VERTEX
  5
16357
  8
0
 10
53.286219674403192
 20
159.1148769447904101
 30
0.0
  0
VERTEX
  5
16358
  8
0
 10
53.2737659005029514
 20
159.1091014405351132
 30
0.0
  0
VERTEX
  5
16359
  8
0
 10
53.2615730735146116
 20
159.1032808634680009
 30
0.0
  0
VERTEX
  5
1635A
  8
0
 10
53.2496432693467909
 20
159.0974163438449978
 30
0.0
  0
VERTEX
  5
1635B
  8
0
 10
53.2379785639080225
 20
159.0915090119214028
 30
0.0
  0
VERTEX
  5
1635C
  8
0
 10
53.2265810331069318
 20
159.0855599979533963
 30
0.0
  0
VERTEX
  5
1635D
  8
0
 10
53.215452752852002
 20
159.0795704321961921
 30
0.0
  0
VERTEX
  5
1635E
  8
0
 10
53.2045957990518303
 20
159.0735414449059135
 30
0.0
  0
VERTEX
  5
1635F
  8
0
 10
53.1940122476150918
 20
159.0674741663378882
 30
0.0
  0
VERTEX
  5
16360
  8
0
 10
53.1837041744501988
 20
159.061369726747813
 30
0.0
  0
VERTEX
  5
16361
  8
0
 10
53.1736736554658407
 20
159.0552292563918115
 30
0.0
  0
VERTEX
  5
16362
  8
0
 10
53.1639227665705221
 20
159.0490538855250975
 30
0.0
  0
VERTEX
  5
16363
  8
0
 10
53.1544535836728826
 20
159.04284474440351
 30
0.0
  0
VERTEX
  5
16364
  8
0
 10
53.1452681826813773
 20
159.0366029632826894
 30
0.0
  0
VERTEX
  5
16365
  8
0
 10
53.136357468943622
 20
159.0303225411198014
 30
0.0
  0
VERTEX
  5
16366
  8
0
 10
53.1277124472007927
 20
159.0239982578470119
 30
0.0
  0
VERTEX
  5
16367
  8
0
 10
53.119335342452132
 20
159.0176324151825895
 30
0.0
  0
VERTEX
  5
16368
  8
0
 10
53.111228379696847
 20
159.0112273148450015
 30
0.0
  0
VERTEX
  5
16369
  8
0
 10
53.1033937839342229
 20
159.0047852585526869
 30
0.0
  0
VERTEX
  5
1636A
  8
0
 10
53.0958337801633178
 20
158.998308548024113
 30
0.0
  0
VERTEX
  5
1636B
  8
0
 10
53.088550593383502
 20
158.9917994849774061
 30
0.0
  0
VERTEX
  5
1636C
  8
0
 10
53.081546448593933
 20
158.9852603711312895
 30
0.0
  0
VERTEX
  5
1636D
  8
0
 10
53.0748235707937823
 20
158.9786935082040031
 30
0.0
  0
VERTEX
  5
1636E
  8
0
 10
53.0683841849823423
 20
158.972101197913986
 30
0.0
  0
VERTEX
  5
1636F
  8
0
 10
53.0622305161587704
 20
158.9654857419795917
 30
0.0
  0
VERTEX
  5
16370
  8
0
 10
53.0563647893222807
 20
158.9588494421192024
 30
0.0
  0
VERTEX
  5
16371
  8
0
 10
53.0507892294721017
 20
158.952194600051314
 30
0.0
  0
VERTEX
  5
16372
  8
0
 10
53.0455060616075116
 20
158.9455235174941947
 30
0.0
  0
VERTEX
  5
16373
  8
0
 10
53.0405175107276179
 20
158.9388384961663121
 30
0.0
  0
VERTEX
  5
16374
  8
0
 10
53.0358258018317201
 20
158.932141837786105
 30
0.0
  0
VERTEX
  5
16375
  8
0
 10
53.0314274702943607
 20
158.9254341368873042
 30
0.0
  0
VERTEX
  5
16376
  8
0
 10
53.0273175082208468
 20
158.9187144664778089
 30
0.0
  0
VERTEX
  5
16377
  8
0
 10
53.0234958257064477
 20
158.9119828459876942
 30
0.0
  0
VERTEX
  5
16378
  8
0
 10
53.0199623328464327
 20
158.9052392948464956
 30
0.0
  0
VERTEX
  5
16379
  8
0
 10
53.0167169397360567
 20
158.8984838324840894
 30
0.0
  0
VERTEX
  5
1637A
  8
0
 10
53.0137595564706317
 20
158.8917164783302098
 30
0.0
  0
VERTEX
  5
1637B
  8
0
 10
53.0110900931453983
 20
158.8849372518147902
 30
0.0
  0
VERTEX
  5
1637C
  8
0
 10
53.0087084598557112
 20
158.8781461723673942
 30
0.0
  0
VERTEX
  5
1637D
  8
0
 10
53.0066145666967188
 20
158.8713432594180119
 30
0.0
  0
VERTEX
  5
1637E
  8
0
 10
53.0048083237638323
 20
158.8645285323962071
 30
0.0
  0
VERTEX
  5
1637F
  8
0
 10
53.0032896411521506
 20
158.8577020107319129
 30
0.0
  0
VERTEX
  5
16380
  8
0
 10
53.0020584289570706
 20
158.8508637138550057
 30
0.0
  0
VERTEX
  5
16381
  8
0
 10
53.0011145972738902
 20
158.8440136611949924
 30
0.0
  0
VERTEX
  5
16382
  8
0
 10
53.0004580561977718
 20
158.8371518721818916
 30
0.0
  0
VERTEX
  5
16383
  8
0
 10
53.000088715824063
 20
158.830278366245409
 30
0.0
  0
VERTEX
  5
16384
  8
0
 10
53.0000064862480116
 20
158.8233931628155062
 30
0.0
  0
VERTEX
  5
16385
  8
0
 10
53.0002153061638026
 20
158.8164956409578963
 30
0.0
  0
VERTEX
  5
16386
  8
0
 10
53.0007185190984274
 20
158.8095867168860025
 30
0.0
  0
VERTEX
  5
16387
  8
0
 10
53.0015151423968973
 20
158.802668715750201
 30
0.0
  0
VERTEX
  5
16388
  8
0
 10
53.0026041934039398
 20
158.7957439627010956
 30
0.0
  0
VERTEX
  5
16389
  8
0
 10
53.0039846894644029
 20
158.7888147828888918
 30
0.0
  0
VERTEX
  5
1638A
  8
0
 10
53.0056556479231631
 20
158.7818835014641934
 30
0.0
  0
VERTEX
  5
1638B
  8
0
 10
53.007616086124969
 20
158.7749524435774049
 30
0.0
  0
VERTEX
  5
1638C
  8
0
 10
53.0098650214147327
 20
158.7680239343791868
 30
0.0
  0
VERTEX
  5
1638D
  8
0
 10
53.0124014711372382
 20
158.761100299019688
 30
0.0
  0
VERTEX
  5
1638E
  8
0
 10
53.0152244526373693
 20
158.7541838626495121
 30
0.0
  0
VERTEX
  5
1638F
  8
0
 10
53.0183329832598815
 20
158.7472769504190069
 30
0.0
  0
VERTEX
  5
16390
  8
0
 10
53.0217260803496515
 20
158.7403818874788897
 30
0.0
  0
VERTEX
  5
16391
  8
0
 10
53.0254027612515273
 20
158.7335009989795083
 30
0.0
  0
VERTEX
  5
16392
  8
0
 10
53.0293620433103072
 20
158.7266366100710115
 30
0.0
  0
VERTEX
  5
16393
  8
0
 10
53.0336029438708465
 20
158.719791045904401
 30
0.0
  0
VERTEX
  5
16394
  8
0
 10
53.038124480277979
 20
158.7129666316297119
 30
0.0
  0
VERTEX
  5
16395
  8
0
 10
53.0429248064157832
 20
158.7061607880897895
 30
0.0
  0
VERTEX
  5
16396
  8
0
 10
53.0480031136605703
 20
158.6993693902250016
 30
0.0
  0
VERTEX
  5
16397
  8
0
 10
53.0533599755955834
 20
158.6925924443318081
 30
0.0
  0
VERTEX
  5
16398
  8
0
 10
53.0589959658039518
 20
158.6858299567070958
 30
0.0
  0
VERTEX
  5
16399
  8
0
 10
53.0649116578688904
 20
158.6790819336474101
 30
0.0
  0
VERTEX
  5
1639A
  8
0
 10
53.0711076253735996
 20
158.6723483814494955
 30
0.0
  0
VERTEX
  5
1639B
  8
0
 10
53.0775844419011875
 20
158.6656293064100112
 30
0.0
  0
VERTEX
  5
1639C
  8
0
 10
53.0843426810348689
 20
158.6589247148255879
 30
0.0
  0
VERTEX
  5
1639D
  8
0
 10
53.0913829163578228
 20
158.6522346129929133
 30
0.0
  0
VERTEX
  5
1639E
  8
0
 10
53.0987057214532427
 20
158.6455590072085897
 30
0.0
  0
VERTEX
  5
1639F
  8
0
 10
53.1063116699043078
 20
158.6388979037695037
 30
0.0
  0
VERTEX
  5
163A0
  8
0
 10
53.1142013352941689
 20
158.6322513089720871
 30
0.0
  0
VERTEX
  5
163A1
  8
0
 10
53.1223752912060831
 20
158.6256192291131129
 30
0.0
  0
VERTEX
  5
163A2
  8
0
 10
53.1308341112231091
 20
158.6190016704892969
 30
0.0
  0
VERTEX
  5
163A3
  8
0
 10
53.1395783689285324
 20
158.6123986393972132
 30
0.0
  0
VERTEX
  5
163A4
  8
0
 10
53.1486086379055607
 20
158.6058101421336062
 30
0.0
  0
VERTEX
  5
163A5
  8
0
 10
53.1579211147244379
 20
158.5992413328345094
 30
0.0
  0
VERTEX
  5
163A6
  8
0
 10
53.1675097475664984
 20
158.5926982940854089
 30
0.0
  0
VERTEX
  5
163A7
  8
0
 10
53.1773717374312014
 20
158.5861824248572987
 30
0.0
  0
VERTEX
  5
163A8
  8
0
 10
53.1875042853180702
 20
158.5796951241210877
 30
0.0
  0
VERTEX
  5
163A9
  8
0
 10
53.197904592226692
 20
158.5732377908477133
 30
0.0
  0
VERTEX
  5
163AA
  8
0
 10
53.2085698591565119
 20
158.5668118240081128
 30
0.0
  0
VERTEX
  5
163AB
  8
0
 10
53.2194972871071315
 20
158.5604186225733088
 30
0.0
  0
VERTEX
  5
163AC
  8
0
 10
53.2306840770779104
 20
158.5540595855140111
 30
0.0
  0
VERTEX
  5
163AD
  8
0
 10
53.2421274300684786
 20
158.547736111801413
 30
0.0
  0
VERTEX
  5
163AE
  8
0
 10
53.2538245470783522
 20
158.5414496004063096
 30
0.0
  0
VERTEX
  5
163AF
  8
0
 10
53.2657726291069977
 20
158.5352014502996099
 30
0.0
  0
VERTEX
  5
163B0
  8
0
 10
53.2779688771540094
 20
158.5289930604523931
 30
0.0
  0
VERTEX
  5
163B1
  8
0
 10
53.2904104922188111
 20
158.5228258298353978
 30
0.0
  0
VERTEX
  5
163B2
  8
0
 10
53.30309467530099
 20
158.5167011574197033
 30
0.0
  0
VERTEX
  5
163B3
  8
0
 10
53.3160186274000125
 20
158.5106204421763039
 30
0.0
  0
VERTEX
  5
163B4
  8
0
 10
53.329179549515402
 20
158.5045850830759093
 30
0.0
  0
VERTEX
  5
163B5
  8
0
 10
53.3425800129904104
 20
158.4985925782762024
 30
0.0
  0
VERTEX
  5
163B6
  8
0
 10
53.3562251380015411
 20
158.4926395698946919
 30
0.0
  0
VERTEX
  5
163B7
  8
0
 10
53.3701159487978884
 20
158.4867261728421965
 30
0.0
  0
VERTEX
  5
163B8
  8
0
 10
53.3842534696286108
 20
158.4808525020297907
 30
0.0
  0
VERTEX
  5
163B9
  8
0
 10
53.398638724742959
 20
158.4750186723684067
 30
0.0
  0
VERTEX
  5
163BA
  8
0
 10
53.4132727383900914
 20
158.4692247987690905
 30
0.0
  0
VERTEX
  5
163BB
  8
0
 10
53.4281565348192018
 20
158.4634709961426893
 30
0.0
  0
VERTEX
  5
163BC
  8
0
 10
53.4432911382794487
 20
158.4577573794003911
 30
0.0
  0
VERTEX
  5
163BD
  8
0
 10
53.4586775730200614
 20
158.4520840634529861
 30
0.0
  0
VERTEX
  5
163BE
  8
0
 10
53.4743168632901416
 20
158.4464511632114068
 30
0.0
  0
VERTEX
  5
163BF
  8
0
 10
53.4902100333389399
 20
158.440858793586699
 30
0.0
  0
VERTEX
  5
163C0
  8
0
 10
53.5063581074155721
 20
158.4353070694899088
 30
0.0
  0
VERTEX
  5
163C1
  8
0
 10
53.52276210976936
 20
158.429796105831997
 30
0.0
  0
VERTEX
  5
163C2
  8
0
 10
53.539423064649327
 20
158.4243260175238106
 30
0.0
  0
VERTEX
  5
163C3
  8
0
 10
53.5563419963047522
 20
158.4188969194763104
 30
0.0
  0
VERTEX
  5
163C4
  8
0
 10
53.5735199289848083
 20
158.4135089266005991
 30
0.0
  0
VERTEX
  5
163C5
  8
0
 10
53.6085104808937629
 20
158.4029014550235956
 30
0.0
  0
VERTEX
  5
163C6
  8
0
 10
53.644248838909121
 20
158.3925480976872961
 30
0.0
  0
VERTEX
  5
163C7
  8
0
 10
53.6807317041157006
 20
158.3824480287663903
 30
0.0
  0
VERTEX
  5
163C8
  8
0
 10
53.7179557775987675
 20
158.3726004224359087
 30
0.0
  0
VERTEX
  5
163C9
  8
0
 10
53.7559177604431966
 20
158.3630044528705128
 30
0.0
  0
VERTEX
  5
163CA
  8
0
 10
53.7946143537340689
 20
158.3536592942452899
 30
0.0
  0
VERTEX
  5
163CB
  8
0
 10
53.83404225855638
 20
158.3445641207349013
 30
0.0
  0
VERTEX
  5
163CC
  8
0
 10
53.8741981759951969
 20
158.3357181065142072
 30
0.0
  0
VERTEX
  5
163CD
  8
0
 10
53.8945632441220823
 20
158.3313862629393043
 30
0.0
  0
VERTEX
  5
163CE
  8
0
 10
53.9151357769929902
 20
158.3271132768032885
 30
0.0
  0
VERTEX
  5
163CF
  8
0
 10
53.9568801525610908
 20
158.3187488852753972
 30
0.0
  0
VERTEX
  5
163D0
  8
0
 10
53.9993851338881399
 20
158.310634948785605
 30
0.0
  0
VERTEX
  5
163D1
  8
0
 10
54.0426045521626293
 20
158.302781484188813
 30
0.0
  0
VERTEX
  5
163D2
  8
0
 10
54.0864922385730367
 20
158.2951985083402064
 30
0.0
  0
VERTEX
  5
163D3
  8
0
 10
54.1310020243078469
 20
158.2878960380946012
 30
0.0
  0
VERTEX
  5
163D4
  8
0
 10
54.1760877405557224
 20
158.280884090307211
 30
0.0
  0
VERTEX
  5
163D5
  8
0
 10
54.221703218505013
 20
158.2741726818329084
 30
0.0
  0
VERTEX
  5
163D6
  8
0
 10
54.2677505190112015
 20
158.2677740749919053
 30
0.0
  0
VERTEX
  5
163D7
  8
0
 10
54.3141624542110435
 20
158.2616936355171902
 30
0.0
  0
VERTEX
  5
163D8
  8
0
 10
54.3609389822152025
 20
158.2559310353832984
 30
0.0
  0
VERTEX
  5
163D9
  8
0
 10
54.4080800611341715
 20
158.250485946564396
 30
0.0
  0
VERTEX
  5
163DA
  8
0
 10
54.455585649078607
 20
158.2453580410345921
 30
0.0
  0
VERTEX
  5
163DB
  8
0
 10
54.5034557041590304
 20
158.2405469907685074
 30
0.0
  0
VERTEX
  5
163DC
  8
0
 10
54.5516901844861195
 20
158.2360524677401088
 30
0.0
  0
VERTEX
  5
163DD
  8
0
 10
54.6002890481704029
 20
158.2318741439237897
 30
0.0
  0
VERTEX
  5
163DE
  8
0
 10
54.6492828365967966
 20
158.228013454470414
 30
0.0
  0
VERTEX
  5
163DF
  8
0
 10
54.6986650370312191
 20
158.2244752733516009
 30
0.0
  0
VERTEX
  5
163E0
  8
0
 10
54.7483800264056981
 20
158.2212644307726919
 30
0.0
  0
VERTEX
  5
163E1
  8
0
 10
54.798372181652212
 20
158.2183857569391137
 30
0.0
  0
VERTEX
  5
163E2
  8
0
 10
54.8485858797028385
 20
158.2158440820562078
 30
0.0
  0
VERTEX
  5
163E3
  8
0
 10
54.8989654974895984
 20
158.2136442363295998
 30
0.0
  0
VERTEX
  5
163E4
  8
0
 10
54.9494554119445411
 20
158.2117910499644893
 30
0.0
  0
VERTEX
  5
163E5
  8
0
 10
54.9999999999996518
 20
158.2102893531665018
 30
0.0
  0
SEQEND
  5
163E6
  8
0
  0
POLYLINE
  5
14E9C
  8
0
 66
     1
 10
0.0
 20
0.0
 30
0.0
  0
VERTEX
  5
163E7
  8
0
 10
66.9999999999996589
 20
155.6073665893588043
 30
0.0
  0
VERTEX
  5
163E8
  8
0
 10
67.0746358377198248
 20
155.6018055654357966
 30
0.0
  0
VERTEX
  5
163E9
  8
0
 10
67.1491001049328702
 20
155.5965390726327939
 30
0.0
  0
VERTEX
  5
163EA
  8
0
 10
67.2233932132814971
 20
155.5915662206350021
 30
0.0
  0
VERTEX
  5
163EB
  8
0
 10
67.297515574408294
 20
155.5868861191270014
 30
0.0
  0
VERTEX
  5
163EC
  8
0
 10
67.37146759995602
 20
155.5824978777941965
 30
0.0
  0
VERTEX
  5
163ED
  8
0
 10
67.4452497015672634
 20
155.5784006063211109
 30
0.0
  0
VERTEX
  5
163EE
  8
0
 10
67.5188622908847265
 20
155.5745934143928935
 30
0.0
  0
VERTEX
  5
163EF
  8
0
 10
67.5923057795511113
 20
155.5710754116942951
 30
0.0
  0
VERTEX
  5
163F0
  8
0
 10
67.6655805792090632
 20
155.567845707910493
 30
0.0
  0
VERTEX
  5
163F1
  8
0
 10
67.7386871015012133
 20
155.5649034127262098
 30
0.0
  0
VERTEX
  5
163F2
  8
0
 10
67.8116257580703063
 20
155.5622476358265942
 30
0.0
  0
VERTEX
  5
163F3
  8
0
 10
67.8843969605590019
 20
155.5598774868965108
 30
0.0
  0
VERTEX
  5
163F4
  8
0
 10
67.9570011206099025
 20
155.5577920756207106
 30
0.0
  0
VERTEX
  5
163F5
  8
0
 10
68.0294603216203768
 20
155.5559917315320035
 30
0.0
  0
VERTEX
  5
163F6
  8
0
 10
68.1018395323312831
 20
155.5544806325133038
 30
0.0
  0
VERTEX
  5
163F7
  8
0
 10
68.174109402535251
 20
155.5532593959702865
 30
0.0
  0
VERTEX
  5
163F8
  8
0
 10
68.2462318786648439
 20
155.5523282258091058
 30
0.0
  0
VERTEX
  5
163F9
  8
0
 10
68.3181689071526534
 20
155.5516873259358022
 30
0.0
  0
VERTEX
  5
163FA
  8
0
 10
68.3898824344312146
 20
155.551336900256814
 30
0.0
  0
VERTEX
  5
163FB
  8
0
 10
68.4613344069331333
 20
155.5512771526780114
 30
0.0
  0
VERTEX
  5
163FC
  8
0
 10
68.5324867710909871
 20
155.5515082871058041
 30
0.0
  0
VERTEX
  5
163FD
  8
0
 10
68.6033014733373534
 20
155.5520305074462044
 30
0.0
  0
VERTEX
  5
163FE
  8
0
 10
68.6737404601048098
 20
155.5528440176055085
 30
0.0
  0
VERTEX
  5
163FF
  8
0
 10
68.743765677825877
 20
155.5539490214898137
 30
0.0
  0
VERTEX
  5
16400
  8
0
 10
68.8133390729332035
 20
155.555345723005189
 30
0.0
  0
VERTEX
  5
16401
  8
0
 10
68.8824225918593243
 20
155.5570343260583002
 30
0.0
  0
VERTEX
  5
16402
  8
0
 10
68.9509791461596819
 20
155.5590147618511025
 30
0.0
  0
VERTEX
  5
16403
  8
0
 10
69.019001867460716
 20
155.5612812053738025
 30
0.0
  0
VERTEX
  5
16404
  8
0
 10
69.0864960229638427
 20
155.5638313037599119
 30
0.0
  0
VERTEX
  5
16405
  8
0
 10
69.1534617766602651
 20
155.5666651478780977
 30
0.0
  0
VERTEX
  5
16406
  8
0
 10
69.2198992925412284
 20
155.569782828597198
 30
0.0
  0
VERTEX
  5
16407
  8
0
 10
69.2858087345979357
 20
155.5731844367859935
 30
0.0
  0
VERTEX
  5
16408
  8
0
 10
69.3511902668215612
 20
155.5768700633132084
 30
0.0
  0
VERTEX
  5
16409
  8
0
 10
69.4160440532034499
 20
155.580839799047709
 30
0.0
  0
VERTEX
  5
1640A
  8
0
 10
69.4803702577347053
 20
155.5850937348579919
 30
0.0
  0
VERTEX
  5
1640B
  8
0
 10
69.5441690444066012
 20
155.5896319616132928
 30
0.0
  0
VERTEX
  5
1640C
  8
0
 10
69.6074405772103546
 20
155.5944545701821085
 30
0.0
  0
VERTEX
  5
1640D
  8
0
 10
69.6701850201371258
 20
155.5995616514331061
 30
0.0
  0
VERTEX
  5
1640E
  8
0
 10
69.7324025371782454
 20
155.6049532962352089
 30
0.0
  0
VERTEX
  5
1640F
  8
0
 10
69.7940932923248738
 20
155.6106295954571124
 30
0.0
  0
VERTEX
  5
16410
  8
0
 10
69.855282549181652
 20
155.6165960720267947
 30
0.0
  0
VERTEX
  5
16411
  8
0
 10
69.9159716475770097
 20
155.6228571472929048
 30
0.0
  0
VERTEX
  5
16412
  8
0
 10
69.976095253860592
 20
155.6294056753883979
 30
0.0
  0
VERTEX
  5
16413
  8
0
 10
70.0355873497954775
 20
155.6362343804038062
 30
0.0
  0
VERTEX
  5
16414
  8
0
 10
70.0943819171446876
 20
155.6433359864296051
 30
0.0
  0
VERTEX
  5
16415
  8
0
 10
70.1524129376712722
 20
155.6507032175564973
 30
0.0
  0
VERTEX
  5
16416
  8
0
 10
70.2096154244850368
 20
155.6583288267777903
 30
0.0
  0
VERTEX
  5
16417
  8
0
 10
70.2659780142055297
 20
155.6662081384573071
 30
0.0
  0
VERTEX
  5
16418
  8
0
 10
70.3215160828377179
 20
155.6743402041566071
 30
0.0
  0
VERTEX
  5
16419
  8
0
 10
70.3762333083879525
 20
155.6827242478578057
 30
0.0
  0
VERTEX
  5
1641A
  8
0
 10
70.4301333688626983
 20
155.6913594935423077
 30
0.0
  0
VERTEX
  5
1641B
  8
0
 10
70.4832199422683203
 20
155.7002451651916033
 30
0.0
  0
VERTEX
  5
1641C
  8
0
 10
70.5354967066112408
 20
155.7093804867874098
 30
0.0
  0
VERTEX
  5
1641D
  8
0
 10
70.5869704978393315
 20
155.7187652966348992
 30
0.0
  0
VERTEX
  5
1641E
  8
0
 10
70.6376601092329679
 20
155.7284025586637028
 30
0.0
  0
VERTEX
  5
1641F
  8
0
 10
70.6875625828906493
 20
155.7382922491968031
 30
0.0
  0
VERTEX
  5
16420
  8
0
 10
70.7366713771498326
 20
155.7484337362340057
 30
0.0
  0
VERTEX
  5
16421
  8
0
 10
70.7849799503478465
 20
155.7588263877754002
 30
0.0
  0
VERTEX
  5
16422
  8
0
 10
70.8324817608221906
 20
155.7694695718209914
 30
0.0
  0
VERTEX
  5
16423
  8
0
 10
70.879170266910279
 20
155.7803626563708974
 30
0.0
  0
VERTEX
  5
16424
  8
0
 10
70.9250389269495827
 20
155.7915050094250091
 30
0.0
  0
VERTEX
  5
16425
  8
0
 10
70.9700811992774447
 20
155.8028959989833027
 30
0.0
  0
VERTEX
  5
16426
  8
0
 10
71.0142905422313788
 20
155.81453499304601
 30
0.0
  0
VERTEX
  5
16427
  8
0
 10
71.0576604141486996
 20
155.8264213596129082
 30
0.0
  0
VERTEX
  5
16428
  8
0
 10
71.1001842733669491
 20
155.8385544666840872
 30
0.0
  0
VERTEX
  5
16429
  8
0
 10
71.1418555782234421
 20
155.8509336822596936
 30
0.0
  0
VERTEX
  5
1642A
  8
0
 10
71.1826666469505085
 20
155.8635579864402132
 30
0.0
  0
VERTEX
  5
1642B
  8
0
 10
71.2225242166593944
 20
155.8763965610467892
 30
0.0
  0
VERTEX
  5
1642C
  8
0
 10
71.2613750081939656
 20
155.8894300563877096
 30
0.0
  0
VERTEX
  5
1642D
  8
0
 10
71.2992229426493509
 20
155.9026581721645925
 30
0.0
  0
VERTEX
  5
1642E
  8
0
 10
71.3360719411206787
 20
155.9160806080789996
 30
0.0
  0
VERTEX
  5
1642F
  8
0
 10
71.3719259247032483
 20
155.9296970638326911
 30
0.0
  0
VERTEX
  5
16430
  8
0
 10
71.4067888144922307
 20
155.9435072391273991
 30
0.0
  0
VERTEX
  5
16431
  8
0
 10
71.4406645315827262
 20
155.9575108336647133
 30
0.0
  0
VERTEX
  5
16432
  8
0
 10
71.4735569970699771
 20
155.9717075471461953
 30
0.0
  0
VERTEX
  5
16433
  8
0
 10
71.5054701320491972
 20
155.9860970792736055
 30
0.0
  0
VERTEX
  5
16434
  8
0
 10
71.5364078576154725
 20
156.0006791297485904
 30
0.0
  0
VERTEX
  5
16435
  8
0
 10
71.5663740948640452
 20
156.0154533982729106
 30
0.0
  0
VERTEX
  5
16436
  8
0
 10
71.5953727648901435
 20
156.0304195845480137
 30
0.0
  0
VERTEX
  5
16437
  8
0
 10
71.6234077887888816
 20
156.0455773882756887
 30
0.0
  0
VERTEX
  5
16438
  8
0
 10
71.6504853547736502
 20
156.0609333653713975
 30
0.0
  0
VERTEX
  5
16439
  8
0
 10
71.6766084100995613
 20
156.0765006109332091
 30
0.0
  0
VERTEX
  5
1643A
  8
0
 10
71.7017684953148802
 20
156.0922730639640861
 30
0.0
  0
VERTEX
  5
1643B
  8
0
 10
71.725956766092736
 20
156.1082438330076059
 30
0.0
  0
VERTEX
  5
1643C
  8
0
 10
71.7491643781062862
 20
156.1244060266074882
 30
0.0
  0
VERTEX
  5
1643D
  8
0
 10
71.771382487028589
 20
156.1407527533071971
 30
0.0
  0
VERTEX
  5
1643E
  8
0
 10
71.7926022485327593
 20
156.1572771216503099
 30
0.0
  0
VERTEX
  5
1643F
  8
0
 10
71.8128148182918835
 20
156.1739722401802055
 30
0.0
  0
VERTEX
  5
16440
  8
0
 10
71.832011351979105
 20
156.1908312174408024
 30
0.0
  0
VERTEX
  5
16441
  8
0
 10
71.8501830052675245
 20
156.2078471619755931
 30
0.0
  0
VERTEX
  5
16442
  8
0
 10
71.8673209338302286
 20
156.2250131823280128
 30
0.0
  0
VERTEX
  5
16443
  8
0
 10
71.8834162933403036
 20
156.2423223870416962
 30
0.0
  0
VERTEX
  5
16444
  8
0
 10
71.8984602394708645
 20
156.2597678846599933
 30
0.0
  0
VERTEX
  5
16445
  8
0
 10
71.9124462386727146
 20
156.2773430072647898
 30
0.0
  0
VERTEX
  5
16446
  8
0
 10
71.9253922936196091
 20
156.2950454991731988
 30
0.0
  0
VERTEX
  5
16447
  8
0
 10
71.9373040257851102
 20
156.3128759169329953
 30
0.0
  0
VERTEX
  5
16448
  8
0
 10
71.9481811981901842
 20
156.330834671576099
 30
0.0
  0
VERTEX
  5
16449
  8
0
 10
71.9580235738555416
 20
156.3489221741340032
 30
0.0
  0
VERTEX
  5
1644A
  8
0
 10
71.9668309158020634
 20
156.3671388356385137
 30
0.0
  0
VERTEX
  5
1644B
  8
0
 10
71.9746029870506732
 20
156.3854850671212091
 30
0.0
  0
VERTEX
  5
1644C
  8
0
 10
71.9813395506221809
 20
156.4039612796138101
 30
0.0
  0
VERTEX
  5
1644D
  8
0
 10
71.9870403695373966
 20
156.4225678841480089
 30
0.0
  0
VERTEX
  5
1644E
  8
0
 10
71.9917052068172438
 20
156.4413052917552989
 30
0.0
  0
VERTEX
  5
1644F
  8
0
 10
71.9953338254825184
 20
156.4601739134675995
 30
0.0
  0
VERTEX
  5
16450
  8
0
 10
71.9979259885541296
 20
156.4791741603164041
 30
0.0
  0
VERTEX
  5
16451
  8
0
 10
71.9994814590529018
 20
156.4983064433334903
 30
0.0
  0
VERTEX
  5
16452
  8
0
 10
71.9999999999996589
 20
156.517571173550607
 30
0.0
  0
SEQEND
  5
16453
  8
0
  0
POLYLINE
  5
14E9D
  8
0
 66
     1
 10
0.0
 20
0.0
 30
0.0
  0
VERTEX
  5
16454
  8
0
 10
66.9999999999996589
 20
155.6073665893588043
 30
0.0
  0
VERTEX
  5
16455
  8
0
 10
65.9389523370592769
 20
155.686033191133788
 30
0.0
  0
VERTEX
  5
16456
  8
0
 10
64.8777178884865862
 20
155.7598983565258095
 30
0.0
  0
VERTEX
  5
16457
  8
0
 10
63.816295184429741
 20
155.8289243021121138
 30
0.0
  0
VERTEX
  5
16458
  8
0
 10
62.7546827550367468
 20
155.8930732444694911
 30
0.0
  0
VERTEX
  5
16459
  8
0
 10
61.6928791304557009
 20
155.9523074001753002
 30
0.0
  0
VERTEX
  5
1645A
  8
0
 10
60.6308828408346585
 20
156.006588985806502
 30
0.0
  0
VERTEX
  5
1645B
  8
0
 10
59.5686924163216602
 20
156.0558802179403131
 30
0.0
  0
VERTEX
  5
1645C
  8
0
 10
58.5063063870647966
 20
156.1001433131536942
 30
0.0
  0
VERTEX
  5
1645D
  8
0
 10
57.4437232832121367
 20
156.1393404880238052
 30
0.0
  0
VERTEX
  5
1645E
  8
0
 10
56.380941634911828
 20
156.1734339591278058
 30
0.0
  0
VERTEX
  5
1645F
  8
0
 10
55.3179599723118116
 20
156.2023859430427137
 30
0.0
  0
VERTEX
  5
16460
  8
0
 10
54.2547768255602065
 20
156.2261586563456035
 30
0.0
  0
VERTEX
  5
16461
  8
0
 10
53.1913907248051601
 20
156.2447143156136065
 30
0.0
  0
VERTEX
  5
16462
  8
0
 10
52.1278002001945993
 20
156.2580151374239961
 30
0.0
  0
VERTEX
  5
16463
  8
0
 10
51.0640037818767425
 20
156.2660233383537047
 30
0.0
  0
VERTEX
  5
16464
  8
0
 10
49.9999999999996021
 20
156.2687011349796933
 30
0.0
  0
VERTEX
  5
16465
  8
0
 10
48.9359962181223906
 20
156.2660233383537047
 30
0.0
  0
VERTEX
  5
16466
  8
0
 10
47.8721997998045481
 20
156.2580151374239961
 30
0.0
  0
VERTEX
  5
16467
  8
0
 10
46.8086092751940299
 20
156.2447143156136065
 30
0.0
  0
VERTEX
  5
16468
  8
0
 10
45.7452231744389906
 20
156.2261586563456035
 30
0.0
  0
VERTEX
  5
16469
  8
0
 10
44.682040027687421
 20
156.2023859430427137
 30
0.0
  0
VERTEX
  5
1646A
  8
0
 10
43.6190583650874188
 20
156.1734339591276921
 30
0.0
  0
VERTEX
  5
1646B
  8
0
 10
42.5562767167871172
 20
156.1393404880238052
 30
0.0
  0
VERTEX
  5
1646C
  8
0
 10
41.4936936129345213
 20
156.1001433131536089
 30
0.0
  0
VERTEX
  5
1646D
  8
0
 10
40.4313075836777216
 20
156.0558802179401994
 30
0.0
  0
VERTEX
  5
1646E
  8
0
 10
39.3691171591647304
 20
156.006588985806502
 30
0.0
  0
VERTEX
  5
1646F
  8
0
 10
38.3071208695437306
 20
155.9523074001751866
 30
0.0
  0
VERTEX
  5
16470
  8
0
 10
37.2453172449626919
 20
155.8930732444694911
 30
0.0
  0
VERTEX
  5
16471
  8
0
 10
36.1837048155696905
 20
155.8289243021120001
 30
0.0
  0
VERTEX
  5
16472
  8
0
 10
35.1222821115128525
 20
155.7598983565258095
 30
0.0
  0
VERTEX
  5
16473
  8
0
 10
34.0610476629402115
 20
155.686033191133788
 30
0.0
  0
VERTEX
  5
16474
  8
0
 10
32.9999999999998295
 20
155.6073665893588043
 30
0.0
  0
SEQEND
  5
16475
  8
0
  0
POLYLINE
  5
14E9E
  8
0
 66
     1
 10
0.0
 20
0.0
 30
0.0
  0
VERTEX
  5
16476
  8
0
 10
27.9999999999997797
 20
156.5175711214315015
 30
0.0
  0
VERTEX
  5
16477
  8
0
 10
28.0004193014432303
 20
156.5002416326587138
 30
0.0
  0
VERTEX
  5
16478
  8
0
 10
28.0016763096859904
 20
156.483027364048894
 30
0.0
  0
VERTEX
  5
16479
  8
0
 10
28.0037696805969212
 20
156.4659278588937923
 30
0.0
  0
VERTEX
  5
1647A
  8
0
 10
28.0066980700445889
 20
156.448942660484704
 30
0.0
  0
VERTEX
  5
1647B
  8
0
 10
28.0104601338978796
 20
156.4320713121130098
 30
0.0
  0
VERTEX
  5
1647C
  8
0
 10
28.0150545280254804
 20
156.4153133570704881
 30
0.0
  0
VERTEX
  5
1647D
  8
0
 10
28.0204799082960712
 20
156.398668338648406
 30
0.0
  0
VERTEX
  5
1647E
  8
0
 10
28.0267349305784705
 20
156.3821358001382009
 30
0.0
  0
VERTEX
  5
1647F
  8
0
 10
28.0338182507413194
 20
156.3657152848317082
 30
0.0
  0
VERTEX
  5
16480
  8
0
 10
28.0417285246534185
 20
156.3494063360199107
 30
0.0
  0
VERTEX
  5
16481
  8
0
 10
28.0504644081835295
 20
156.3332084969945015
 30
0.0
  0
VERTEX
  5
16482
  8
0
 10
28.0600245572002791
 20
156.3171213110470035
 30
0.0
  0
VERTEX
  5
16483
  8
0
 10
28.0704076275724788
 20
156.3011443214687972
 30
0.0
  0
VERTEX
  5
16484
  8
0
 10
28.0816122751688795
 20
156.2852770715514907
 30
0.0
  0
VERTEX
  5
16485
  8
0
 10
28.0936372012069988
 20
156.2695191103609034
 30
0.0
  0
VERTEX
  5
16486
  8
0
 10
28.1064855808879202
 20
156.2538705528606044
 30
0.0
  0
VERTEX
  5
16487
  8
0
 10
28.1201623540336492
 20
156.2383317268032101
 30
0.0
  0
VERTEX
  5
16488
  8
0
 10
28.1346708324946313
 20
156.2229027503462078
 30
0.0
  0
VERTEX
  5
16489
  8
0
 10
28.1500143281213013
 20
156.2075837416469994
 30
0.0
  0
VERTEX
  5
1648A
  8
0
 10
28.1661961527642006
 20
156.1923748188631862
 30
0.0
  0
VERTEX
  5
1648B
  8
0
 10
28.1832196182738315
 20
156.1772761001521133
 30
0.0
  0
VERTEX
  5
1648C
  8
0
 10
28.2010880365006109
 20
156.1622877036710975
 30
0.0
  0
VERTEX
  5
1648D
  8
0
 10
28.2198124529944003
 20
156.1474064043601118
 30
0.0
  0
VERTEX
  5
1648E
  8
0
 10
28.2394095127709797
 20
156.1326281924017962
 30
0.0
  0
VERTEX
  5
1648F
  8
0
 10
28.2598632748355989
 20
156.1179648994358047
 30
0.0
  0
VERTEX
  5
16490
  8
0
 10
28.2811558553397617
 20
156.1034292530816003
 30
0.0
  0
VERTEX
  5
16491
  8
0
 10
28.3032693704348013
 20
156.0890339809583054
 30
0.0
  0
VERTEX
  5
16492
  8
0
 10
28.3261859362722284
 20
156.0747918106852126
 30
0.0
  0
VERTEX
  5
16493
  8
0
 10
28.3498876690034685
 20
156.0607154698816998
 30
0.0
  0
VERTEX
  5
16494
  8
0
 10
28.3743568531854216
 20
156.0468171426678055
 30
0.0
  0
VERTEX
  5
16495
  8
0
 10
28.3995840060655311
 20
156.0330942054796992
 30
0.0
  0
VERTEX
  5
16496
  8
0
 10
28.4255691021286303
 20
156.0195426826186065
 30
0.0
  0
VERTEX
  5
16497
  8
0
 10
28.4523122908316317
 20
156.0061622679654079
 30
0.0
  0
VERTEX
  5
16498
  8
0
 10
28.4798137216316682
 20
155.9929526554001882
 30
0.0
  0
VERTEX
  5
16499
  8
0
 10
28.5080735439856916
 20
155.9799135388034017
 30
0.0
  0
VERTEX
  5
1649A
  8
0
 10
28.537091907350721
 20
155.9670446120557017
 30
0.0
  0
VERTEX
  5
1649B
  8
0
 10
28.5668689611838502
 20
155.9543455690374003
 30
0.0
  0
VERTEX
  5
1649C
  8
0
 10
28.597404854941999
 20
155.941816103628895
 30
0.0
  0
VERTEX
  5
1649D
  8
0
 10
28.6286997380823287
 20
155.9294559097108106
 30
0.0
  0
VERTEX
  5
1649E
  8
0
 10
28.6607537600617697
 20
155.9172646811634024
 30
0.0
  0
VERTEX
  5
1649F
  8
0
 10
28.6935670703373411
 20
155.9052421118670964
 30
0.0
  0
VERTEX
  5
164A0
  8
0
 10
28.7271398183661404
 20
155.8933878957024888
 30
0.0
  0
VERTEX
  5
164A1
  8
0
 10
28.7614721536051015
 20
155.8817017265500056
 30
0.0
  0
VERTEX
  5
164A2
  8
0
 10
28.7965642255113607
 20
155.870183298290101
 30
0.0
  0
VERTEX
  5
164A3
  8
0
 10
28.8324212571008083
 20
155.8588316894638126
 30
0.0
  0
VERTEX
  5
164A4
  8
0
 10
28.8690905848602597
 20
155.847641727342392
 30
0.0
  0
VERTEX
  5
164A5
  8
0
 10
28.9065692328919717
 20
155.8366160257558874
 30
0.0
  0
VERTEX
  5
164A6
  8
0
 10
28.9448389330139015
 20
155.8257592301800116
 30
0.0
  0
VERTEX
  5
164A7
  8
0
 10
28.9838814170440706
 20
155.8150759860899939
 30
0.0
  0
VERTEX
  5
164A8
  8
0
 10
29.0236784168003012
 20
155.8045709389616036
 30
0.0
  0
VERTEX
  5
164A9
  8
0
 10
29.0642116641007
 20
155.7942487342700986
 30
0.0
  0
VERTEX
  5
164AA
  8
0
 10
29.1054628907630786
 20
155.7841140174911061
 30
0.0
  0
VERTEX
  5
164AB
  8
0
 10
29.1474138286054085
 20
155.7741714341001114
 30
0.0
  0
VERTEX
  5
164AC
  8
0
 10
29.1900462094457112
 20
155.7644256295725995
 30
0.0
  0
VERTEX
  5
164AD
  8
0
 10
29.2333417651018408
 20
155.7548812493841126
 30
0.0
  0
VERTEX
  5
164AE
  8
0
 10
29.2772822273918187
 20
155.7455429390101074
 30
0.0
  0
VERTEX
  5
164AF
  8
0
 10
29.3218493281335704
 20
155.7364153439260122
 30
0.0
  0
VERTEX
  5
164B0
  8
0
 10
29.3670247991450388
 20
155.7275031096075111
 30
0.0
  0
VERTEX
  5
164B1
  8
0
 10
29.4127903722442205
 20
155.7188108815300041
 30
0.0
  0
VERTEX
  5
164B2
  8
0
 10
29.4591307989567284
 20
155.7103413400687089
 30
0.0
  0
VERTEX
  5
164B3
  8
0
 10
29.5060531643070512
 20
155.7020856481101134
 30
0.0
  0
VERTEX
  5
164B4
  8
0
 10
29.5535607091625216
 20
155.6940421620612938
 30
0.0
  0
VERTEX
  5
164B5
  8
0
 10
29.6016544585671113
 20
155.686211015431013
 30
0.0
  0
VERTEX
  5
164B6
  8
0
 10
29.6503354375648804
 20
155.678592341727807
 30
0.0
  0
VERTEX
  5
164B7
  8
0
 10
29.6996046711997792
 20
155.6711862744608084
 30
0.0
  0
VERTEX
  5
164B8
  8
0
 10
29.7494631845157791
 20
155.6639929471384107
 30
0.0
  0
VERTEX
  5
164B9
  8
0
 10
29.7999120025570008
 20
155.657012493269491
 30
0.0
  0
VERTEX
  5
164BA
  8
0
 10
29.8509521503673412
 20
155.6502450463628122
 30
0.0
  0
VERTEX
  5
164BB
  8
0
 10
29.9025846529908108
 20
155.6436907399269955
 30
0.0
  0
VERTEX
  5
164BC
  8
0
 10
29.9548105354714416
 20
155.6373497074708041
 30
0.0
  0
VERTEX
  5
164BD
  8
0
 10
30.0076308228532298
 20
155.631222082503001
 30
0.0
  0
VERTEX
  5
164BE
  8
0
 10
30.0610465401801399
 20
155.6253079985322927
 30
0.0
  0
VERTEX
  5
164BF
  8
0
 10
30.1150587124962001
 20
155.619607589067499
 30
0.0
  0
VERTEX
  5
164C0
  8
0
 10
30.1696683648454496
 20
155.6141209876172127
 30
0.0
  0
VERTEX
  5
164C1
  8
0
 10
30.2248919582010984
 20
155.608848158636988
 30
0.0
  0
VERTEX
  5
164C2
  8
0
 10
30.2807641948413107
 20
155.6037904746980871
 30
0.0
  0
VERTEX
  5
164C3
  8
0
 10
30.3372375993631707
 20
155.5989521682949999
 30
0.0
  0
VERTEX
  5
164C4
  8
0
 10
30.3942578420519602
 20
155.5943376326173961
 30
0.0
  0
VERTEX
  5
164C5
  8
0
 10
30.4517705931931992
 20
155.5899512608552016
 30
0.0
  0
VERTEX
  5
164C6
  8
0
 10
30.5097215230722405
 20
155.5857974461985123
 30
0.0
  0
VERTEX
  5
164C7
  8
0
 10
30.5680563019744795
 20
155.5818805818367991
 30
0.0
  0
VERTEX
  5
164C8
  8
0
 10
30.6267215332295599
 20
155.5782049209055913
 30
0.0
  0
VERTEX
  5
164C9
  8
0
 10
30.6857100792935285
 20
155.5747684590243125
 30
0.0
  0
VERTEX
  5
164CA
  8
0
 10
30.7450327141398283
 20
155.5715684154513099
 30
0.0
  0
VERTEX
  5
164CB
  8
0
 10
30.8046885738766107
 20
155.5686040775873096
 30
0.0
  0
VERTEX
  5
164CC
  8
0
 10
30.8646767946119702
 20
155.5658747328326115
 30
0.0
  0
VERTEX
  5
164CD
  8
0
 10
30.9249965124539017
 20
155.5633796685877996
 30
0.0
  0
VERTEX
  5
164CE
  8
0
 10
30.985646863510631
 20
155.5611181722532876
 30
0.0
  0
VERTEX
  5
164CF
  8
0
 10
31.0466269838902384
 20
155.5590895312296027
 30
0.0
  0
VERTEX
  5
164D0
  8
0
 10
31.1079426874925389
 20
155.5572927959111098
 30
0.0
  0
VERTEX
  5
164D1
  8
0
 10
31.1696075661703809
 20
155.5557273663173987
 30
0.0
  0
VERTEX
  5
164D2
  8
0
 10
31.231617876867741
 20
155.5543938450844053
 30
0.0
  0
VERTEX
  5
164D3
  8
0
 10
31.2939690964345196
 20
155.5532928753040949
 30
0.0
  0
VERTEX
  5
164D4
  8
0
 10
31.3566567017206808
 20
155.5524251000682909
 30
0.0
  0
VERTEX
  5
164D5
  8
0
 10
31.4196761695760607
 20
155.5517911624685894
 30
0.0
  0
VERTEX
  5
164D6
  8
0
 10
31.4830229768505809
 20
155.5513917055970126
 30
0.0
  0
VERTEX
  5
164D7
  8
0
 10
31.5466926003941204
 20
155.5512273725452985
 30
0.0
  0
VERTEX
  5
164D8
  8
0
 10
31.6106805170566716
 20
155.5512988064051001
 30
0.0
  0
VERTEX
  5
164D9
  8
0
 10
31.6749822036879891
 20
155.5516066502684112
 30
0.0
  0
VERTEX
  5
164DA
  8
0
 10
31.7395931371381188
 20
155.5521515472271119
 30
0.0
  0
VERTEX
  5
164DB
  8
0
 10
31.8045087942568294
 20
155.552934140372713
 30
0.0
  0
VERTEX
  5
164DC
  8
0
 10
31.8697246518940993
 20
155.5539550727972937
 30
0.0
  0
VERTEX
  5
164DD
  8
0
 10
31.9352361868998287
 20
155.555214987592592
 30
0.0
  0
VERTEX
  5
164DE
  8
0
 10
32.0010388761239071
 20
155.5567145278502892
 30
0.0
  0
VERTEX
  5
164DF
  8
0
 10
32.0670511665704296
 20
155.5584517973236132
 30
0.0
  0
VERTEX
  5
164E0
  8
0
 10
32.1331485487362514
 20
155.5604230569508957
 30
0.0
  0
VERTEX
  5
164E1
  8
0
 10
32.1993294086785227
 20
155.5626283193466008
 30
0.0
  0
VERTEX
  5
164E2
  8
0
 10
32.2655937161924911
 20
155.5650676474373029
 30
0.0
  0
VERTEX
  5
164E3
  8
0
 10
32.3319414410732406
 20
155.5677411041500022
 30
0.0
  0
VERTEX
  5
164E4
  8
0
 10
32.3983725531160189
 20
155.5706487524113015
 30
0.0
  0
VERTEX
  5
164E5
  8
0
 10
32.4648870221160522
 20
155.5737906551478034
 30
0.0
  0
VERTEX
  5
164E6
  8
0
 10
32.5314848178684315
 20
155.5771668752863945
 30
0.0
  0
VERTEX
  5
164E7
  8
0
 10
32.5981659101685182
 20
155.5807774757537061
 30
0.0
  0
VERTEX
  5
164E8
  8
0
 10
32.6649302688113607
 20
155.5846225194765964
 30
0.0
  0
VERTEX
  5
164E9
  8
0
 10
32.7317778635922423
 20
155.5887020693816112
 30
0.0
  0
VERTEX
  5
164EA
  8
0
 10
32.7987086643063321
 20
155.5930161883956089
 30
0.0
  0
VERTEX
  5
164EB
  8
0
 10
32.8657226407487997
 20
155.597564939445391
 30
0.0
  0
VERTEX
  5
164EC
  8
0
 10
32.9328197627149279
 20
155.6023483854575034
 30
0.0
  0
VERTEX
  5
164ED
  8
0
 10
32.9999999999997797
 20
155.6073665893588043
 30
0.0
  0
SEQEND
  5
164EE
  8
0
  0
POLYLINE
  5
14E9F
  8
0
 66
     1
 10
0.0
 20
0.0
 30
0.0
  0
VERTEX
  5
164EF
  8
0
 10
27.9999999999997797
 20
156.5175711214315015
 30
0.0
  0
VERTEX
  5
164F0
  8
0
 10
27.9999999999997797
 20
156.6873897972276097
 30
0.0
  0
VERTEX
  5
164F1
  8
0
 10
27.9999999999997797
 20
156.8569679082694108
 30
0.0
  0
VERTEX
  5
164F2
  8
0
 10
27.9999999999997797
 20
157.0262967694197016
 30
0.0
  0
VERTEX
  5
164F3
  8
0
 10
27.9999999999997797
 20
157.1953676955407957
 30
0.0
  0
VERTEX
  5
164F4
  8
0
 10
27.9999999999997797
 20
157.3641720014950067
 30
0.0
  0
VERTEX
  5
164F5
  8
0
 10
27.9999999999997797
 20
157.5327010021451031
 30
0.0
  0
VERTEX
  5
164F6
  8
0
 10
27.9999999999997797
 20
157.7009460123533984
 30
0.0
  0
VERTEX
  5
164F7
  8
0
 10
27.9999999999997797
 20
157.8688983469824052
 30
0.0
  0
VERTEX
  5
164F8
  8
0
 10
27.9999999999997797
 20
158.0365493208946077
 30
0.0
  0
VERTEX
  5
164F9
  8
0
 10
27.9999999999997797
 20
158.2038902489522911
 30
0.0
  0
VERTEX
  5
164FA
  8
0
 10
27.9999999999997797
 20
158.3709124460181954
 30
0.0
  0
SEQEND
  5
164FB
  8
0
  0
POLYLINE
  5
14EA0
  8
0
 66
     1
 10
0.0
 20
0.0
 30
0.0
  0
VERTEX
  5
164FC
  8
0
 10
27.9999999999997797
 20
158.3709124460181954
 30
0.0
  0
VERTEX
  5
164FD
  8
0
 10
27.9943797569931689
 20
158.3994722855603072
 30
0.0
  0
VERTEX
  5
164FE
  8
0
 10
27.9883469733475216
 20
158.4279706830708108
 30
0.0
  0
VERTEX
  5
164FF
  8
0
 10
27.9814891084237196
 20
158.4563461965180977
 30
0.0
  0
VERTEX
  5
16500
  8
0
 10
27.9733936215827192
 20
158.4845373838705882
 30
0.0
  0
VERTEX
  5
16501
  8
0
 10
27.9636479721853597
 20
158.5124828030967876
 30
0.0
  0
VERTEX
  5
16502
  8
0
 10
27.951839619592711
 20
158.5401210121652014
 30
0.0
  0
VERTEX
  5
16503
  8
0
 10
27.9375560231656017
 20
158.5673905690439938
 30
0.0
  0
VERTEX
  5
16504
  8
0
 10
27.9203927572392594
 20
158.5942308426552074
 30
0.0
  0
VERTEX
  5
16505
  8
0
 10
27.9001752563618197
 20
158.6206041725315004
 30
0.0
  0
VERTEX
  5
16506
  8
0
 10
27.8769857439893407
 20
158.6464985598811097
 30
0.0
  0
VERTEX
  5
16507
  8
0
 10
27.8509199650201786
 20
158.6719033571498869
 30
0.0
  0
VERTEX
  5
16508
  8
0
 10
27.8220736643527289
 20
158.6968079167837971
 30
0.0
  0
VERTEX
  5
16509
  8
0
 10
27.7905425868853015
 20
158.7212015912286063
 30
0.0
  0
VERTEX
  5
1650A
  8
0
 10
27.7564224775162494
 20
158.7450737329301091
 30
0.0
  0
VERTEX
  5
1650B
  8
0
 10
27.7198090811440387
 20
158.7684136943344129
 30
0.0
  0
VERTEX
  5
1650C
  8
0
 10
27.6807918364687602
 20
158.7912126541772864
 30
0.0
  0
VERTEX
  5
1650D
  8
0
 10
27.6394277444623491
 20
158.8134711852397061
 30
0.0
  0
VERTEX
  5
1650E
  8
0
 10
27.5957634056867391
 20
158.8351928722861999
 30
0.0
  0
VERTEX
  5
1650F
  8
0
 10
27.5498454159355184
 20
158.8563813014623065
 30
0.0
  0
VERTEX
  5
16510
  8
0
 10
27.5017203710024205
 20
158.8770400589135079
 30
0.0
  0
VERTEX
  5
16511
  8
0
 10
27.4514348666810406
 20
158.8971727307852859
 30
0.0
  0
VERTEX
  5
16512
  8
0
 10
27.3990354987651017
 20
158.9167829032232078
 30
0.0
  0
VERTEX
  5
16513
  8
0
 10
27.3445673199840407
 20
158.9358734517801963
 30
0.0
  0
VERTEX
  5
16514
  8
0
 10
27.2879991772117094
 20
158.9544121586459084
 30
0.0
  0
VERTEX
  5
16515
  8
0
 10
27.2291903611146608
 20
158.9723163545614
 30
0.0
  0
VERTEX
  5
16516
  8
0
 10
27.167991672478589
 20
158.9894994606148089
 30
0.0
  0
VERTEX
  5
16517
  8
0
 10
27.1042539120890105
 20
159.0058748978939036
 30
0.0
  0
VERTEX
  5
16518
  8
0
 10
27.0378278807315908
 20
159.0213560874865948
 30
0.0
  0
VERTEX
  5
16519
  8
0
 10
26.9685643791918892
 20
159.0358564504809067
 30
0.0
  0
VERTEX
  5
1651A
  8
0
 10
26.8963142082554896
 20
159.0492894079646078
 30
0.0
  0
VERTEX
  5
1651B
  8
0
 10
26.8209992552546588
 20
159.0615974407060094
 30
0.0
  0
VERTEX
  5
1651C
  8
0
 10
26.7430528180487386
 20
159.0729320905003874
 30
0.0
  0
VERTEX
  5
1651D
  8
0
 10
26.6631320580361297
 20
159.083536412983392
 30
0.0
  0
VERTEX
  5
1651E
  8
0
 10
26.5818950828190204
 20
159.0936538505920055
 30
0.0
  0
VERTEX
  5
1651F
  8
0
 10
26.4999999999996589
 20
159.1035278457634945
 30
0.0
  0
SEQEND
  5
16520
  8
0
  0
POLYLINE
  5
14EA1
  8
0
 66
     1
 10
0.0
 20
0.0
 30
0.0
  0
VERTEX
  5
16521
  8
0
 10
7.99999999999977
 20
157.3708617127039986
 30
0.0
  0
VERTEX
  5
16522
  8
0
 10
8.0005292632156362
 20
157.3566159975218
 30
0.0
  0
VERTEX
  5
16523
  8
0
 10
8.0021160237832305
 20
157.342603847722188
 30
0.0
  0
VERTEX
  5
16524
  8
0
 10
8.0047587380823302
 20
157.3288244275649106
 30
0.0
  0
VERTEX
  5
16525
  8
0
 10
8.0084558624928945
 20
157.3152769013099999
 30
0.0
  0
VERTEX
  5
16526
  8
0
 10
8.013205853394707
 20
157.3019604332174026
 30
0.0
  0
VERTEX
  5
16527
  8
0
 10
8.0190071671677856
 20
157.2888741875470942
 30
0.0
  0
VERTEX
  5
16528
  8
0
 10
8.0258582601918533
 20
157.2760173285589929
 30
0.0
  0
VERTEX
  5
16529
  8
0
 10
8.0337575888468091
 20
157.2633890205129887
 30
0.0
  0
VERTEX
  5
1652A
  8
0
 10
8.0427036095126141
 20
157.2509884276693128
 30
0.0
  0
VERTEX
  5
1652B
  8
0
 10
8.0526947785691032
 20
157.2388147142875994
 30
0.0
  0
VERTEX
  5
1652C
  8
0
 10
8.0637295523961257
 20
157.2268670446279941
 30
0.0
  0
VERTEX
  5
1652D
  8
0
 10
8.0758063873735182
 20
157.2151445829503871
 30
0.0
  0
VERTEX
  5
1652E
  8
0
 10
8.0889237398812384
 20
157.2036464935146967
 30
0.0
  0
VERTEX
  5
1652F
  8
0
 10
8.1030817505769601
 20
157.1923723228667882
 30
0.0
  0
VERTEX
  5
16530
  8
0
 10
8.1182881809882588
 20
157.1813233333650999
 30
0.0
  0
VERTEX
  5
16531
  8
0
 10
8.1345486890934353
 20
157.1705002929521129
 30
0.0
  0
VERTEX
  5
16532
  8
0
 10
8.1518684848169283
 20
157.159903867132499
 30
0.0
  0
VERTEX
  5
16533
  8
0
 10
8.1702527780831815
 20
157.1495347214111007
 30
0.0
  0
VERTEX
  5
16534
  8
0
 10
8.1897067788166851
 20
157.1393935212927033
 30
0.0
  0
VERTEX
  5
16535
  8
0
 10
8.2102356969418793
 20
157.1294809322822061
 30
0.0
  0
VERTEX
  5
16536
  8
0
 10
8.2318537922094492
 20
157.1197979184750011
 30
0.0
  0
VERTEX
  5
16537
  8
0
 10
8.254557565625646
 20
157.1103510502767904
 30
0.0
  0
VERTEX
  5
16538
  8
0
 10
8.2783199824169174
 20
157.101149820144002
 30
0.0
  0
VERTEX
  5
16539
  8
0
 10
8.3031139465555839
 20
157.0922037249561072
 30
0.0
  0
VERTEX
  5
1653A
  8
0
 10
8.3289123620139662
 20
157.0835222615922078
 30
0.0
  0
VERTEX
  5
1653B
  8
0
 10
8.3556881327644401
 20
157.0751149269320024
 30
0.0
  0
VERTEX
  5
1653C
  8
0
 10
8.3834149450470363
 20
157.0669905764480063
 30
0.0
  0
VERTEX
  5
1653D
  8
0
 10
8.4120900800925824
 20
157.0591420774335063
 30
0.0
  0
VERTEX
  5
1653E
  8
0
 10
8.441718424724284
 20
157.0515643892142066
 30
0.0
  0
VERTEX
  5
1653F
  8
0
 10
8.4723004056082232
 20
157.0442573370588093
 30
0.0
  0
VERTEX
  5
16540
  8
0
 10
8.5038364494105831
 20
157.0372207462361871
 30
0.0
  0
VERTEX
  5
16541
  8
0
 10
8.5363269827975046
 20
157.0304544420149
 30
0.0
  0
VERTEX
  5
16542
  8
0
 10
8.5697724324350588
 20
157.0239582496639059
 30
0.0
  0
VERTEX
  5
16543
  8
0
 10
8.6041732249893812
 20
157.0177319944517933
 30
0.0
  0
VERTEX
  5
16544
  8
0
 10
8.6395297871267172
 20
157.0117755016472927
 30
0.0
  0
VERTEX
  5
16545
  8
0
 10
8.6758425455130936
 20
157.0060885965193904
 30
0.0
  0
VERTEX
  5
16546
  8
0
 10
8.7131119268146904
 20
157.0006711043365044
 30
0.0
  0
VERTEX
  5
16547
  8
0
 10
8.7513383576975912
 20
156.9955228503675926
 30
0.0
  0
VERTEX
  5
16548
  8
0
 10
8.7905222648279846
 20
156.9906436598813002
 30
0.0
  0
VERTEX
  5
16549
  8
0
 10
8.8306640748720024
 20
156.9860333581463863
 30
0.0
  0
VERTEX
  5
1654A
  8
0
 10
8.8717832492605453
 20
156.9816943649921086
 30
0.0
  0
VERTEX
  5
1654B
  8
0
 10
8.9138947205835262
 20
156.9776314832369053
 30
0.0
  0
VERTEX
  5
1654C
  8
0
 10
8.9569724185388964
 20
156.973846033619111
 30
0.0
  0
VERTEX
  5
1654D
  8
0
 10
9.0009898141632334
 20
156.9703392876932071
 30
0.0
  0
VERTEX
  5
1654E
  8
0
 10
9.0459203784929514
 20
156.9671125170139874
 30
0.0
  0
VERTEX
  5
1654F
  8
0
 10
9.0917375825645763
 20
156.964166993135791
 30
0.0
  0
VERTEX
  5
16550
  8
0
 10
9.1384148974145756
 20
156.9615039876132982
 30
0.0
  0
VERTEX
  5
16551
  8
0
 10
9.1859257940794805
 20
156.959124772001104
 30
0.0
  0
VERTEX
  5
16552
  8
0
 10
9.2342437435958118
 20
156.9570306178536896
 30
0.0
  0
VERTEX
  5
16553
  8
0
 10
9.2833422170000404
 20
156.9552227967255931
 30
0.0
  0
VERTEX
  5
16554
  8
0
 10
9.3331946853286372
 20
156.9537025801714947
 30
0.0
  0
VERTEX
  5
16555
  8
0
 10
9.3837746196181229
 20
156.9524712397457904
 30
0.0
  0
VERTEX
  5
16556
  8
0
 10
9.4350554909049702
 20
156.9515300470031889
 30
0.0
  0
VERTEX
  5
16557
  8
0
 10
9.4870189842429795
 20
156.9508789214092133
 30
0.0
  0
VERTEX
  5
16558
  8
0
 10
9.5396984234850475
 20
156.9505108109239018
 30
0.0
  0
VERTEX
  5
16559
  8
0
 10
9.5931025026195584
 20
156.9504250956373994
 30
0.0
  0
VERTEX
  5
1655A
  8
0
 10
9.6472328759189736
 20
156.950622484277801
 30
0.0
  0
VERTEX
  5
1655B
  8
0
 10
9.7020911976558182
 20
156.9511036855732016
 30
0.0
  0
VERTEX
  5
1655C
  8
0
 10
9.7576791221026724
 20
156.9518694082518095
 30
0.0
  0
VERTEX
  5
1655D
  8
0
 10
9.8139983035321148
 20
156.9529203610414072
 30
0.0
  0
VERTEX
  5
1655E
  8
0
 10
9.8710503962166154
 20
156.9542572526704873
 30
0.0
  0
VERTEX
  5
1655F
  8
0
 10
9.9288370544287528
 20
156.9558807918668037
 30
0.0
  0
VERTEX
  5
16560
  8
0
 10
9.987359932441052
 20
156.9577916873587071
 30
0.0
  0
VERTEX
  5
16561
  8
0
 10
10.0466206845260899
 20
156.9599906478740081
 30
0.0
  0
VERTEX
  5
16562
  8
0
 10
10.1066209649563206
 20
156.9624783821408016
 30
0.0
  0
VERTEX
  5
16563
  8
0
 10
10.1673624280043597
 20
156.9652555988876088
 30
0.0
  0
VERTEX
  5
16564
  8
0
 10
10.2288449563435506
 20
156.9683229337790067
 30
0.0
  0
VERTEX
  5
16565
  8
0
 10
10.2909291994228003
 20
156.9716749416380992
 30
0.0
  0
VERTEX
  5
16566
  8
0
 10
10.3535183398145705
 20
156.9753068693680973
 30
0.0
  0
VERTEX
  5
16567
  8
0
 10
10.4166006624670899
 20
156.979217268722806
 30
0.0
  0
VERTEX
  5
16568
  8
0
 10
10.4801644523286601
 20
156.9834046914562009
 30
0.0
  0
VERTEX
  5
16569
  8
0
 10
10.5441979943474795
 20
156.987867689322286
 30
0.0
  0
VERTEX
  5
1656A
  8
0
 10
10.6086895734717892
 20
156.9926048140750936
 30
0.0
  0
VERTEX
  5
1656B
  8
0
 10
10.6736274746499404
 20
156.9976146174684004
 30
0.0
  0
VERTEX
  5
1656C
  8
0
 10
10.7389999828300198
 20
157.0028956512562957
 30
0.0
  0
VERTEX
  5
1656D
  8
0
 10
10.80479538296043
 20
157.008446467192698
 30
0.0
  0
VERTEX
  5
1656E
  8
0
 10
10.8710019599893108
 20
157.0142656170314126
 30
0.0
  0
VERTEX
  5
1656F
  8
0
 10
10.9376079988649604
 20
157.0203516525268128
 30
0.0
  0
VERTEX
  5
16570
  8
0
 10
11.0046017845356197
 20
157.0267031254325047
 30
0.0
  0
VERTEX
  5
16571
  8
0
 10
11.0719716019495404
 20
157.0333185875024924
 30
0.0
  0
VERTEX
  5
16572
  8
0
 10
11.1397461728566292
 20
157.0402015932180859
 30
0.0
  0
VERTEX
  5
16573
  8
0
 10
11.2080046380874006
 20
157.0473622247814092
 30
0.0
  0
VERTEX
  5
16574
  8
0
 10
11.2767242854636098
 20
157.0547982356843875
 30
0.0
  0
VERTEX
  5
16575
  8
0
 10
11.3458777467754395
 20
157.0625068093065124
 30
0.0
  0
VERTEX
  5
16576
  8
0
 10
11.4154376538128801
 20
157.0704851290271904
 30
0.0
  0
VERTEX
  5
16577
  8
0
 10
11.4853766383661196
 20
157.078730378226112
 30
0.0
  0
VERTEX
  5
16578
  8
0
 10
11.5556673322252497
 20
157.0872397402827971
 30
0.0
  0
VERTEX
  5
16579
  8
0
 10
11.6262823671802806
 20
157.0960103985765954
 30
0.0
  0
VERTEX
  5
1657A
  8
0
 10
11.6971943750214002
 20
157.1050395364871974
 30
0.0
  0
VERTEX
  5
1657B
  8
0
 10
11.7683759875386595
 20
157.1143243373940095
 30
0.0
  0
VERTEX
  5
1657C
  8
0
 10
11.8397998365221593
 20
157.1238619846764095
 30
0.0
  0
VERTEX
  5
1657D
  8
0
 10
11.91143855376197
 20
157.133649661714287
 30
0.0
  0
VERTEX
  5
1657E
  8
0
 10
11.9832647710481996
 20
157.1436845518869063
 30
0.0
  0
VERTEX
  5
1657F
  8
0
 10
12.0552481650608403
 20
157.1539630567934012
 30
0.0
  0
VERTEX
  5
16580
  8
0
 10
12.1273390931781293
 20
157.1644752129247138
 30
0.0
  0
VERTEX
  5
16581
  8
0
 10
12.1995274647940093
 20
157.1752190535005127
 30
0.0
  0
VERTEX
  5
16582
  8
0
 10
12.2718131727495408
 20
157.1861949937606084
 30
0.0
  0
VERTEX
  5
16583
  8
0
 10
12.3441961098857806
 20
157.1974034489444136
 30
0.0
  0
VERTEX
  5
16584
  8
0
 10
12.4166761690437895
 20
157.2088448342913978
 30
0.0
  0
VERTEX
  5
16585
  8
0
 10
12.4892532430645797
 20
157.2205195650412008
 30
0.0
  0
VERTEX
  5
16586
  8
0
 10
12.5619272247893097
 20
157.232428056433406
 30
0.0
  0
VERTEX
  5
16587
  8
0
 10
12.6346980070589403
 20
157.2445707237073123
 30
0.0
  0
VERTEX
  5
16588
  8
0
 10
12.7075654827145303
 20
157.2569479821027016
 30
0.0
  0
VERTEX
  5
16589
  8
0
 10
12.78052954459719
 20
157.2695602468589868
 30
0.0
  0
VERTEX
  5
1658A
  8
0
 10
12.8535900855479799
 20
157.2824079332156941
 30
0.0
  0
VERTEX
  5
1658B
  8
0
 10
12.9267469984079
 20
157.2954914564122078
 30
0.0
  0
VERTEX
  5
1658C
  8
0
 10
13.0000001760180304
 20
157.308811231688594
 30
0.0
  0
SEQEND
  5
1658D
  8
0
  0
POLYLINE
  5
14EA2
  8
0
 66
     1
 10
0.0
 20
0.0
 30
0.0
  0
VERTEX
  5
1658E
  8
0
 10
7.99999999999977
 20
157.3708617127039986
 30
0.0
  0
VERTEX
  5
1658F
  8
0
 10
7.99999999999977
 20
157.5005081521761099
 30
0.0
  0
VERTEX
  5
16590
  8
0
 10
7.99999999999977
 20
157.6290149540930088
 30
0.0
  0
VERTEX
  5
16591
  8
0
 10
7.99999999999977
 20
157.756348499462689
 30
0.0
  0
VERTEX
  5
16592
  8
0
 10
7.99999999999977
 20
157.8824751692926043
 30
0.0
  0
VERTEX
  5
16593
  8
0
 10
7.99999999999977
 20
158.0073613445902083
 30
0.0
  0
VERTEX
  5
16594
  8
0
 10
7.999999999999714
 20
158.1309734063632959
 30
0.0
  0
VERTEX
  5
16595
  8
0
 10
7.999999999999714
 20
158.2532777356194913
 30
0.0
  0
VERTEX
  5
16596
  8
0
 10
7.999999999999714
 20
158.3742407133663903
 30
0.0
  0
VERTEX
  5
16597
  8
0
 10
7.999999999999714
 20
158.4938287206115888
 30
0.0
  0
VERTEX
  5
16598
  8
0
 10
7.999999999999714
 20
158.6120081383625973
 30
0.0
  0
VERTEX
  5
16599
  8
0
 10
7.999999999999714
 20
158.7287453476272958
 30
0.0
  0
VERTEX
  5
1659A
  8
0
 10
7.9999999999996572
 20
158.8440067294131097
 30
0.0
  0
VERTEX
  5
1659B
  8
0
 10
7.9999999999996572
 20
158.9577586647276917
 30
0.0
  0
VERTEX
  5
1659C
  8
0
 10
7.9999999999996572
 20
159.069967534578609
 30
0.0
  0
VERTEX
  5
1659D
  8
0
 10
7.9999999999996572
 20
159.1805997199735998
 30
0.0
  0
VERTEX
  5
1659E
  8
0
 10
7.9999999999996572
 20
159.2896216019202029
 30
0.0
  0
VERTEX
  5
1659F
  8
0
 10
7.9999999999996572
 20
159.3969995614260995
 30
0.0
  0
VERTEX
  5
165A0
  8
0
 10
7.9999999999996572
 20
159.502697981688101
 30
0.0
  0
VERTEX
  5
165A1
  8
0
 10
7.9999999999996572
 20
159.606668067093608
 30
0.0
  0
VERTEX
  5
165A2
  8
0
 10
7.9999999999996572
 20
159.7088660492399868
 30
0.0
  0
VERTEX
  5
165A3
  8
0
 10
7.9999999999996572
 20
159.8092498031180071
 30
0.0
  0
VERTEX
  5
165A4
  8
0
 10
7.9999999999996572
 20
159.9077772037186094
 30
0.0
  0
VERTEX
  5
165A5
  8
0
 10
7.9999999999996572
 20
160.0044061260327055
 30
0.0
  0
VERTEX
  5
165A6
  8
0
 10
7.9999999999996572
 20
160.0990944450508096
 30
0.0
  0
VERTEX
  5
165A7
  8
0
 10
7.9999999999996572
 20
160.1918000357640892
 30
0.0
  0
VERTEX
  5
165A8
  8
0
 10
7.9999999999996572
 20
160.2824807731632859
 30
0.0
  0
VERTEX
  5
165A9
  8
0
 10
7.9999999999996572
 20
160.3710967194107013
 30
0.0
  0
VERTEX
  5
165AA
  8
0
 10
7.9999999999996572
 20
160.4576069155046127
 30
0.0
  0
VERTEX
  5
165AB
  8
0
 10
7.9999999999996572
 20
160.5419613745737024
 30
0.0
  0
VERTEX
  5
165AC
  8
0
 10
7.999999999999714
 20
160.6241097814132104
 30
0.0
  0
VERTEX
  5
165AD
  8
0
 10
7.999999999999714
 20
160.7040018208182914
 30
0.0
  0
VERTEX
  5
165AE
  8
0
 10
7.999999999999714
 20
160.781587177584413
 30
0.0
  0
VERTEX
  5
165AF
  8
0
 10
7.99999999999977
 20
160.8568155365065024
 30
0.0
  0
VERTEX
  5
165B0
  8
0
 10
7.99999999999977
 20
160.9296365823799988
 30
0.0
  0
VERTEX
  5
165B1
  8
0
 10
7.99999999999977
 20
160.999999999999801
 30
0.0
  0
SEQEND
  5
165B2
  8
0
  0
POLYLINE
  5
14EA3
  8
0
 66
     1
 10
0.0
 20
0.0
 30
0.0
  0
VERTEX
  5
165B3
  8
0
 10
91.9999999999996447
 20
160.9999999999982947
 30
0.0
  0
VERTEX
  5
165B4
  8
0
 10
91.9999999999996447
 20
160.9296365823782082
 30
0.0
  0
VERTEX
  5
165B5
  8
0
 10
91.9999999999996447
 20
160.8568155365049108
 30
0.0
  0
VERTEX
  5
165B6
  8
0
 10
91.9999999999996447
 20
160.7815871775827077
 30
0.0
  0
VERTEX
  5
165B7
  8
0
 10
91.9999999999996447
 20
160.7040018208166998
 30
0.0
  0
VERTEX
  5
165B8
  8
0
 10
91.9999999999996447
 20
160.6241097814115051
 30
0.0
  0
VERTEX
  5
165B9
  8
0
 10
91.9999999999996447
 20
160.5419613745719971
 30
0.0
  0
VERTEX
  5
165BA
  8
0
 10
91.9999999999996447
 20
160.4576069155029927
 30
0.0
  0
VERTEX
  5
165BB
  8
0
 10
91.9999999999996447
 20
160.3710967194091097
 30
0.0
  0
VERTEX
  5
165BC
  8
0
 10
91.9999999999996447
 20
160.282480773161609
 30
0.0
  0
VERTEX
  5
165BD
  8
0
 10
91.9999999999996447
 20
160.1918000357626113
 30
0.0
  0
VERTEX
  5
165BE
  8
0
 10
91.9999999999996447
 20
160.0990944450493032
 30
0.0
  0
VERTEX
  5
165BF
  8
0
 10
91.9999999999996447
 20
160.0044061260311139
 30
0.0
  0
VERTEX
  5
165C0
  8
0
 10
91.9999999999996447
 20
159.907777203717103
 30
0.0
  0
VERTEX
  5
165C1
  8
0
 10
91.9999999999996447
 20
159.8092498031165007
 30
0.0
  0
VERTEX
  5
165C2
  8
0
 10
91.9999999999996447
 20
159.7088660492385088
 30
0.0
  0
VERTEX
  5
165C3
  8
0
 10
91.9999999999996447
 20
159.6066680670923006
 30
0.0
  0
VERTEX
  5
165C4
  8
0
 10
91.9999999999996447
 20
159.5026979816869073
 30
0.0
  0
VERTEX
  5
165C5
  8
0
 10
91.9999999999996447
 20
159.3969995614249058
 30
0.0
  0
VERTEX
  5
165C6
  8
0
 10
91.9999999999996447
 20
159.2896216019190092
 30
0.0
  0
VERTEX
  5
165C7
  8
0
 10
91.9999999999996447
 20
159.1805997199724914
 30
0.0
  0
VERTEX
  5
165C8
  8
0
 10
91.9999999999996447
 20
159.0699675345775859
 30
0.0
  0
VERTEX
  5
165C9
  8
0
 10
91.9999999999996447
 20
158.9577586647266969
 30
0.0
  0
VERTEX
  5
165CA
  8
0
 10
91.9999999999996447
 20
158.8440067294122002
 30
0.0
  0
VERTEX
  5
165CB
  8
0
 10
91.9999999999996447
 20
158.7287453476263863
 30
0.0
  0
VERTEX
  5
165CC
  8
0
 10
91.9999999999996447
 20
158.6120081383618867
 30
0.0
  0
VERTEX
  5
165CD
  8
0
 10
91.9999999999996447
 20
158.4938287206109067
 30
0.0
  0
VERTEX
  5
165CE
  8
0
 10
91.9999999999996447
 20
158.3742407133657935
 30
0.0
  0
VERTEX
  5
165CF
  8
0
 10
91.9999999999996447
 20
158.2532777356190081
 30
0.0
  0
VERTEX
  5
165D0
  8
0
 10
91.9999999999996447
 20
158.1309734063628127
 30
0.0
  0
VERTEX
  5
165D1
  8
0
 10
91.9999999999996447
 20
158.0073613445898957
 30
0.0
  0
VERTEX
  5
165D2
  8
0
 10
91.9999999999996447
 20
157.8824751692922916
 30
0.0
  0
VERTEX
  5
165D3
  8
0
 10
91.9999999999996447
 20
157.7563484994624901
 30
0.0
  0
VERTEX
  5
165D4
  8
0
 10
91.9999999999996447
 20
157.6290149540930088
 30
0.0
  0
VERTEX
  5
165D5
  8
0
 10
91.9999999999996447
 20
157.5005081521759962
 30
0.0
  0
VERTEX
  5
165D6
  8
0
 10
91.9999999999996447
 20
157.3708617127039986
 30
0.0
  0
SEQEND
  5
165D7
  8
0
  0
POLYLINE
  5
14EA4
  8
0
 66
     1
 10
0.0
 20
0.0
 30
0.0
  0
VERTEX
  5
165D8
  8
0
 10
86.9999999999996447
 20
157.3088111994198073
 30
0.0
  0
VERTEX
  5
165D9
  8
0
 10
87.0732209019749774
 20
157.2954972365347999
 30
0.0
  0
VERTEX
  5
165DA
  8
0
 10
87.1463011829320493
 20
157.2824271898182076
 30
0.0
  0
VERTEX
  5
165DB
  8
0
 10
87.2192409834906073
 20
157.2696002125674113
 30
0.0
  0
VERTEX
  5
165DC
  8
0
 10
87.2920404442705831
 20
157.2570154580795077
 30
0.0
  0
VERTEX
  5
165DD
  8
0
 10
87.3646997058916668
 20
157.2446720796515081
 30
0.0
  0
VERTEX
  5
165DE
  8
0
 10
87.4372189089737617
 20
157.2325692305807081
 30
0.0
  0
VERTEX
  5
165DF
  8
0
 10
87.5095981941365437
 20
157.2207060641642897
 30
0.0
  0
VERTEX
  5
165E0
  8
0
 10
87.5818377019999588
 20
157.2090817336992075
 30
0.0
  0
VERTEX
  5
165E1
  8
0
 10
87.6539375731837538
 20
157.1976953924830127
 30
0.0
  0
VERTEX
  5
165E2
  8
0
 10
87.7258979483077752
 20
157.1865461938124895
 30
0.0
  0
VERTEX
  5
165E3
  8
0
 10
87.7977189679917842
 20
157.1756332909849903
 30
0.0
  0
VERTEX
  5
165E4
  8
0
 10
87.869400772855613
 20
157.164955837297498
 30
0.0
  0
VERTEX
  5
165E5
  8
0
 10
87.9409435035190086
 20
157.1545129860473935
 30
0.0
  0
VERTEX
  5
165E6
  8
0
 10
88.0123470775177026
 20
157.1443042955349938
 30
0.0
  0
VERTEX
  5
165E7
  8
0
 10
88.0836104013072116
 20
157.1343311424274134
 30
0.0
  0
VERTEX
  5
165E8
  8
0
 10
88.1547326579017181
 20
157.1245943803129137
 30
0.0
  0
VERTEX
  5
165E9
  8
0
 10
88.2257130895705473
 20
157.1150947542865026
 30
0.0
  0
VERTEX
  5
165EA
  8
0
 10
88.2965509385830387
 20
157.1058330094435007
 30
0.0
  0
VERTEX
  5
165EB
  8
0
 10
88.3672454472085036
 20
157.0968098908786885
 30
0.0
  0
VERTEX
  5
165EC
  8
0
 10
88.4377958577163525
 20
157.0880261436871876
 30
0.0
  0
VERTEX
  5
165ED
  8
0
 10
88.50820377416116
 20
157.0794835587338127
 30
0.0
  0
VERTEX
  5
165EE
  8
0
 10
88.5784245645287456
 20
157.0711887849396078
 30
0.0
  0
VERTEX
  5
165EF
  8
0
 10
88.6483826062100633
 20
157.0631498789302043
 30
0.0
  0
VERTEX
  5
165F0
  8
0
 10
88.7180022173206453
 20
157.055374897442789
 30
0.0
  0
VERTEX
  5
165F1
  8
0
 10
88.7872077159757964
 20
157.0478718972150034
 30
0.0
  0
VERTEX
  5
165F2
  8
0
 10
88.855923420290992
 20
157.04064893498429
 30
0.0
  0
VERTEX
  5
165F3
  8
0
 10
88.9240777618962142
 20
157.0337134789211859
 30
0.0
  0
VERTEX
  5
165F4
  8
0
 10
88.9917052073132737
 20
157.027058505270702
 30
0.0
  0
VERTEX
  5
165F5
  8
0
 10
89.0588354820696253
 20
157.0206793542548098
 30
0.0
  0
VERTEX
  5
165F6
  8
0
 10
89.1254683644532548
 20
157.0145758956745965
 30
0.0
  0
VERTEX
  5
165F7
  8
0
 10
89.1916036327520061
 20
157.0087479993312058
 30
0.0
  0
VERTEX
  5
165F8
  8
0
 10
89.2572410652538935
 20
157.0031955350256965
 30
0.0
  0
VERTEX
  5
165F9
  8
0
 10
89.3223804402466612
 20
156.9979183725592122
 30
0.0
  0
VERTEX
  5
165FA
  8
0
 10
89.3870215360182527
 20
156.9929163817330107
 30
0.0
  0
VERTEX
  5
165FB
  8
0
 10
89.4511641308566254
 20
156.9881894323480083
 30
0.0
  0
VERTEX
  5
165FC
  8
0
 10
89.5148080030495947
 20
156.9837373942054057
 30
0.0
  0
VERTEX
  5
165FD
  8
0
 10
89.5779529308851465
 20
156.979560137106489
 30
0.0
  0
VERTEX
  5
165FE
  8
0
 10
89.6405986926511247
 20
156.9756575308520894
 30
0.0
  0
VERTEX
  5
165FF
  8
0
 10
89.702745066635373
 20
156.9720294452436065
 30
0.0
  0
VERTEX
  5
16600
  8
0
 10
89.7643918311258062
 20
156.9686757500820136
 30
0.0
  0
VERTEX
  5
16601
  8
0
 10
89.8255394620977938
 20
156.9655993270386034
 30
0.0
  0
VERTEX
  5
16602
  8
0
 10
89.8861706206157436
 20
156.9628052152849023
 30
0.0
  0
VERTEX
  5
16603
  8
0
 10
89.9462540713922181
 20
156.9602939843624085
 30
0.0
  0
VERTEX
  5
16604
  8
0
 10
90.0057584838886839
 20
156.9580661440124913
 30
0.0
  0
VERTEX
  5
16605
  8
0
 10
90.0646525275666221
 20
156.9561222039762072
 30
0.0
  0
VERTEX
  5
16606
  8
0
 10
90.122904871887485
 20
156.9544626739948114
 30
0.0
  0
VERTEX
  5
16607
  8
0
 10
90.1804841863128104
 20
156.9530880638097017
 30
0.0
  0
VERTEX
  5
16608
  8
0
 10
90.2373591403040933
 20
156.951998883161906
 30
0.0
  0
VERTEX
  5
16609
  8
0
 10
90.2934984033227579
 20
156.9511956417927934
 30
0.0
  0
VERTEX
  5
1660A
  8
0
 10
90.348870644830356
 20
156.9506788494435057
 30
0.0
  0
VERTEX
  5
1660B
  8
0
 10
90.4034445342883259
 20
156.950449015855412
 30
0.0
  0
VERTEX
  5
1660C
  8
0
 10
90.4571887411580917
 20
156.9505066507697109
 30
0.0
  0
VERTEX
  5
1660D
  8
0
 10
90.5100719349013048
 20
156.9508522639274872
 30
0.0
  0
VERTEX
  5
1660E
  8
0
 10
90.5620777003091462
 20
156.9514853244172912
 30
0.0
  0
VERTEX
  5
1660F
  8
0
 10
90.6132752648784958
 20
156.952400196360486
 30
0.0
  0
VERTEX
  5
16610
  8
0
 10
90.663676493322555
 20
156.9535966000520091
 30
0.0
  0
VERTEX
  5
16611
  8
0
 10
90.7132795645865855
 20
156.9550753073611986
 30
0.0
  0
VERTEX
  5
16612
  8
0
 10
90.7620826576156361
 20
156.9568370901577907
 30
0.0
  0
VERTEX
  5
16613
  8
0
 10
90.8100839513550113
 20
156.9588827203114079
 30
0.0
  0
VERTEX
  5
16614
  8
0
 10
90.8572816247498878
 20
156.9612129696915872
 30
0.0
  0
VERTEX
  5
16615
  8
0
 10
90.9036738567454563
 20
156.9638286101678091
 30
0.0
  0
VERTEX
  5
16616
  8
0
 10
90.9492588262868793
 20
156.9667304136100086
 30
0.0
  0
VERTEX
  5
16617
  8
0
 10
90.9940347123193902
 20
156.9699191518874954
 30
0.0
  0
VERTEX
  5
16618
  8
0
 10
91.0379996937881657
 20
156.9733955968700059
 30
0.0
  0
VERTEX
  5
16619
  8
0
 10
91.0811519496384676
 20
156.9771605204271054
 30
0.0
  0
VERTEX
  5
1661A
  8
0
 10
91.1234896588153873
 20
156.9812146944283882
 30
0.0
  0
VERTEX
  5
1661B
  8
0
 10
91.1650096075223075
 20
156.9855587582441956
 30
0.0
  0
VERTEX
  5
1661C
  8
0
 10
91.2056017057860089
 20
156.9901827057319963
 30
0.0
  0
VERTEX
  5
1661D
  8
0
 10
91.2451973975552022
 20
156.9950789838393064
 30
0.0
  0
VERTEX
  5
1661E
  8
0
 10
91.2837965919024725
 20
157.00024626394449
 30
0.0
  0
VERTEX
  5
1661F
  8
0
 10
91.3213991979005186
 20
157.0056832174263093
 30
0.0
  0
VERTEX
  5
16620
  8
0
 10
91.3580051246219256
 20
157.0113885156631
 30
0.0
  0
VERTEX
  5
16621
  8
0
 10
91.3936142811391932
 20
157.0173608300333967
 30
0.0
  0
VERTEX
  5
16622
  8
0
 10
91.4282265765251054
 20
157.0235988319155922
 30
0.0
  0
VERTEX
  5
16623
  8
0
 10
91.4618419198522332
 20
157.0301011926883064
 30
0.0
  0
VERTEX
  5
16624
  8
0
 10
91.4944602201931474
 20
157.0368665837299034
 30
0.0
  0
VERTEX
  5
16625
  8
0
 10
91.5260813866204899
 20
157.0438936764192022
 30
0.0
  0
VERTEX
  5
16626
  8
0
 10
91.5567053282068741
 20
157.0511811421343111
 30
0.0
  0
VERTEX
  5
16627
  8
0
 10
91.5863319540249563
 20
157.0587276522539071
 30
0.0
  0
VERTEX
  5
16628
  8
0
 10
91.6149611731472646
 20
157.066531878156411
 30
0.0
  0
VERTEX
  5
16629
  8
0
 10
91.6426020694393912
 20
157.0745980006342108
 30
0.0
  0
VERTEX
  5
1662A
  8
0
 10
91.6692723869417279
 20
157.08293705893891
 30
0.0
  0
VERTEX
  5
1662B
  8
0
 10
91.6949641507020061
 20
157.0915462047616131
 30
0.0
  0
VERTEX
  5
1662C
  8
0
 10
91.7196682726261088
 20
157.1004219551955998
 30
0.0
  0
VERTEX
  5
1662D
  8
0
 10
91.7433756646200322
 20
157.1095608273342066
 30
0.0
  0
VERTEX
  5
1662E
  8
0
 10
91.7660772385895456
 20
157.1189593382713099
 30
0.0
  0
VERTEX
  5
1662F
  8
0
 10
91.7877639064406452
 20
157.1286140050999052
 30
0.0
  0
VERTEX
  5
16630
  8
0
 10
91.8084265800792281
 20
157.1385213449134994
 30
0.0
  0
VERTEX
  5
16631
  8
0
 10
91.8280561714110917
 20
157.1486778748055997
 30
0.0
  0
VERTEX
  5
16632
  8
0
 10
91.846643592342204
 20
157.159080111869514
 30
0.0
  0
VERTEX
  5
16633
  8
0
 10
91.8641797547784336
 20
157.1697245731988062
 30
0.0
  0
VERTEX
  5
16634
  8
0
 10
91.8806555706256631
 20
157.1806077758868128
 30
0.0
  0
VERTEX
  5
16635
  8
0
 10
91.8960619517898039
 20
157.1917262370270123
 30
0.0
  0
VERTEX
  5
16636
  8
0
 10
91.910391377101476
 20
157.2030758477505969
 30
0.0
  0
VERTEX
  5
16637
  8
0
 10
91.9236540795824766
 20
157.2146478243394085
 30
0.0
  0
VERTEX
  5
16638
  8
0
 10
91.9358540923795147
 20
157.2264406152631864
 30
0.0
  0
VERTEX
  5
16639
  8
0
 10
91.946991706702363
 20
157.2384546633585956
 30
0.0
  0
VERTEX
  5
1663A
  8
0
 10
91.9570672137607232
 20
157.2506904114613064
 30
0.0
  0
VERTEX
  5
1663B
  8
0
 10
91.9660809047644818
 20
157.2631483024078989
 30
0.0
  0
VERTEX
  5
1663C
  8
0
 10
91.9740330709233831
 20
157.2758287790344127
 30
0.0
  0
VERTEX
  5
1663D
  8
0
 10
91.9809240034471856
 20
157.2887322841772004
 30
0.0
  0
VERTEX
  5
1663E
  8
0
 10
91.9867539935455767
 20
157.3018592606723871
 30
0.0
  0
VERTEX
  5
1663F
  8
0
 10
91.9915233324284145
 20
157.3152101513564105
 30
0.0
  0
VERTEX
  5
16640
  8
0
 10
91.9952323113054433
 20
157.3287853990653105
 30
0.0
  0
VERTEX
  5
16641
  8
0
 10
91.9978812213865211
 20
157.342585446635411
 30
0.0
  0
VERTEX
  5
16642
  8
0
 10
91.9994703538813354
 20
157.3566107369028941
 30
0.0
  0
VERTEX
  5
16643
  8
0
 10
91.9999999999996447
 20
157.3708617127041123
 30
0.0
  0
SEQEND
  5
16644
  8
0
  0
POLYLINE
  5
14EA5
  8
0
 66
     1
 10
0.0
 20
0.0
 30
0.0
  0
VERTEX
  5
16645
  8
0
 10
73.4999999999997726
 20
159.1055577154114076
 30
0.0
  0
VERTEX
  5
16646
  8
0
 10
73.413924658113217
 20
159.097503513262609
 30
0.0
  0
VERTEX
  5
16647
  8
0
 10
73.3306287695318844
 20
159.0882977712724085
 30
0.0
  0
VERTEX
  5
16648
  8
0
 10
73.2512093369133339
 20
159.0775058392536891
 30
0.0
  0
VERTEX
  5
16649
  8
0
 10
73.1753674942540897
 20
159.0652878445272052
 30
0.0
  0
VERTEX
  5
1664A
  8
0
 10
73.1027621349676338
 20
159.0518219130609054
 30
0.0
  0
VERTEX
  5
1664B
  8
0
 10
73.0330521524678176
 20
159.0372861708231937
 30
0.0
  0
VERTEX
  5
1664C
  8
0
 10
72.9658964401681942
 20
159.0218587437821895
 30
0.0
  0
VERTEX
  5
1664D
  8
0
 10
72.9009538914824731
 20
159.0057177579062113
 30
0.0
  0
VERTEX
  5
1664E
  8
0
 10
72.8378975649057026
 20
158.9890345325152907
 30
0.0
  0
VERTEX
  5
1664F
  8
0
 10
72.7766226295316727
 20
158.9718736576672882
 30
0.0
  0
VERTEX
  5
16650
  8
0
 10
72.7172005851057435
 20
158.9542149924770911
 30
0.0
  0
VERTEX
  5
16651
  8
0
 10
72.6597077872827839
 20
158.9360360626835984
 30
0.0
  0
VERTEX
  5
16652
  8
0
 10
72.6042205917178762
 20
158.9173143940251975
 30
0.0
  0
VERTEX
  5
16653
  8
0
 10
72.5508153540658753
 20
158.8980275122405885
 30
0.0
  0
VERTEX
  5
16654
  8
0
 10
72.4995684299818208
 20
158.8781529430683008
 30
0.0
  0
VERTEX
  5
16655
  8
0
 10
72.4505577258470339
 20
158.8576688449630012
 30
0.0
  0
VERTEX
  5
16656
  8
0
 10
72.4038951180374966
 20
158.8365672365632122
 30
0.0
  0
VERTEX
  5
16657
  8
0
 10
72.3597255362174536
 20
158.8148536226647991
 30
0.0
  0
VERTEX
  5
16658
  8
0
 10
72.3181952773931584
 20
158.7925340659556923
 30
0.0
  0
VERTEX
  5
16659
  8
0
 10
72.2794506385708928
 20
158.7696146291245043
 30
0.0
  0
VERTEX
  5
1665A
  8
0
 10
72.2436379167568816
 20
158.7461013748591938
 30
0.0
  0
VERTEX
  5
1665B
  8
0
 10
72.2109034089573925
 20
158.7220003658480891
 30
0.0
  0
VERTEX
  5
1665C
  8
0
 10
72.1813878952550567
 20
158.697318205968088
 30
0.0
  0
VERTEX
  5
1665D
  8
0
 10
72.1550526664902918
 20
158.6720791062911076
 30
0.0
  0
VERTEX
  5
1665E
  8
0
 10
72.1316442822890167
 20
158.6463283421830113
 30
0.0
  0
VERTEX
  5
1665F
  8
0
 10
72.110896665872815
 20
158.6201124285921082
 30
0.0
  0
VERTEX
  5
16660
  8
0
 10
72.0925437404630713
 20
158.5934778804669065
 30
0.0
  0
VERTEX
  5
16661
  8
0
 10
72.0763194292813978
 20
158.5664712127556015
 30
0.0
  0
VERTEX
  5
16662
  8
0
 10
72.0619576555492358
 20
158.5391389404063034
 30
0.0
  0
VERTEX
  5
16663
  8
0
 10
72.0491923424880127
 20
158.5115275783672928
 30
0.0
  0
VERTEX
  5
16664
  8
0
 10
72.0377574133193548
 20
158.4836836415871915
 30
0.0
  0
VERTEX
  5
16665
  8
0
 10
72.027386791264675
 20
158.4556536450139106
 30
0.0
  0
VERTEX
  5
16666
  8
0
 10
72.0178143995455002
 20
158.4274841035957877
 30
0.0
  0
VERTEX
  5
16667
  8
0
 10
72.0087741613833145
 20
158.3992215322811887
 30
0.0
  0
VERTEX
  5
16668
  8
0
 10
71.9999999999996589
 20
158.3709124460183091
 30
0.0
  0
SEQEND
  5
16669
  8
0
  0
POLYLINE
  5
14EA6
  8
0
 66
     1
 10
0.0
 20
0.0
 30
0.0
  0
VERTEX
  5
1666A
  8
0
 10
71.9999999999996589
 20
158.3709124460183091
 30
0.0
  0
VERTEX
  5
1666B
  8
0
 10
71.9999999999996589
 20
158.2038902536137073
 30
0.0
  0
VERTEX
  5
1666C
  8
0
 10
71.9999999999996589
 20
158.036549330234493
 30
0.0
  0
VERTEX
  5
1666D
  8
0
 10
71.9999999999996589
 20
157.8688983610178127
 30
0.0
  0
VERTEX
  5
1666E
  8
0
 10
71.9999999999996589
 20
157.7009460311003011
 30
0.0
  0
VERTEX
  5
1666F
  8
0
 10
71.9999999999996589
 20
157.5327010256187066
 30
0.0
  0
VERTEX
  5
16670
  8
0
 10
71.9999999999996589
 20
157.3641720297100903
 30
0.0
  0
VERTEX
  5
16671
  8
0
 10
71.9999999999996589
 20
157.195367728511286
 30
0.0
  0
VERTEX
  5
16672
  8
0
 10
71.9999999999996589
 20
157.0262968071590137
 30
0.0
  0
VERTEX
  5
16673
  8
0
 10
71.9999999999996589
 20
156.8569679507903061
 30
0.0
  0
VERTEX
  5
16674
  8
0
 10
71.9999999999996589
 20
156.6873898445417979
 30
0.0
  0
VERTEX
  5
16675
  8
0
 10
71.9999999999996589
 20
156.517571173550607
 30
0.0
  0
SEQEND
  5
16676
  8
0
  0
POLYLINE
  5
14EA7
  8
0
 66
     1
 10
0.0
 20
0.0
 30
0.0
  0
VERTEX
  5
16677
  8
0
 10
246.0
 20
159.0995788365439125
 30
0.0
  0
VERTEX
  5
16678
  8
0
 10
246.0755421806445042
 20
159.0912960853615914
 30
0.0
  0
VERTEX
  5
16679
  8
0
 10
246.1548029446927899
 20
159.0814263051773025
 30
0.0
  0
VERTEX
  5
1667A
  8
0
 10
246.2376785593133093
 20
159.069999206532799
 30
0.0
  0
VERTEX
  5
1667B
  8
0
 10
246.3236664747186069
 20
159.057213189084905
 30
0.0
  0
VERTEX
  5
1667C
  8
0
 10
246.4122641411208861
 20
159.0432666524905017
 30
0.0
  0
VERTEX
  5
1667D
  8
0
 10
246.502969008732407
 20
159.0283579964064984
 30
0.0
  0
VERTEX
  5
1667E
  8
0
 10
246.5952785277659132
 20
159.0126856204900889
 30
0.0
  0
VERTEX
  5
1667F
  8
0
 10
246.6886904634179984
 20
158.9964477971888925
 30
0.0
  0
VERTEX
  5
16680
  8
0
 10
246.782844075214598
 20
158.9797856554282873
 30
0.0
  0
VERTEX
  5
16681
  8
0
 10
246.8777427150266988
 20
158.9626932827671908
 30
0.0
  0
VERTEX
  5
16682
  8
0
 10
246.9734474946396858
 20
158.9451414399991904
 30
0.0
  0
VERTEX
  5
16683
  8
0
 10
247.0700195258388874
 20
158.9271008879186127
 30
0.0
  0
VERTEX
  5
16684
  8
0
 10
247.1675199204098874
 20
158.9085423873187892
 30
0.0
  0
VERTEX
  5
16685
  8
0
 10
247.2660097901377014
 20
158.8894366989935918
 30
0.0
  0
VERTEX
  5
16686
  8
0
 10
247.3655502468079987
 20
158.8697545837368921
 30
0.0
  0
VERTEX
  5
16687
  8
0
 10
247.4661842859119929
 20
158.8494716328694096
 30
0.0
  0
VERTEX
  5
16688
  8
0
 10
247.5678633784316105
 20
158.828587841797912
 30
0.0
  0
VERTEX
  5
16689
  8
0
 10
247.670510158864289
 20
158.8071108948871029
 30
0.0
  0
VERTEX
  5
1668A
  8
0
 10
247.7740472509368885
 20
158.785048479372989
 30
0.0
  0
VERTEX
  5
1668B
  8
0
 10
247.8783972783760987
 20
158.762408282492089
 30
0.0
  0
VERTEX
  5
1668C
  8
0
 10
247.9834828649088934
 20
158.7391979914806086
 30
0.0
  0
VERTEX
  5
1668D
  8
0
 10
248.0892266342619052
 20
158.7154252935750094
 30
0.0
  0
VERTEX
  5
1668E
  8
0
 10
248.1955530745264866
 20
158.691099870638709
 30
0.0
  0
VERTEX
  5
1668F
  8
0
 10
248.302406340550391
 20
158.6662524454027903
 30
0.0
  0
VERTEX
  5
16690
  8
0
 10
248.4097423833827918
 20
158.6409263609976108
 30
0.0
  0
VERTEX
  5
16691
  8
0
 10
248.5175173142226868
 20
158.6151651318928941
 30
0.0
  0
VERTEX
  5
16692
  8
0
 10
248.6256872442693862
 20
158.5890122725589038
 30
0.0
  0
VERTEX
  5
16693
  8
0
 10
248.7342082847223992
 20
158.5625112974653064
 30
0.0
  0
VERTEX
  5
16694
  8
0
 10
248.8430365467806951
 20
158.5357057210821097
 30
0.0
  0
VERTEX
  5
16695
  8
0
 10
248.9521281416436125
 20
158.5086390578792077
 30
0.0
  0
VERTEX
  5
16696
  8
0
 10
249.0614391805102059
 20
158.4813548223266935
 30
0.0
  0
VERTEX
  5
16697
  8
0
 10
249.170925774580013
 20
158.4538965288944894
 30
0.0
  0
VERTEX
  5
16698
  8
0
 10
249.2805440350520882
 20
158.4263076920522053
 30
0.0
  0
VERTEX
  5
16699
  8
0
 10
249.3902500731257135
 20
158.3986318262703037
 30
0.0
  0
VERTEX
  5
1669A
  8
0
 10
249.5
 20
158.3709124460183943
 30
0.0
  0
SEQEND
  5
1669B
  8
0
  0
POLYLINE
  5
14EA8
  8
2
 66
     1
 10
0.0
 20
0.0
 30
0.0
  0
VERTEX
  5
1669C
  8
2
 10
249.5
 20
158.3709124460183943
 30
0.0
  0
VERTEX
  5
1669D
  8
2
 10
250.1367510670010006
 20
158.2038902536137925
 30
0.0
  0
VERTEX
  5
1669E
  8
2
 10
250.7734177458183069
 20
158.036549330234692
 30
0.0
  0
VERTEX
  5
1669F
  8
2
 10
251.4100023359549141
 20
157.8688983610178127
 30
0.0
  0
VERTEX
  5
166A0
  8
2
 10
252.0465071369144141
 20
157.7009460311003863
 30
0.0
  0
VERTEX
  5
166A1
  8
2
 10
252.6829344482003137
 20
157.5327010256187918
 30
0.0
  0
VERTEX
  5
166A2
  8
2
 10
253.319286569315409
 20
157.3641720297102893
 30
0.0
  0
VERTEX
  5
166A3
  8
2
 10
253.9555657997630931
 20
157.1953677285113997
 30
0.0
  0
VERTEX
  5
166A4
  8
2
 10
254.5917744390469011
 20
157.0262968071592127
 30
0.0
  0
VERTEX
  5
166A5
  8
2
 10
255.2279147866699134
 20
156.8569679507903913
 30
0.0
  0
VERTEX
  5
166A6
  8
2
 10
255.8639891421354093
 20
156.6873898445419115
 30
0.0
  0
VERTEX
  5
166A7
  8
2
 10
256.4999998049469241
 20
156.5175711735506923
 30
0.0
  0
SEQEND
  5
166A8
  8
2
  0
POLYLINE
  5
14EA9
  8
2
 66
     1
 10
0.0
 20
0.0
 30
0.0
  0
VERTEX
  5
166A9
  8
2
 10
259.0000000000001137
 20
155.9155420886779098
 30
0.0
  0
VERTEX
  5
166AA
  8
2
 10
258.9008226780129007
 20
155.9365949430037119
 30
0.0
  0
VERTEX
  5
166AB
  8
2
 10
258.8012291518332972
 20
155.9578316100092934
 30
0.0
  0
VERTEX
  5
166AC
  8
2
 10
258.7008032172691969
 20
155.979435902374405
 30
0.0
  0
VERTEX
  5
166AD
  8
2
 10
258.5991286701283229
 20
156.0015916327789114
 30
0.0
  0
VERTEX
  5
166AE
  8
2
 10
258.4958430717379088
 20
156.0244616692654063
 30
0.0
  0
VERTEX
  5
166AF
  8
2
 10
258.3909621129008087
 20
156.0480615775796025
 30
0.0
  0
VERTEX
  5
166B0
  8
2
 10
258.2846637199048132
 20
156.0723437237923008
 30
0.0
  0
VERTEX
  5
166B1
  8
2
 10
258.1771264412918185
 20
156.0972602315725055
 30
0.0
  0
VERTEX
  5
166B2
  8
2
 10
258.0685288256036074
 20
156.1227632245889936
 30
0.0
  0
VERTEX
  5
166B3
  8
2
 10
257.9590494213820193
 20
156.1488048265107125
 30
0.0
  0
VERTEX
  5
166B4
  8
2
 10
257.8488667771690075
 20
156.1753371610064107
 30
0.0
  0
VERTEX
  5
166B5
  8
2
 10
257.7381520414942884
 20
156.2023129539383888
 30
0.0
  0
VERTEX
  5
166B6
  8
2
 10
257.6269956640775831
 20
156.2296914982267992
 30
0.0
  0
VERTEX
  5
166B7
  8
2
 10
257.5154384532852987
 20
156.2574361264746869
 30
0.0
  0
VERTEX
  5
166B8
  8
2
 10
257.4035204924547884
 20
156.2855102302860928
 30
0.0
  0
VERTEX
  5
166B9
  8
2
 10
257.2912818649238034
 20
156.3138772012650861
 30
0.0
  0
VERTEX
  5
166BA
  8
2
 10
257.1787626540296969
 20
156.3425004310157078
 30
0.0
  0
VERTEX
  5
166BB
  8
2
 10
257.0660029431102203
 20
156.3713433111419988
 30
0.0
  0
VERTEX
  5
166BC
  8
2
 10
256.9530428155031245
 20
156.4003692332481137
 30
0.0
  0
VERTEX
  5
166BD
  8
2
 10
256.8399223545454788
 20
156.4295415889378944
 30
0.0
  0
VERTEX
  5
166BE
  8
2
 10
256.7266816435753185
 20
156.4588237698156092
 30
0.0
  0
VERTEX
  5
166BF
  8
2
 10
256.6133607659298832
 20
156.4881791674852138
 30
0.0
  0
VERTEX
  5
166C0
  8
2
 10
256.4999998049469241
 20
156.5175711735506923
 30
0.0
  0
SEQEND
  5
166C1
  8
2
  0
POLYLINE
  5
14EAA
  8
2
 66
     1
 10
0.0
 20
0.0
 30
0.0
  0
VERTEX
  5
166C2
  8
2
 10
256.5
 20
156.5175711214315015
 30
0.0
  0
VERTEX
  5
166C3
  8
2
 10
255.8639893194742001
 20
156.6873897972274108
 30
0.0
  0
VERTEX
  5
166C4
  8
2
 10
255.2279149462912073
 20
156.8569679082694108
 30
0.0
  0
VERTEX
  5
166C5
  8
2
 10
254.591774580947714
 20
157.0262967694195027
 30
0.0
  0
VERTEX
  5
166C6
  8
2
 10
253.9555659239399006
 20
157.1953676955407104
 30
0.0
  0
VERTEX
  5
166C7
  8
2
 10
253.3192866757646868
 20
157.3641720014950067
 30
0.0
  0
VERTEX
  5
166C8
  8
2
 10
252.6829345369183955
 20
157.5327010021451031
 30
0.0
  0
VERTEX
  5
166C9
  8
2
 10
252.0465072078976903
 20
157.7009460123533984
 30
0.0
  0
VERTEX
  5
166CA
  8
2
 10
251.410002389198894
 20
157.8688983469822062
 30
0.0
  0
VERTEX
  5
166CB
  8
2
 10
250.7734177813186989
 20
158.036549320894494
 30
0.0
  0
VERTEX
  5
166CC
  8
2
 10
250.1367510847535129
 20
158.2038902489522059
 30
0.0
  0
VERTEX
  5
166CD
  8
2
 10
249.5
 20
158.3709124460181101
 30
0.0
  0
SEQEND
  5
166CE
  8
2
  0
POLYLINE
  5
14EAB
  8
2
 66
     1
 10
0.0
 20
0.0
 30
0.0
  0
VERTEX
  5
166CF
  8
2
 10
143.5000000000001137
 20
156.5175711214317005
 30
0.0
  0
VERTEX
  5
166D0
  8
2
 10
143.4101500725097083
 20
156.4940013986577014
 30
0.0
  0
VERTEX
  5
166D1
  8
2
 10
143.320331178106386
 20
156.4704620012458065
 30
0.0
  0
VERTEX
  5
166D2
  8
2
 10
143.2305743498770028
 20
156.4469832545584893
 30
0.0
  0
VERTEX
  5
166D3
  8
2
 10
143.1409106209084996
 20
156.4235954839579108
 30
0.0
  0
VERTEX
  5
166D4
  8
2
 10
143.0513710242877039
 20
156.4003290148062035
 30
0.0
  0
VERTEX
  5
166D5
  8
2
 10
142.9619865931018126
 20
156.3772141724658979
 30
0.0
  0
VERTEX
  5
166D6
  8
2
 10
142.8727883604377098
 20
156.3542812822990982
 30
0.0
  0
VERTEX
  5
166D7
  8
2
 10
142.7838073593823935
 20
156.3315606696679936
 30
0.0
  0
VERTEX
  5
166D8
  8
2
 10
142.6950746230226912
 20
156.3090826599348873
 30
0.0
  0
VERTEX
  5
166D9
  8
2
 10
142.6066200715399077
 20
156.286876430552411
 30
0.0
  0
VERTEX
  5
166DA
  8
2
 10
142.518450882032397
 20
156.2649477005602137
 30
0.0
  0
VERTEX
  5
166DB
  8
2
 10
142.4305529692992991
 20
156.243280257943411
 30
0.0
  0
VERTEX
  5
166DC
  8
2
 10
142.3429114318120128
 20
156.221857048683006
 30
0.0
  0
VERTEX
  5
166DD
  8
2
 10
142.2555113680415104
 20
156.2006610187605986
 30
0.0
  0
VERTEX
  5
166DE
  8
2
 10
142.1683378764589065
 20
156.1796751141569928
 30
0.0
  0
VERTEX
  5
166DF
  8
2
 10
142.0813760555352872
 20
156.1588822808535895
 30
0.0
  0
VERTEX
  5
166E0
  8
2
 10
141.9946110037421931
 20
156.1382654648313917
 30
0.0
  0
VERTEX
  5
166E1
  8
2
 10
141.9080278195501137
 20
156.1178076120716014
 30
0.0
  0
VERTEX
  5
166E2
  8
2
 10
141.8216116068163046
 20
156.0974916709035085
 30
0.0
  0
VERTEX
  5
166E3
  8
2
 10
141.7353896953156891
 20
156.0773189964137089
 30
0.0
  0
VERTEX
  5
166E4
  8
2
 10
141.6495335585906048
 20
156.0573537775981947
 30
0.0
  0
VERTEX
  5
166E5
  8
2
 10
141.5642454011594111
 20
156.0376735994344983
 30
0.0
  0
VERTEX
  5
166E6
  8
2
 10
141.4797274275402117
 20
156.0183560469006068
 30
0.0
  0
VERTEX
  5
166E7
  8
2
 10
141.3961818422513943
 20
155.9994787049741944
 30
0.0
  0
VERTEX
  5
166E8
  8
2
 10
141.3138108498112047
 20
155.9811191586329073
 30
0.0
  0
VERTEX
  5
166E9
  8
2
 10
141.2328166547380022
 20
155.9633549928547041
 30
0.0
  0
VERTEX
  5
166EA
  8
2
 10
141.1534014615500041
 20
155.9462637926172022
 30
0.0
  0
VERTEX
  5
166EB
  8
2
 10
141.075767474765513
 20
155.9299231428983887
 30
0.0
  0
VERTEX
  5
166EC
  8
2
 10
141.0000000000001137
 20
155.9143621856937045
 30
0.0
  0
SEQEND
  5
166ED
  8
2
  0
POLYLINE
  5
14EAC
  8
2
 66
     1
 10
0.0
 20
0.0
 30
0.0
  0
VERTEX
  5
166EE
  8
2
 10
143.5000000000001137
 20
156.5175711214317005
 30
0.0
  0
VERTEX
  5
166EF
  8
2
 10
144.1360106805259136
 20
156.6873897972278087
 30
0.0
  0
VERTEX
  5
166F0
  8
2
 10
144.7720850537089063
 20
156.856967908269695
 30
0.0
  0
VERTEX
  5
166F1
  8
2
 10
145.4082254190523997
 20
157.0262967694199006
 30
0.0
  0
VERTEX
  5
166F2
  8
2
 10
146.0444340760600994
 20
157.1953676955409946
 30
0.0
  0
VERTEX
  5
166F3
  8
2
 10
146.6807133242353984
 20
157.3641720014952057
 30
0.0
  0
VERTEX
  5
166F4
  8
2
 10
147.3170654630816898
 20
157.5327010021453873
 30
0.0
  0
VERTEX
  5
166F5
  8
2
 10
147.953492792102395
 20
157.7009460123535973
 30
0.0
  0
VERTEX
  5
166F6
  8
2
 10
148.5899976108011913
 20
157.8688983469826042
 30
0.0
  0
VERTEX
  5
166F7
  8
2
 10
149.2265822186813011
 20
158.0365493208948067
 30
0.0
  0
VERTEX
  5
166F8
  8
2
 10
149.8632489152466007
 20
158.2038902489524048
 30
0.0
  0
VERTEX
  5
166F9
  8
2
 10
150.5000000000001137
 20
158.3709124460183943
 30
0.0
  0
SEQEND
  5
166FA
  8
2
  0
POLYLINE
  5
14EAD
  8
2
 66
     1
 10
0.0
 20
0.0
 30
0.0
  0
VERTEX
  5
166FB
  8
2
 10
150.5000000000001137
 20
158.3709124460183943
 30
0.0
  0
VERTEX
  5
166FC
  8
2
 10
150.6097266054107138
 20
158.3989966658544972
 30
0.0
  0
VERTEX
  5
166FD
  8
2
 10
150.7194181728833939
 20
158.4270225984332114
 30
0.0
  0
VERTEX
  5
166FE
  8
2
 10
150.82903966448049
 20
158.4549319564976884
 30
0.0
  0
VERTEX
  5
166FF
  8
2
 10
150.9385560422639969
 20
158.4826664527903972
 30
0.0
  0
VERTEX
  5
16700
  8
2
 10
151.0479322682963073
 20
158.5101678000542051
 30
0.0
  0
VERTEX
  5
16701
  8
2
 10
151.1571333046393875
 20
158.5373777110318088
 30
0.0
  0
VERTEX
  5
16702
  8
2
 10
151.2661241133554881
 20
158.5642378984661889
 30
0.0
  0
VERTEX
  5
16703
  8
2
 10
151.3748694378288064
 20
158.5906903595681001
 30
0.0
  0
VERTEX
  5
16704
  8
2
 10
151.4833205905069917
 20
158.6166945632388945
 30
0.0
  0
VERTEX
  5
16705
  8
2
 10
151.5914078854991089
 20
158.642237294157411
 30
0.0
  0
VERTEX
  5
16706
  8
2
 10
151.6990598093570952
 20
158.6673077143879027
 30
0.0
  0
VERTEX
  5
16707
  8
2
 10
151.8062048486324045
 20
158.6918949859949919
 30
0.0
  0
VERTEX
  5
16708
  8
2
 10
151.9127714898770023
 20
158.7159882710429031
 30
0.0
  0
VERTEX
  5
16709
  8
2
 10
152.0186882196423994
 20
158.7395767315964861
 30
0.0
  0
VERTEX
  5
1670A
  8
2
 10
152.1238835244801919
 20
158.7626495297197948
 30
0.0
  0
VERTEX
  5
1670B
  8
2
 10
152.2282893547838114
 20
158.7851966456084085
 30
0.0
  0
VERTEX
  5
1670C
  8
2
 10
152.33187867364461
 20
158.8072177463211858
 30
0.0
  0
VERTEX
  5
1670D
  8
2
 10
152.434651262331414
 20
158.8287188331503046
 30
0.0
  0
VERTEX
  5
1670E
  8
2
 10
152.536607365461407
 20
158.8497060168272981
 30
0.0
  0
VERTEX
  5
1670F
  8
2
 10
152.6377472276529943
 20
158.8701854080840121
 30
0.0
  0
VERTEX
  5
16710
  8
2
 10
152.7380710935237005
 20
158.8901631176520084
 30
0.0
  0
VERTEX
  5
16711
  8
2
 10
152.837579207691391
 20
158.9096452562627917
 30
0.0
  0
VERTEX
  5
16712
  8
2
 10
152.9362718147739884
 20
158.9286379346484068
 30
0.0
  0
VERTEX
  5
16713
  8
2
 10
153.0341118329924939
 20
158.9471318502837107
 30
0.0
  0
VERTEX
  5
16714
  8
2
 10
153.1309031992489906
 20
158.9650520522012016
 30
0.0
  0
VERTEX
  5
16715
  8
2
 10
153.2264075314575962
 20
158.9823061145769998
 30
0.0
  0
VERTEX
  5
16716
  8
2
 10
153.3203864471680049
 20
158.9988016114367895
 30
0.0
  0
VERTEX
  5
16717
  8
2
 10
153.4126015639299112
 20
159.014446116806198
 30
0.0
  0
VERTEX
  5
16718
  8
2
 10
153.5028144992930095
 20
159.0291472047111938
 30
0.0
  0
VERTEX
  5
16719
  8
2
 10
153.5907868708067952
 20
159.0428124491770916
 30
0.0
  0
VERTEX
  5
1671A
  8
2
 10
153.6762840720255099
 20
159.0553510601835114
 30
0.0
  0
VERTEX
  5
1671B
  8
2
 10
153.7593678455509121
 20
159.0668006409202064
 30
0.0
  0
VERTEX
  5
1671C
  8
2
 10
153.8406046549062012
 20
159.0774174648906865
 30
0.0
  0
VERTEX
  5
1671D
  8
2
 10
153.9206101548149093
 20
159.0874791176836993
 30
0.0
  0
VERTEX
  5
1671E
  8
2
 10
154.0000000000001137
 20
159.0972631848879928
 30
0.0
  0
SEQEND
  5
1671F
  8
2
  0
POLYLINE
  5
14EAE
  8
0
 66
     1
 10
0.0
 20
0.0
 30
0.0
  0
VERTEX
  5
16720
  8
0
 10
244.5
 20
157.3088111994200915
 30
0.0
  0
VERTEX
  5
16721
  8
0
 10
244.5
 20
157.4738570428038997
 30
0.0
  0
VERTEX
  5
16722
  8
0
 10
244.5
 20
157.6365021427602073
 30
0.0
  0
VERTEX
  5
16723
  8
0
 10
244.5
 20
157.7966618908236001
 30
0.0
  0
VERTEX
  5
16724
  8
0
 10
244.5
 20
157.9542516785284931
 30
0.0
  0
VERTEX
  5
16725
  8
0
 10
244.5
 20
158.1091868974098986
 30
0.0
  0
VERTEX
  5
16726
  8
0
 10
244.5
 20
158.2613829390022033
 30
0.0
  0
VERTEX
  5
16727
  8
0
 10
244.5
 20
158.410755194840192
 30
0.0
  0
VERTEX
  5
16728
  8
0
 10
244.5
 20
158.5572190564583934
 30
0.0
  0
VERTEX
  5
16729
  8
0
 10
244.5
 20
158.7006899153915072
 30
0.0
  0
VERTEX
  5
1672A
  8
0
 10
244.5
 20
158.8410831631740905
 30
0.0
  0
VERTEX
  5
1672B
  8
0
 10
244.5
 20
158.9783141913408997
 30
0.0
  0
SEQEND
  5
1672C
  8
0
  0
POLYLINE
  5
14EAF
  8
0
 66
     1
 10
0.0
 20
0.0
 30
0.0
  0
VERTEX
  5
1672D
  8
0
 10
244.5
 20
158.9783141913408997
 30
0.0
  0
VERTEX
  5
1672E
  8
0
 10
244.5054492926444141
 20
158.9936291063334011
 30
0.0
  0
VERTEX
  5
1672F
  8
0
 10
244.5113425005752958
 20
159.0088183121015106
 30
0.0
  0
VERTEX
  5
16730
  8
0
 10
244.5181235390791983
 20
159.0237560994202966
 30
0.0
  0
VERTEX
  5
16731
  8
0
 10
244.5262363234425038
 20
159.0383167590651965
 30
0.0
  0
VERTEX
  5
16732
  8
0
 10
244.5361247689517086
 20
159.0523745818115913
 30
0.0
  0
VERTEX
  5
16733
  8
0
 10
244.5482327908933087
 20
159.0658038584350038
 30
0.0
  0
VERTEX
  5
16734
  8
0
 10
244.5630043045539139
 20
159.0784788797105023
 30
0.0
  0
VERTEX
  5
16735
  8
0
 10
244.5808277513621078
 20
159.0902880954980105
 30
0.0
  0
VERTEX
  5
16736
  8
0
 10
244.6017339523081091
 20
159.1012112342887974
 30
0.0
  0
VERTEX
  5
16737
  8
0
 10
244.6256118609221062
 20
159.1112642346631105
 30
0.0
  0
VERTEX
  5
16738
  8
0
 10
244.6523500735123946
 20
159.1204631263778992
 30
0.0
  0
VERTEX
  5
16739
  8
0
 10
244.681837186387213
 20
159.1288239391901982
 30
0.0
  0
VERTEX
  5
1673A
  8
0
 10
244.7139617958549991
 20
159.1363627028568999
 30
0.0
  0
VERTEX
  5
1673B
  8
0
 10
244.7486124982239062
 20
159.1430954471352948
 30
0.0
  0
VERTEX
  5
1673C
  8
0
 10
244.7856820808731015
 20
159.1490376523645125
 30
0.0
  0
VERTEX
  5
1673D
  8
0
 10
244.8251085752316101
 20
159.1541988677334132
 30
0.0
  0
VERTEX
  5
1673E
  8
0
 10
244.8668576319259103
 20
159.158585021763713
 30
0.0
  0
VERTEX
  5
1673F
  8
0
 10
244.9108952962216961
 20
159.1622019912429096
 30
0.0
  0
VERTEX
  5
16740
  8
0
 10
244.9571876133850878
 20
159.165055652958813
 30
0.0
  0
VERTEX
  5
16741
  8
0
 10
245.005700628681609
 20
159.167151883699006
 30
0.0
  0
VERTEX
  5
16742
  8
0
 10
245.0564003873774084
 20
159.1684965602509862
 30
0.0
  0
VERTEX
  5
16743
  8
0
 10
245.10925553370231
 20
159.169094310117913
 30
0.0
  0
VERTEX
  5
16744
  8
0
 10
245.164287927757897
 20
159.1689241807019073
 30
0.0
  0
VERTEX
  5
16745
  8
0
 10
245.2215692375231981
 20
159.1679412774778939
 30
0.0
  0
VERTEX
  5
16746
  8
0
 10
245.2811730474064973
 20
159.1660997847214105
 30
0.0
  0
VERTEX
  5
16747
  8
0
 10
245.3431729418159932
 20
159.1633538867071991
 30
0.0
  0
VERTEX
  5
16748
  8
0
 10
245.4076425051601973
 20
159.1596577677103141
 30
0.0
  0
VERTEX
  5
16749
  8
0
 10
245.4746553218473082
 20
159.1549656120058955
 30
0.0
  0
VERTEX
  5
1674A
  8
0
 10
245.5442810375701868
 20
159.1492333174288092
 30
0.0
  0
VERTEX
  5
1674B
  8
0
 10
245.6163971316200048
 20
159.1425003848472102
 30
0.0
  0
VERTEX
  5
1674C
  8
0
 10
245.6906061709543962
 20
159.1349259172295945
 30
0.0
  0
VERTEX
  5
1674D
  8
0
 10
245.7664895665166114
 20
159.1266782215832905
 30
0.0
  0
VERTEX
  5
1674E
  8
0
 10
245.8436287292495024
 20
159.1179256049155128
 30
0.0
  0
VERTEX
  5
1674F
  8
0
 10
245.921605070096291
 20
159.1088363742333058
 30
0.0
  0
VERTEX
  5
16750
  8
0
 10
246.0
 20
159.0995788365439125
 30
0.0
  0
SEQEND
  5
16751
  8
0
  0
POLYLINE
  5
14EB0
  8
0
 66
     1
 10
0.0
 20
0.0
 30
0.0
  0
VERTEX
  5
16752
  8
0
 10
261.5
 20
155.6073665893588895
 30
0.0
  0
VERTEX
  5
16753
  8
0
 10
261.4945556686324153
 20
155.6002382837531002
 30
0.0
  0
VERTEX
  5
16754
  8
0
 10
261.4886878844881153
 20
155.593221316403401
 30
0.0
  0
VERTEX
  5
16755
  8
0
 10
261.4819731947899868
 20
155.586427025566195
 30
0.0
  0
VERTEX
  5
16756
  8
0
 10
261.4739881467615987
 20
155.5799667494974017
 30
0.0
  0
VERTEX
  5
16757
  8
0
 10
261.4643092876257811
 20
155.5739518264537082
 30
0.0
  0
VERTEX
  5
16758
  8
0
 10
261.4525131646061027
 20
155.568493594690807
 30
0.0
  0
VERTEX
  5
16759
  8
0
 10
261.4381763249255073
 20
155.5637033924652997
 30
0.0
  0
VERTEX
  5
1675A
  8
0
 10
261.4209042873050066
 20
155.5596852392525875
 30
0.0
  0
VERTEX
  5
1675B
  8
0
 10
261.4006176226013167
 20
155.5564635660504962
 30
0.0
  0
VERTEX
  5
1675C
  8
0
 10
261.3774302920879791
 20
155.5540139495651886
 30
0.0
  0
VERTEX
  5
1675D
  8
0
 10
261.3514590644811051
 20
155.5523112572863909
 30
0.0
  0
VERTEX
  5
1675E
  8
0
 10
261.3228207084964083
 20
155.5513303567039998
 30
0.0
  0
VERTEX
  5
1675F
  8
0
 10
261.2916319928496023
 20
155.551046115307912
 30
0.0
  0
VERTEX
  5
16760
  8
0
 10
261.2580096862567984
 20
155.5514334005879959
 30
0.0
  0
VERTEX
  5
16761
  8
0
 10
261.2220696510556763
 20
155.5524673033368117
 30
0.0
  0
VERTEX
  5
16762
  8
0
 10
261.183885575522595
 20
155.5541333046892021
 30
0.0
  0
VERTEX
  5
16763
  8
0
 10
261.1434719716796735
 20
155.5564314649201947
 30
0.0
  0
VERTEX
  5
16764
  8
0
 10
261.1008389219643959
 20
155.5593629356131942
 30
0.0
  0
VERTEX
  5
16765
  8
0
 10
261.0559965088140189
 20
155.5629288683514915
 30
0.0
  0
VERTEX
  5
16766
  8
0
 10
261.0089548146659126
 20
155.567130414718406
 30
0.0
  0
VERTEX
  5
16767
  8
0
 10
260.9597239219572202
 20
155.5719687262972002
 30
0.0
  0
VERTEX
  5
16768
  8
0
 10
260.9083139133817895
 20
155.5774449547041911
 30
0.0
  0
VERTEX
  5
16769
  8
0
 10
260.8547365714032935
 20
155.5835604706068125
 30
0.0
  0
VERTEX
  5
1676A
  8
0
 10
260.7990094255630993
 20
155.5903173853041892
 30
0.0
  0
VERTEX
  5
1676B
  8
0
 10
260.7411512188165261
 20
155.597717966469105
 30
0.0
  0
VERTEX
  5
1676C
  8
0
 10
260.6811806941191207
 20
155.6057644817744858
 30
0.0
  0
VERTEX
  5
1676D
  8
0
 10
260.6191165944259751
 20
155.6144591988930017
 30
0.0
  0
VERTEX
  5
1676E
  8
0
 10
260.5549776626929201
 20
155.6238043854980049
 30
0.0
  0
VERTEX
  5
1676F
  8
0
 10
260.488782641874991
 20
155.6338023092619096
 30
0.0
  0
VERTEX
  5
16770
  8
0
 10
260.4205554275653185
 20
155.6444531686792914
 30
0.0
  0
VERTEX
  5
16771
  8
0
 10
260.3503660981886014
 20
155.6557386163007948
 30
0.0
  0
VERTEX
  5
16772
  8
0
 10
260.278309089774325
 20
155.667630523233413
 30
0.0
  0
VERTEX
  5
16773
  8
0
 10
260.2044790575686761
 20
155.680100672551788
 30
0.0
  0
VERTEX
  5
16774
  8
0
 10
260.1289706568185238
 20
155.6931208473305048
 30
0.0
  0
VERTEX
  5
16775
  8
0
 10
260.0518785427702255
 20
155.7066628306442055
 30
0.0
  0
VERTEX
  5
16776
  8
0
 10
259.9732973706700818
 20
155.7206984055677026
 30
0.0
  0
VERTEX
  5
16777
  8
0
 10
259.8933191388460955
 20
155.735200479604714
 30
0.0
  0
VERTEX
  5
16778
  8
0
 10
259.8119412456957207
 20
155.7501819957116993
 30
0.0
  0
VERTEX
  5
16779
  8
0
 10
259.7290430032857103
 20
155.7657058719310896
 30
0.0
  0
VERTEX
  5
1677A
  8
0
 10
259.6444962969512744
 20
155.7818381693581955
 30
0.0
  0
VERTEX
  5
1677B
  8
0
 10
259.558173012028476
 20
155.7986449490875032
 30
0.0
  0
VERTEX
  5
1677C
  8
0
 10
259.4699450338526958
 20
155.8161922722142094
 30
0.0
  0
VERTEX
  5
1677D
  8
0
 10
259.3796842477594851
 20
155.8345461998329995
 30
0.0
  0
VERTEX
  5
1677E
  8
0
 10
259.2872626380047905
 20
155.8537727509711885
 30
0.0
  0
VERTEX
  5
1677F
  8
0
 10
259.1927377049440793
 20
155.8738590501457111
 30
0.0
  0
VERTEX
  5
16780
  8
0
 10
259.0967376363543053
 20
155.8945495253935007
 30
0.0
  0
VERTEX
  5
16781
  8
0
 10
259.0000000000001137
 20
155.9155420886779098
 30
0.0
  0
SEQEND
  5
16782
  8
0
  0
POLYLINE
  5
14EB1
  8
0
 66
     1
 10
0.0
 20
0.0
 30
0.0
  0
VERTEX
  5
16783
  8
0
 10
216.1554944214209115
 20
160.9999999999984084
 30
0.0
  0
VERTEX
  5
16784
  8
0
 10
216.8268907762052891
 20
160.9296365823784072
 30
0.0
  0
VERTEX
  5
16785
  8
0
 10
217.4982305324319896
 20
160.8568155365049961
 30
0.0
  0
VERTEX
  5
16786
  8
0
 10
218.1694610200175077
 20
160.7815871775829066
 30
0.0
  0
VERTEX
  5
16787
  8
0
 10
218.840529568877912
 20
160.7040018208168988
 30
0.0
  0
VERTEX
  5
16788
  8
0
 10
219.5113835089298107
 20
160.624109781411704
 30
0.0
  0
VERTEX
  5
16789
  8
0
 10
220.1819701700896132
 20
160.5419613745721961
 30
0.0
  0
VERTEX
  5
1678A
  8
0
 10
220.8522368822737008
 20
160.4576069155031064
 30
0.0
  0
VERTEX
  5
1678B
  8
0
 10
221.5221309753983121
 20
160.3710967194093087
 30
0.0
  0
VERTEX
  5
1678C
  8
0
 10
222.1916040910030006
 20
160.2824807731618932
 30
0.0
  0
VERTEX
  5
1678D
  8
0
 10
222.8607138827497067
 20
160.1918000357626966
 30
0.0
  0
VERTEX
  5
1678E
  8
0
 10
223.5295003139385983
 20
160.0990944450495022
 30
0.0
  0
VERTEX
  5
1678F
  8
0
 10
224.1979701117560921
 20
160.0044061260313129
 30
0.0
  0
VERTEX
  5
16790
  8
0
 10
224.8661300033892019
 20
159.9077772037173872
 30
0.0
  0
VERTEX
  5
16791
  8
0
 10
225.5339867160247138
 20
159.8092498031168134
 30
0.0
  0
VERTEX
  5
16792
  8
0
 10
226.2015469768493006
 20
159.708866049238793
 30
0.0
  0
VERTEX
  5
16793
  8
0
 10
226.8688175130498905
 20
159.6066680670924995
 30
0.0
  0
VERTEX
  5
16794
  8
0
 10
227.5358050518130995
 20
159.5026979816871062
 30
0.0
  0
VERTEX
  5
16795
  8
0
 10
228.2025165827689079
 20
159.3969995614251047
 30
0.0
  0
VERTEX
  5
16796
  8
0
 10
228.8689598983714859
 20
159.2896216019192082
 30
0.0
  0
VERTEX
  5
16797
  8
0
 10
229.5351406864743069
 20
159.180599719972605
 30
0.0
  0
VERTEX
  5
16798
  8
0
 10
230.2010643158889138
 20
159.0699675345778132
 30
0.0
  0
VERTEX
  5
16799
  8
0
 10
230.8667361554275033
 20
158.9577586647268106
 30
0.0
  0
VERTEX
  5
1679A
  8
0
 10
231.5321615739013055
 20
158.8440067294123139
 30
0.0
  0
VERTEX
  5
1679B
  8
0
 10
232.1973459401222044
 20
158.7287453476266137
 30
0.0
  0
VERTEX
  5
1679C
  8
0
 10
232.8622946229016861
 20
158.6120081383621141
 30
0.0
  0
VERTEX
  5
1679D
  8
0
 10
233.5270129910518051
 20
158.4938287206111056
 30
0.0
  0
VERTEX
  5
1679E
  8
0
 10
234.1915064133839905
 20
158.3742407133659924
 30
0.0
  0
VERTEX
  5
1679F
  8
0
 10
234.855780258709899
 20
158.2532777356192071
 30
0.0
  0
VERTEX
  5
167A0
  8
0
 10
235.5198398958413009
 20
158.130973406363097
 30
0.0
  0
VERTEX
  5
167A1
  8
0
 10
236.1836906935899947
 20
158.0073613445900094
 30
0.0
  0
VERTEX
  5
167A2
  8
0
 10
236.8473380207676939
 20
157.8824751692924906
 30
0.0
  0
VERTEX
  5
167A3
  8
0
 10
237.5107872461857141
 20
157.756348499462689
 30
0.0
  0
VERTEX
  5
167A4
  8
0
 10
238.1740437386559961
 20
157.6290149540932077
 30
0.0
  0
VERTEX
  5
167A5
  8
0
 10
238.8371128669901964
 20
157.5005081521763088
 30
0.0
  0
VERTEX
  5
167A6
  8
0
 10
239.5
 20
157.3708617127043112
 30
0.0
  0
SEQEND
  5
167A7
  8
0
  0
POLYLINE
  5
14EB2
  8
0
 66
     1
 10
0.0
 20
0.0
 30
0.0
  0
VERTEX
  5
167A8
  8
0
 10
141.0000000000001137
 20
155.9143621856937045
 30
0.0
  0
VERTEX
  5
167A9
  8
0
 10
140.8931877564050978
 20
155.8920847543001003
 30
0.0
  0
VERTEX
  5
167AA
  8
0
 10
140.7867595847071982
 20
155.8699520325891115
 30
0.0
  0
VERTEX
  5
167AB
  8
0
 10
140.6810995568031899
 20
155.8481087302432115
 30
0.0
  0
VERTEX
  5
167AC
  8
0
 10
140.5765917445901891
 20
155.8266995569454139
 30
0.0
  0
VERTEX
  5
167AD
  8
0
 10
140.4736202199651132
 20
155.8058692223779076
 30
0.0
  0
VERTEX
  5
167AE
  8
0
 10
140.3725690548249077
 20
155.7857624362233935
 30
0.0
  0
VERTEX
  5
167AF
  8
0
 10
140.2738107514205126
 20
155.7665190819988936
 30
0.0
  0
VERTEX
  5
167B0
  8
0
 10
140.1775021488139998
 20
155.7481890814102883
 30
0.0
  0
VERTEX
  5
167B1
  8
0
 10
140.0836092015537986
 20
155.7307427305377132
 30
0.0
  0
VERTEX
  5
167B2
  8
0
 10
139.9920912734299918
 20
155.7141475761901859
 30
0.0
  0
VERTEX
  5
167B3
  8
0
 10
139.9029077282330888
 20
155.69837116517661
 30
0.0
  0
VERTEX
  5
167B4
  8
0
 10
139.8160179297532011
 20
155.6833810443062021
 30
0.0
  0
VERTEX
  5
167B5
  8
0
 10
139.7313812417806105
 20
155.6691447603878089
 30
0.0
  0
VERTEX
  5
167B6
  8
0
 10
139.6489732031838003
 20
155.6556361298715956
 30
0.0
  0
VERTEX
  5
167B7
  8
0
 10
139.568867576857599
 20
155.6428670419377056
 30
0.0
  0
VERTEX
  5
167B8
  8
0
 10
139.4911750025626134
 20
155.6308636796516964
 30
0.0
  0
VERTEX
  5
167B9
  8
0
 10
139.4160061858570998
 20
155.6196522515830054
 30
0.0
  0
VERTEX
  5
167BA
  8
0
 10
139.3434718322994001
 20
155.6092589663010131
 30
0.0
  0
VERTEX
  5
167BB
  8
0
 10
139.2736826474477994
 20
155.5997100323750999
 30
0.0
  0
VERTEX
  5
167BC
  8
0
 10
139.2067491991876125
 20
155.5910316171249974
 30
0.0
  0
VERTEX
  5
167BD
  8
0
 10
139.142743135531191
 20
155.5832382266725915
 30
0.0
  0
VERTEX
  5
167BE
  8
0
 10
139.0816439182590898
 20
155.5763167462395984
 30
0.0
  0
VERTEX
  5
167BF
  8
0
 10
139.0234176619642881
 20
155.5702500619545958
 30
0.0
  0
VERTEX
  5
167C0
  8
0
 10
138.9680304812397083
 20
155.5650210599465026
 30
0.0
  0
VERTEX
  5
167C1
  8
0
 10
138.9154484906779032
 20
155.5606126263438966
 30
0.0
  0
VERTEX
  5
167C2
  8
0
 10
138.8656378048719091
 20
155.5570076472752987
 30
0.0
  0
VERTEX
  5
167C3
  8
0
 10
138.8185800659144888
 20
155.5541931052613052
 30
0.0
  0
VERTEX
  5
167C4
  8
0
 10
138.7744150008194026
 20
155.5521976880374098
 30
0.0
  0
VERTEX
  5
167C5
  8
0
 10
138.733374599966595
 20
155.5510744238237919
 30
0.0
  0
VERTEX
  5
167C6
  8
0
 10
138.6956920081053113
 20
155.5508766453812086
 30
0.0
  0
VERTEX
  5
167C7
  8
0
 10
138.6616003699849102
 20
155.5516576854701043
 30
0.0
  0
VERTEX
  5
167C8
  8
0
 10
138.6313328303548076
 20
155.5534708768512075
 30
0.0
  0
VERTEX
  5
167C9
  8
0
 10
138.6051210294681937
 20
155.5563691696613091
 30
0.0
  0
VERTEX
  5
167CA
  8
0
 10
138.5829709915190051
 20
155.5603481353450945
 30
0.0
  0
VERTEX
  5
167CB
  8
0
 10
138.5644249172759999
 20
155.5652853857403102
 30
0.0
  0
VERTEX
  5
167CC
  8
0
 10
138.5489679547812898
 20
155.5710440230309075
 30
0.0
  0
VERTEX
  5
167CD
  8
0
 10
138.5360852520769015
 20
155.5774871494010085
 30
0.0
  0
VERTEX
  5
167CE
  8
0
 10
138.5252619572044921
 20
155.5844778670347921
 30
0.0
  0
VERTEX
  5
167CF
  8
0
 10
138.5159832182062019
 20
155.5918792781164086
 30
0.0
  0
VERTEX
  5
167D0
  8
0
 10
138.5077341831240005
 20
155.5995544848296106
 30
0.0
  0
VERTEX
  5
167D1
  8
0
 10
138.5000000000001137
 20
155.6073665893588895
 30
0.0
  0
SEQEND
  5
167D2
  8
0
  0
POLYLINE
  5
14EB3
  8
0
 66
     1
 10
0.0
 20
0.0
 30
0.0
  0
VERTEX
  5
167D3
  8
0
 10
154.0000000000001137
 20
159.0972631848879928
 30
0.0
  0
VERTEX
  5
167D4
  8
0
 10
154.0828046110565026
 20
159.1085139692611961
 30
0.0
  0
VERTEX
  5
167D5
  8
0
 10
154.1645634270138885
 20
159.1193235491097937
 30
0.0
  0
VERTEX
  5
167D6
  8
0
 10
154.2442306527732114
 20
159.1292507199092086
 30
0.0
  0
VERTEX
  5
167D7
  8
0
 10
154.3208957483693951
 20
159.1379132281045941
 30
0.0
  0
VERTEX
  5
167D8
  8
0
 10
154.3944491199962954
 20
159.145277912642598
 30
0.0
  0
VERTEX
  5
167D9
  8
0
 10
154.4650749041435915
 20
159.1514396348617026
 30
0.0
  0
VERTEX
  5
167DA
  8
0
 10
154.5329576829180951
 20
159.1564934503232109
 30
0.0
  0
VERTEX
  5
167DB
  8
0
 10
154.598282038426504
 20
159.1605344145881986
 30
0.0
  0
VERTEX
  5
167DC
  8
0
 10
154.6612325527763119
 20
159.1636575832179972
 30
0.0
  0
VERTEX
  5
167DD
  8
0
 10
154.721993808074302
 20
159.1659580117737107
 30
0.0
  0
VERTEX
  5
167DE
  8
0
 10
154.7807469045210951
 20
159.1675291158971959
 30
0.0
  0
VERTEX
  5
167DF
  8
0
 10
154.837569441405094
 20
159.168415564036394
 30
0.0
  0
VERTEX
  5
167E0
  8
0
 10
154.8924205470719073
 20
159.1686062268130968
 30
0.0
  0
VERTEX
  5
167E1
  8
0
 10
154.9452528568176035
 20
159.1680869167313119
 30
0.0
  0
VERTEX
  5
167E2
  8
0
 10
154.996019005938706
 20
159.1668434462951041
 30
0.0
  0
VERTEX
  5
167E3
  8
0
 10
155.0446716297308001
 20
159.1648616280083104
 30
0.0
  0
VERTEX
  5
167E4
  8
0
 10
155.0911633634902103
 20
159.1621272743751945
 30
0.0
  0
VERTEX
  5
167E5
  8
0
 10
155.1354464381336129
 20
159.1586261465702137
 30
0.0
  0
VERTEX
  5
167E6
  8
0
 10
155.1774388267598965
 20
159.1543396572706115
 30
0.0
  0
VERTEX
  5
167E7
  8
0
 10
155.2169986834103099
 20
159.1492416260558116
 30
0.0
  0
VERTEX
  5
167E8
  8
0
 10
155.2539781420962015
 20
159.1433051083556904
 30
0.0
  0
VERTEX
  5
167E9
  8
0
 10
155.2882293368290902
 20
159.1365031596004087
 30
0.0
  0
VERTEX
  5
167EA
  8
0
 10
155.3196044016208077
 20
159.1288088352198997
 30
0.0
  0
VERTEX
  5
167EB
  8
0
 10
155.3479554704825887
 20
159.1201951906442105
 30
0.0
  0
VERTEX
  5
167EC
  8
0
 10
155.3731348484799071
 20
159.1106353256018906
 30
0.0
  0
VERTEX
  5
167ED
  8
0
 10
155.3951078930886069
 20
159.1001316173939131
 30
0.0
  0
VERTEX
  5
167EE
  8
0
 10
155.4141483494476859
 20
159.088766307538009
 30
0.0
  0
VERTEX
  5
167EF
  8
0
 10
155.4305820606963096
 20
159.0766351295509082
 30
0.0
  0
VERTEX
  5
167F0
  8
0
 10
155.4447348699731037
 20
159.0638338169486872
 30
0.0
  0
VERTEX
  5
167F1
  8
0
 10
155.4569326204166941
 20
159.0504581032479905
 30
0.0
  0
VERTEX
  5
167F2
  8
0
 10
155.4675011551663033
 20
159.0366037219650934
 30
0.0
  0
VERTEX
  5
167F3
  8
0
 10
155.4767663173608128
 20
159.0223664066164133
 30
0.0
  0
VERTEX
  5
167F4
  8
0
 10
155.4850539501385924
 20
159.0078418907187086
 30
0.0
  0
VERTEX
  5
167F5
  8
0
 10
155.492689896638808
 20
158.9931259077879133
 30
0.0
  0
VERTEX
  5
167F6
  8
0
 10
155.500000000000199
 20
158.978314191340786
 30
0.0
  0
SEQEND
  5
167F7
  8
0
  0
POLYLINE
  5
14EB4
  8
0
 66
     1
 10
0.0
 20
0.0
 30
0.0
  0
VERTEX
  5
167F8
  8
0
 10
155.5000000000001137
 20
158.9783141913408997
 30
0.0
  0
VERTEX
  5
167F9
  8
0
 10
155.5000000000001137
 20
158.8410831656244113
 30
0.0
  0
VERTEX
  5
167FA
  8
0
 10
155.5000000000001137
 20
158.7006899204016861
 30
0.0
  0
VERTEX
  5
167FB
  8
0
 10
155.5000000000001137
 20
158.5572190641335908
 30
0.0
  0
VERTEX
  5
167FC
  8
0
 10
155.5000000000001137
 20
158.4107552052815038
 30
0.0
  0
VERTEX
  5
167FD
  8
0
 10
155.5000000000001137
 20
158.2613829523062066
 30
0.0
  0
VERTEX
  5
167FE
  8
0
 10
155.5000000000001137
 20
158.1091869136687933
 30
0.0
  0
VERTEX
  5
167FF
  8
0
 10
155.5000000000001137
 20
157.9542516978303865
 30
0.0
  0
VERTEX
  5
16800
  8
0
 10
155.5000000000001137
 20
157.7966619132521942
 30
0.0
  0
VERTEX
  5
16801
  8
0
 10
155.5000000000001137
 20
157.6365021683951113
 30
0.0
  0
VERTEX
  5
16802
  8
0
 10
155.5000000000001137
 20
157.473857071720289
 30
0.0
  0
VERTEX
  5
16803
  8
0
 10
155.5000000000001137
 20
157.3088112316889067
 30
0.0
  0
SEQEND
  5
16804
  8
0
  0
POLYLINE
  5
14EB5
  8
0
 66
     1
 10
0.0
 20
0.0
 30
0.0
  0
VERTEX
  5
16805
  8
0
 10
160.5000000000001137
 20
157.3708617127043112
 30
0.0
  0
VERTEX
  5
16806
  8
0
 10
160.4269567673659935
 20
157.3566159975221979
 30
0.0
  0
VERTEX
  5
16807
  8
0
 10
160.3540520130563891
 20
157.3426038477225006
 30
0.0
  0
VERTEX
  5
16808
  8
0
 10
160.281285616253399
 20
157.3288244275651948
 30
0.0
  0
VERTEX
  5
16809
  8
0
 10
160.2086574561394912
 20
157.3152769013103125
 30
0.0
  0
VERTEX
  5
1680A
  8
0
 10
160.1361674118967926
 20
157.3019604332176868
 30
0.0
  0
VERTEX
  5
1680B
  8
0
 10
160.0638153627074871
 20
157.2888741875472931
 30
0.0
  0
VERTEX
  5
1680C
  8
0
 10
159.9916011877539859
 20
157.2760173285593055
 30
0.0
  0
VERTEX
  5
1680D
  8
0
 10
159.9195247662185011
 20
157.2633890205133866
 30
0.0
  0
VERTEX
  5
1680E
  8
0
 10
159.8475859772833019
 20
157.2509884276695971
 30
0.0
  0
VERTEX
  5
1680F
  8
0
 10
159.7757847001304867
 20
157.2388147142879973
 30
0.0
  0
VERTEX
  5
16810
  8
0
 10
159.7041208139426089
 20
157.2268670446283068
 30
0.0
  0
VERTEX
  5
16811
  8
0
 10
159.6325941979015965
 20
157.2151445829506997
 30
0.0
  0
VERTEX
  5
16812
  8
0
 10
159.5612047311900028
 20
157.2036464935150093
 30
0.0
  0
VERTEX
  5
16813
  8
0
 10
159.4899525118541987
 20
157.1923723228671008
 30
0.0
  0
VERTEX
  5
16814
  8
0
 10
159.4188386305258973
 20
157.1813233333654978
 30
0.0
  0
VERTEX
  5
16815
  8
0
 10
159.3478639072783096
 20
157.1705002929523971
 30
0.0
  0
VERTEX
  5
16816
  8
0
 10
159.2770291040841073
 20
157.1599038671328117
 30
0.0
  0
VERTEX
  5
16817
  8
0
 10
159.2063349829159904
 20
157.1495347214114133
 30
0.0
  0
VERTEX
  5
16818
  8
0
 10
159.1357823057464884
 20
157.1393935212931012
 30
0.0
  0
VERTEX
  5
16819
  8
0
 10
159.0653718345481025
 20
157.129480932282604
 30
0.0
  0
VERTEX
  5
1681A
  8
0
 10
158.995097257281202
 20
157.1197979184755127
 30
0.0
  0
VERTEX
  5
1681B
  8
0
 10
158.924997830479299
 20
157.110351050277103
 30
0.0
  0
VERTEX
  5
1681C
  8
0
 10
158.8551501344676922
 20
157.1011498201443999
 30
0.0
  0
VERTEX
  5
1681D
  8
0
 10
158.7856308304247932
 20
157.0922037249563914
 30
0.0
  0
VERTEX
  5
1681E
  8
0
 10
158.7165165795294115
 20
157.0835222615926909
 30
0.0
  0
VERTEX
  5
1681F
  8
0
 10
158.6478840429599018
 20
157.0751149269322866
 30
0.0
  0
VERTEX
  5
16820
  8
0
 10
158.57980585962801
 20
157.0669905764484042
 30
0.0
  0
VERTEX
  5
16821
  8
0
 10
158.512250301812486
 20
157.0591420774339042
 30
0.0
  0
VERTEX
  5
16822
  8
0
 10
158.4451885817001084
 20
157.0515643892144908
 30
0.0
  0
VERTEX
  5
16823
  8
0
 10
158.3786209482358061
 20
157.0442573370592072
 30
0.0
  0
VERTEX
  5
16824
  8
0
 10
158.3125476503645928
 20
157.0372207462364997
 30
0.0
  0
VERTEX
  5
16825
  8
0
 10
158.2469689370317951
 20
157.0304544420152126
 30
0.0
  0
VERTEX
  5
16826
  8
0
 10
158.1818850571821997
 20
157.0239582496641901
 30
0.0
  0
VERTEX
  5
16827
  8
0
 10
158.117296259760991
 20
157.0177319944521059
 30
0.0
  0
VERTEX
  5
16828
  8
0
 10
158.0532027937132113
 20
157.0117755016476053
 30
0.0
  0
VERTEX
  5
16829
  8
0
 10
157.9896049079839884
 20
157.0060885965197031
 30
0.0
  0
VERTEX
  5
1682A
  8
0
 10
157.9265028515183928
 20
157.0006711043369023
 30
0.0
  0
VERTEX
  5
1682B
  8
0
 10
157.8638968732614103
 20
156.9955228503679052
 30
0.0
  0
VERTEX
  5
1682C
  8
0
 10
157.8017872221581115
 20
156.9906436598816981
 30
0.0
  0
VERTEX
  5
1682D
  8
0
 10
157.7401741471537093
 20
156.9860333581468126
 30
0.0
  0
VERTEX
  5
1682E
  8
0
 10
157.6790534861638093
 20
156.9816943649923928
 30
0.0
  0
VERTEX
  5
1682F
  8
0
 10
157.6184371597389031
 20
156.9776314832371895
 30
0.0
  0
VERTEX
  5
16830
  8
0
 10
157.5583571468580999
 20
156.9738460336193953
 30
0.0
  0
VERTEX
  5
16831
  8
0
 10
157.4988455996025891
 20
156.970339287693406
 30
0.0
  0
VERTEX
  5
16832
  8
0
 10
157.4399346700541003
 20
156.9671125170143
 30
0.0
  0
VERTEX
  5
16833
  8
0
 10
157.3816565102935101
 20
156.9641669931361889
 30
0.0
  0
VERTEX
  5
16834
  8
0
 10
157.3240432724020081
 20
156.9615039876136109
 30
0.0
  0
VERTEX
  5
16835
  8
0
 10
157.2671271084612954
 20
156.9591247720015019
 30
0.0
  0
VERTEX
  5
16836
  8
0
 10
157.2109401705523055
 20
156.9570306178540022
 30
0.0
  0
VERTEX
  5
16837
  8
0
 10
157.1555146107565122
 20
156.955222796725991
 30
0.0
  0
VERTEX
  5
16838
  8
0
 10
157.1008825811551901
 20
156.9537025801718926
 30
0.0
  0
VERTEX
  5
16839
  8
0
 10
157.0470762338295003
 20
156.9524712397461883
 30
0.0
  0
VERTEX
  5
1683A
  8
0
 10
156.9941277208608881
 20
156.9515300470035868
 30
0.0
  0
VERTEX
  5
1683B
  8
0
 10
156.9420544296405922
 20
156.9508789214094975
 30
0.0
  0
VERTEX
  5
1683C
  8
0
 10
156.8907885484111091
 20
156.950510810924186
 30
0.0
  0
VERTEX
  5
1683D
  8
0
 10
156.8403183933320122
 20
156.950425095637712
 30
0.0
  0
VERTEX
  5
1683E
  8
0
 10
156.7906457812862016
 20
156.9506224842781137
 30
0.0
  0
VERTEX
  5
1683F
  8
0
 10
156.741772529156691
 20
156.9511036855735995
 30
0.0
  0
VERTEX
  5
16840
  8
0
 10
156.6937004538262102
 20
156.9518694082520938
 30
0.0
  0
VERTEX
  5
16841
  8
0
 10
156.6464313721776023
 20
156.9529203610418051
 30
0.0
  0
VERTEX
  5
16842
  8
0
 10
156.5999671010941938
 20
156.9542572526708
 30
0.0
  0
VERTEX
  5
16843
  8
0
 10
156.5543094574582881
 20
156.9558807918672017
 30
0.0
  0
VERTEX
  5
16844
  8
0
 10
156.5094602581532115
 20
156.9577916873589913
 30
0.0
  0
VERTEX
  5
16845
  8
0
 10
156.4654213200616937
 20
156.9599906478742923
 30
0.0
  0
VERTEX
  5
16846
  8
0
 10
156.4221944600666916
 20
156.9624783821413132
 30
0.0
  0
VERTEX
  5
16847
  8
0
 10
156.3797814950511054
 20
156.9652555988880067
 30
0.0
  0
VERTEX
  5
16848
  8
0
 10
156.3381855181567062
 20
156.9683229337794046
 30
0.0
  0
VERTEX
  5
16849
  8
0
 10
156.2975079704420125
 20
156.9716749416384118
 30
0.0
  0
VERTEX
  5
1684A
  8
0
 10
156.2578135196974074
 20
156.9753068693684099
 30
0.0
  0
VERTEX
  5
1684B
  8
0
 10
156.2191043429839965
 20
156.979217268723005
 30
0.0
  0
VERTEX
  5
1684C
  8
0
 10
156.1813826173620043
 20
156.9834046914565988
 30
0.0
  0
VERTEX
  5
1684D
  8
0
 10
156.1446505198925934
 20
156.9878676893227123
 30
0.0
  0
VERTEX
  5
1684E
  8
0
 10
156.1089102276361871
 20
156.9926048140754062
 30
0.0
  0
VERTEX
  5
1684F
  8
0
 10
156.0741639176538058
 20
156.997614617468713
 30
0.0
  0
VERTEX
  5
16850
  8
0
 10
156.0404137670059868
 20
157.0028956512566083
 30
0.0
  0
VERTEX
  5
16851
  8
0
 10
156.0076619527534092
 20
157.0084464671930107
 30
0.0
  0
VERTEX
  5
16852
  8
0
 10
155.9759106519570935
 20
157.0142656170318105
 30
0.0
  0
VERTEX
  5
16853
  8
0
 10
155.9451620416776905
 20
157.020351652527097
 30
0.0
  0
VERTEX
  5
16854
  8
0
 10
155.9154182989757089
 20
157.026703125432789
 30
0.0
  0
VERTEX
  5
16855
  8
0
 10
155.8866816009119987
 20
157.033318587502805
 30
0.0
  0
VERTEX
  5
16856
  8
0
 10
155.858942087899095
 20
157.0402015932185122
 30
0.0
  0
VERTEX
  5
16857
  8
0
 10
155.8321759859319116
 20
157.0473622247816081
 30
0.0
  0
VERTEX
  5
16858
  8
0
 10
155.8063908658089929
 20
157.0547982356847001
 30
0.0
  0
VERTEX
  5
16859
  8
0
 10
155.781595706588206
 20
157.0625068093067966
 30
0.0
  0
VERTEX
  5
1685A
  8
0
 10
155.7577994873275031
 20
157.070485129027503
 30
0.0
  0
VERTEX
  5
1685B
  8
0
 10
155.7350111870846092
 20
157.0787303782265099
 30
0.0
  0
VERTEX
  5
1685C
  8
0
 10
155.7132397849177892
 20
157.0872397402831098
 30
0.0
  0
VERTEX
  5
1685D
  8
0
 10
155.6924942598847963
 20
157.0960103985769081
 30
0.0
  0
VERTEX
  5
1685E
  8
0
 10
155.6727835910434123
 20
157.1050395364875101
 30
0.0
  0
VERTEX
  5
1685F
  8
0
 10
155.6541167574517885
 20
157.1143243373942084
 30
0.0
  0
VERTEX
  5
16860
  8
0
 10
155.6365027381677066
 20
157.1238619846768074
 30
0.0
  0
VERTEX
  5
16861
  8
0
 10
155.6199505122488915
 20
157.1336496617145997
 30
0.0
  0
VERTEX
  5
16862
  8
0
 10
155.6044690587534092
 20
157.1436845518871905
 30
0.0
  0
VERTEX
  5
16863
  8
0
 10
155.5900661153000044
 20
157.1539630567937138
 30
0.0
  0
VERTEX
  5
16864
  8
0
 10
155.5767347609238129
 20
157.164475212924998
 30
0.0
  0
VERTEX
  5
16865
  8
0
 10
155.5644718215986018
 20
157.1752190535007969
 30
0.0
  0
VERTEX
  5
16866
  8
0
 10
155.5532769655675054
 20
157.1861949937608074
 30
0.0
  0
VERTEX
  5
16867
  8
0
 10
155.543149861074113
 20
157.1974034489446979
 30
0.0
  0
VERTEX
  5
16868
  8
0
 10
155.5340901763617012
 20
157.2088448342917104
 30
0.0
  0
VERTEX
  5
16869
  8
0
 10
155.5260975796738876
 20
157.2205195650415135
 30
0.0
  0
VERTEX
  5
1686A
  8
0
 10
155.5191717392544035
 20
157.2324280564336902
 30
0.0
  0
VERTEX
  5
1686B
  8
0
 10
155.5133123233462129
 20
157.2445707237077102
 30
0.0
  0
VERTEX
  5
1686C
  8
0
 10
155.5085190001931892
 20
157.2569479821029859
 30
0.0
  0
VERTEX
  5
1686D
  8
0
 10
155.5047914380386089
 20
157.2695602468592995
 30
0.0
  0
VERTEX
  5
1686E
  8
0
 10
155.5021293051258908
 20
157.2824079332160068
 30
0.0
  0
VERTEX
  5
1686F
  8
0
 10
155.5005322696985957
 20
157.2954914564126057
 30
0.0
  0
VERTEX
  5
16870
  8
0
 10
155.500000000000199
 20
157.3088112316889067
 30
0.0
  0
SEQEND
  5
16871
  8
0
  0
POLYLINE
  5
14EB6
  8
0
 66
     1
 10
0.0
 20
0.0
 30
0.0
  0
VERTEX
  5
16872
  8
0
 10
160.5000000000001137
 20
157.3708617127043112
 30
0.0
  0
VERTEX
  5
16873
  8
0
 10
161.1628871330105142
 20
157.5005081521763941
 30
0.0
  0
VERTEX
  5
16874
  8
0
 10
161.8259562613451124
 20
157.6290149540934067
 30
0.0
  0
VERTEX
  5
16875
  8
0
 10
162.4892127538159912
 20
157.7563484994630016
 30
0.0
  0
VERTEX
  5
16876
  8
0
 10
163.1526619792344945
 20
157.8824751692928885
 30
0.0
  0
VERTEX
  5
16877
  8
0
 10
163.8163093064123927
 20
158.0073613445906062
 30
0.0
  0
VERTEX
  5
16878
  8
0
 10
164.4801601041615982
 20
158.1309734063636085
 30
0.0
  0
VERTEX
  5
16879
  8
0
 10
165.1442197412935116
 20
158.2532777356198892
 30
0.0
  0
VERTEX
  5
1687A
  8
0
 10
165.8084935866201022
 20
158.3742407133667882
 30
0.0
  0
VERTEX
  5
1687B
  8
0
 10
166.4729870089527139
 20
158.4938287206119014
 30
0.0
  0
VERTEX
  5
1687C
  8
0
 10
167.1377053771032877
 20
158.6120081383629952
 30
0.0
  0
VERTEX
  5
1687D
  8
0
 10
167.8026540598833094
 20
158.7287453476276085
 30
0.0
  0
VERTEX
  5
1687E
  8
0
 10
168.4678384261046915
 20
158.8440067294133939
 30
0.0
  0
VERTEX
  5
1687F
  8
0
 10
169.1332638445790053
 20
158.9577586647280043
 30
0.0
  0
VERTEX
  5
16880
  8
0
 10
169.7989356841181063
 20
159.0699675345788933
 30
0.0
  0
VERTEX
  5
16881
  8
0
 10
170.4648593135333101
 20
159.1805997199739124
 30
0.0
  0
VERTEX
  5
16882
  8
0
 10
171.1310401016365859
 20
159.2896216019206008
 30
0.0
  0
VERTEX
  5
16883
  8
0
 10
171.7974834172395049
 20
159.3969995614264974
 30
0.0
  0
VERTEX
  5
16884
  8
0
 10
172.4641949481959102
 20
159.5026979816884989
 30
0.0
  0
VERTEX
  5
16885
  8
0
 10
173.1311824869596023
 20
159.6066680670940059
 30
0.0
  0
VERTEX
  5
16886
  8
0
 10
173.7984530231607039
 20
159.7088660492402994
 30
0.0
  0
VERTEX
  5
16887
  8
0
 10
174.4660132839858022
 20
159.809249803118405
 30
0.0
  0
VERTEX
  5
16888
  8
0
 10
175.1338699966217973
 20
159.9077772037190073
 30
0.0
  0
VERTEX
  5
16889
  8
0
 10
175.8020298882553902
 20
160.0044061260329897
 30
0.0
  0
VERTEX
  5
1688A
  8
0
 10
176.4704996860735946
 20
160.0990944450512075
 30
0.0
  0
VERTEX
  5
1688B
  8
0
 10
177.1392861172627988
 20
160.1918000357644019
 30
0.0
  0
VERTEX
  5
1688C
  8
0
 10
177.8083959090101871
 20
160.2824807731635985
 30
0.0
  0
VERTEX
  5
1688D
  8
0
 10
178.4778690246153872
 20
160.3710967194110992
 30
0.0
  0
VERTEX
  5
1688E
  8
0
 10
179.1477631177405954
 20
160.457606915504897
 30
0.0
  0
VERTEX
  5
1688F
  8
0
 10
179.8180298299251092
 20
160.5419613745739866
 30
0.0
  0
VERTEX
  5
16890
  8
0
 10
180.4886164910853097
 20
160.6241097814134093
 30
0.0
  0
VERTEX
  5
16891
  8
0
 10
181.1594704311378052
 20
160.7040018208186893
 30
0.0
  0
VERTEX
  5
16892
  8
0
 10
181.8305389799988063
 20
160.7815871775846119
 30
0.0
  0
VERTEX
  5
16893
  8
0
 10
182.501769467584694
 20
160.8568155365069003
 30
0.0
  0
VERTEX
  5
16894
  8
0
 10
183.1731092238119061
 20
160.9296365823803114
 30
0.0
  0
VERTEX
  5
16895
  8
0
 10
183.8445055785967952
 20
161.000000000000199
 30
0.0
  0
SEQEND
  5
16896
  8
0
  0
POLYLINE
  5
14EB7
  8
0
 66
     1
 10
0.0
 20
0.0
 30
0.0
  0
VERTEX
  5
16897
  8
0
 10
244.5
 20
157.3088111994200915
 30
0.0
  0
VERTEX
  5
16898
  8
0
 10
244.4994681840923931
 20
157.2954972365349988
 30
0.0
  0
VERTEX
  5
16899
  8
0
 10
244.4978738054317091
 20
157.2824271898184065
 30
0.0
  0
VERTEX
  5
1689A
  8
0
 10
244.4952184676114086
 20
157.2696002125676102
 30
0.0
  0
VERTEX
  5
1689B
  8
0
 10
244.4915037742242987
 20
157.2570154580797066
 30
0.0
  0
VERTEX
  5
1689C
  8
0
 10
244.4867313288636979
 20
157.244672079651707
 30
0.0
  0
VERTEX
  5
1689D
  8
0
 10
244.48090273512301
 20
157.2325692305809071
 30
0.0
  0
VERTEX
  5
1689E
  8
0
 10
244.4740195965952125
 20
157.2207060641644887
 30
0.0
  0
VERTEX
  5
1689F
  8
0
 10
244.4660835168737094
 20
157.2090817336996054
 30
0.0
  0
VERTEX
  5
168A0
  8
0
 10
244.4570960995517055
 20
157.1976953924832117
 30
0.0
  0
VERTEX
  5
168A1
  8
0
 10
244.4470589482220078
 20
157.1865461938126884
 30
0.0
  0
VERTEX
  5
168A2
  8
0
 10
244.4359736664783043
 20
157.1756332909851892
 30
0.0
  0
VERTEX
  5
168A3
  8
0
 10
244.423841857913402
 20
157.1649558372976969
 30
0.0
  0
VERTEX
  5
168A4
  8
0
 10
244.410665126120989
 20
157.1545129860475924
 30
0.0
  0
VERTEX
  5
168A5
  8
0
 10
244.39644337282121
 20
157.1443042955351928
 30
0.0
  0
VERTEX
  5
168A6
  8
0
 10
244.3811688018282098
 20
157.1343311424276123
 30
0.0
  0
VERTEX
  5
168A7
  8
0
 10
244.3648357456191889
 20
157.1245943803131127
 30
0.0
  0
VERTEX
  5
168A8
  8
0
 10
244.3474389895430932
 20
157.1150947542867016
 30
0.0
  0
VERTEX
  5
168A9
  8
0
 10
244.3289733189488118
 20
157.1058330094436997
 30
0.0
  0
VERTEX
  5
168AA
  8
0
 10
244.3094335191850917
 20
157.0968098908788875
 30
0.0
  0
VERTEX
  5
168AB
  8
0
 10
244.2888143756005945
 20
157.0880261436873866
 30
0.0
  0
VERTEX
  5
168AC
  8
0
 10
244.2671031551525971
 20
157.0794835587340117
 30
0.0
  0
VERTEX
  5
168AD
  8
0
 10
244.2443053609108858
 20
157.071188784939892
 30
0.0
  0
VERTEX
  5
168AE
  8
0
 10
244.2204481290480089
 20
157.0631498789304032
 30
0.0
  0
VERTEX
  5
168AF
  8
0
 10
244.1955586502488131
 20
157.055374897442988
 30
0.0
  0
VERTEX
  5
168B0
  8
0
 10
244.1696641151982021
 20
157.0478718972150887
 30
0.0
  0
VERTEX
  5
168B1
  8
0
 10
244.1427917145813922
 20
157.040648934984489
 30
0.0
  0
VERTEX
  5
168B2
  8
0
 10
244.1149678104700058
 20
157.0337134789214133
 30
0.0
  0
VERTEX
  5
168B3
  8
0
 10
244.0861941814602005
 20
157.0270585052709009
 30
0.0
  0
VERTEX
  5
168B4
  8
0
 10
244.0564655652704005
 20
157.0206793542550088
 30
0.0
  0
VERTEX
  5
168B5
  8
0
 10
244.0257815714012111
 20
157.0145758956747954
 30
0.0
  0
VERTEX
  5
168B6
  8
0
 10
243.9941418093530103
 20
157.0087479993312058
 30
0.0
  0
VERTEX
  5
168B7
  8
0
 10
243.96154588862629
 20
157.0031955350256965
 30
0.0
  0
VERTEX
  5
168B8
  8
0
 10
243.9279934187217123
 20
156.9979183725594112
 30
0.0
  0
VERTEX
  5
168B9
  8
0
 10
243.8934840091397973
 20
156.9929163817330959
 30
0.0
  0
VERTEX
  5
168BA
  8
0
 10
243.8580172693808095
 20
156.9881894323482072
 30
0.0
  0
VERTEX
  5
168BB
  8
0
 10
243.821592808945411
 20
156.9837373942056047
 30
0.0
  0
VERTEX
  5
168BC
  8
0
 10
243.7842102373338946
 20
156.9795601371066027
 30
0.0
  0
VERTEX
  5
168BD
  8
0
 10
243.7458691640470931
 20
156.9756575308522883
 30
0.0
  0
VERTEX
  5
168BE
  8
0
 10
243.7065691985852993
 20
156.9720294452438054
 30
0.0
  0
VERTEX
  5
168BF
  8
0
 10
243.6663099504490901
 20
156.9686757500822125
 30
0.0
  0
VERTEX
  5
168C0
  8
0
 10
243.6250747568838904
 20
156.9655993270388024
 30
0.0
  0
VERTEX
  5
168C1
  8
0
 10
243.5828529931488902
 20
156.9628052152851012
 30
0.0
  0
VERTEX
  5
168C2
  8
0
 10
243.5396706079797866
 20
156.9602939843626928
 30
0.0
  0
VERTEX
  5
168C3
  8
0
 10
243.4955539518375929
 20
156.958066144012605
 30
0.0
  0
VERTEX
  5
168C4
  8
0
 10
243.4505293751826969
 20
156.9561222039764061
 30
0.0
  0
VERTEX
  5
168C5
  8
0
 10
243.4046232284759128
 20
156.9544626739950104
 30
0.0
  0
VERTEX
  5
168C6
  8
0
 10
243.3578618621781118
 20
156.9530880638099006
 30
0.0
  0
VERTEX
  5
168C7
  8
0
 10
243.3102716267497954
 20
156.9519988831619912
 30
0.0
  0
VERTEX
  5
168C8
  8
0
 10
243.2618788726518915
 20
156.9511956417929923
 30
0.0
  0
VERTEX
  5
168C9
  8
0
 10
243.212709950344987
 20
156.9506788494435909
 30
0.0
  0
VERTEX
  5
168CA
  8
0
 10
243.1627912102898961
 20
156.9504490158554972
 30
0.0
  0
VERTEX
  5
168CB
  8
0
 10
243.1121490029474046
 20
156.9505066507699098
 30
0.0
  0
VERTEX
  5
168CC
  8
0
 10
243.0608096787779004
 20
156.9508522639277999
 30
0.0
  0
VERTEX
  5
168CD
  8
0
 10
243.0087910663941955
 20
156.9514853244174901
 30
0.0
  0
VERTEX
  5
168CE
  8
0
 10
242.956057884532612
 20
156.9524001963607986
 30
0.0
  0
VERTEX
  5
168CF
  8
0
 10
242.9026011268535115
 20
156.953596600052208
 30
0.0
  0
VERTEX
  5
168D0
  8
0
 10
242.8484191421283924
 20
156.9550753073615112
 30
0.0
  0
VERTEX
  5
168D1
  8
0
 10
242.7935102791290092
 20
156.9568370901579897
 30
0.0
  0
VERTEX
  5
168D2
  8
0
 10
242.7378728866268887
 20
156.9588827203116068
 30
0.0
  0
VERTEX
  5
168D3
  8
0
 10
242.6815053133936999
 20
156.9612129696917862
 30
0.0
  0
VERTEX
  5
168D4
  8
0
 10
242.624405908201112
 20
156.9638286101680933
 30
0.0
  0
VERTEX
  5
168D5
  8
0
 10
242.566573019820396
 20
156.9667304136102075
 30
0.0
  0
VERTEX
  5
168D6
  8
0
 10
242.5080049970237042
 20
156.9699191518878081
 30
0.0
  0
VERTEX
  5
168D7
  8
0
 10
242.448700188582194
 20
156.9733955968702048
 30
0.0
  0
VERTEX
  5
168D8
  8
0
 10
242.3886569432675913
 20
156.9771605204271907
 30
0.0
  0
VERTEX
  5
168D9
  8
0
 10
242.3278736098515935
 20
156.9812146944285018
 30
0.0
  0
VERTEX
  5
168DA
  8
0
 10
242.2663505348197077
 20
156.9855587582443945
 30
0.0
  0
VERTEX
  5
168DB
  8
0
 10
242.204244033577595
 20
156.9901827057321952
 30
0.0
  0
VERTEX
  5
168DC
  8
0
 10
242.1416592139613044
 20
156.9950789838393916
 30
0.0
  0
VERTEX
  5
168DD
  8
0
 10
242.0786045933859043
 20
157.000246263944689
 30
0.0
  0
VERTEX
  5
168DE
  8
0
 10
242.0150886892668041
 20
157.0056832174263945
 30
0.0
  0
VERTEX
  5
168DF
  8
0
 10
241.9511200190192142
 20
157.0113885156632989
 30
0.0
  0
VERTEX
  5
168E0
  8
0
 10
241.886707100058203
 20
157.0173608300335104
 30
0.0
  0
VERTEX
  5
168E1
  8
0
 10
241.8218584497990093
 20
157.0235988319157912
 30
0.0
  0
VERTEX
  5
168E2
  8
0
 10
241.7565825856569006
 20
157.0301011926883916
 30
0.0
  0
VERTEX
  5
168E3
  8
0
 10
241.6908880250470872
 20
157.0368665837301876
 30
0.0
  0
VERTEX
  5
168E4
  8
0
 10
241.6247832853846944
 20
157.0438936764192874
 30
0.0
  0
VERTEX
  5
168E5
  8
0
 10
241.5582768840851884
 20
157.0511811421345101
 30
0.0
  0
VERTEX
  5
168E6
  8
0
 10
241.4913773385634954
 20
157.058727652254106
 30
0.0
  0
VERTEX
  5
168E7
  8
0
 10
241.4240931662349112
 20
157.06653187815661
 30
0.0
  0
VERTEX
  5
168E8
  8
0
 10
241.3563959137358097
 20
157.0745980006344098
 30
0.0
  0
VERTEX
  5
168E9
  8
0
 10
241.288214063689594
 20
157.082937058939109
 30
0.0
  0
VERTEX
  5
168EA
  8
0
 10
241.2195720691418899
 20
157.0915462047618121
 30
0.0
  0
VERTEX
  5
168EB
  8
0
 10
241.1504987019868906
 20
157.1004219551957988
 30
0.0
  0
VERTEX
  5
168EC
  8
0
 10
241.0810227341187044
 20
157.1095608273344908
 30
0.0
  0
VERTEX
  5
168ED
  8
0
 10
241.0111729374316951
 20
157.1189593382715088
 30
0.0
  0
VERTEX
  5
168EE
  8
0
 10
240.9409780838196014
 20
157.1286140050999904
 30
0.0
  0
VERTEX
  5
168EF
  8
0
 10
240.8704669451767018
 20
157.1385213449136984
 30
0.0
  0
VERTEX
  5
168F0
  8
0
 10
240.7996682933973034
 20
157.1486778748057986
 30
0.0
  0
VERTEX
  5
168F1
  8
0
 10
240.7286109003754007
 20
157.1590801118697982
 30
0.0
  0
VERTEX
  5
168F2
  8
0
 10
240.6573235380053006
 20
157.1697245731990904
 30
0.0
  0
VERTEX
  5
168F3
  8
0
 10
240.5858349781807135
 20
157.1806077758870117
 30
0.0
  0
VERTEX
  5
168F4
  8
0
 10
240.5141739927962021
 20
157.1917262370272113
 30
0.0
  0
VERTEX
  5
168F5
  8
0
 10
240.4423710676018118
 20
157.2030758477507959
 30
0.0
  0
VERTEX
  5
168F6
  8
0
 10
240.3704638443059025
 20
157.2146478243396075
 30
0.0
  0
VERTEX
  5
168F7
  8
0
 10
240.298459062657713
 20
157.2264406152636127
 30
0.0
  0
VERTEX
  5
168F8
  8
0
 10
240.2263568358978887
 20
157.2384546633587945
 30
0.0
  0
VERTEX
  5
168F9
  8
0
 10
240.1541572772661937
 20
157.2506904114615907
 30
0.0
  0
VERTEX
  5
168FA
  8
0
 10
240.081860500003387
 20
157.2631483024080978
 30
0.0
  0
VERTEX
  5
168FB
  8
0
 10
240.0094666173492044
 20
157.2758287790346117
 30
0.0
  0
VERTEX
  5
168FC
  8
0
 10
239.9369757425442913
 20
157.2887322841773994
 30
0.0
  0
VERTEX
  5
168FD
  8
0
 10
239.8643879888286108
 20
157.3018592606726997
 30
0.0
  0
VERTEX
  5
168FE
  8
0
 10
239.7917034694428082
 20
157.3152101513566095
 30
0.0
  0
VERTEX
  5
168FF
  8
0
 10
239.7189222976267047
 20
157.3287853990655947
 30
0.0
  0
VERTEX
  5
16900
  8
0
 10
239.6460445866206044
 20
157.34258544663561
 30
0.0
  0
VERTEX
  5
16901
  8
0
 10
239.5730704496650105
 20
157.3566107369032068
 30
0.0
  0
VERTEX
  5
16902
  8
0
 10
239.4999999999998863
 20
157.3708617127043112
 30
0.0
  0
SEQEND
  5
16903
  8
0
  0
ENDSEC
  0
EOF
