  0
SECTION
  2
HEADER
  9
$ACADVER
  1
AC1009
  9
$INSBASE
 10
0.0
 20
0.0
 30
0.0
  9
$EXTMIN
 10
0.0
 20
0.0
 30
0.0
  9
$EXTMAX
 10
250.5
 20
320.5
 30
0.0
  9
$LIMMIN
 10
0.0
 20
0.0
  9
$LIMMAX
 10
420.0
 20
297.0
  9
$ORTHOMODE
 70
     1
  9
$REGENMODE
 70
     1
  9
$FILLMODE
 70
     1
  9
$QTEXTMODE
 70
     0
  9
$MIRRTEXT
 70
     0
  9
$DRAGMODE
 70
     2
  9
$LTSCALE
 40
1.0
  9
$OSMODE
 70
    37
  9
$ATTMODE
 70
     1
  9
$TEXTSIZE
 40
2.5
  9
$TRACEWID
 40
1.0
  9
$TEXTSTYLE
  7
STANDARD
  9
$CLAYER
  8
1
  9
$CELTYPE
  6
BYLAYER
  9
$CECOLOR
 62
   256
  9
$DIMSCALE
 40
1.0
  9
$DIMASZ
 40
2.5
  9
$DIMEXO
 40
0.625
  9
$DIMDLI
 40
3.75
  9
$DIMRND
 40
0.0
  9
$DIMDLE
 40
0.0
  9
$DIMEXE
 40
1.25
  9
$DIMTP
 40
0.0
  9
$DIMTM
 40
0.0
  9
$DIMTXT
 40
2.5
  9
$DIMCEN
 40
2.5
  9
$DIMTSZ
 40
0.0
  9
$DIMTOL
 70
     0
  9
$DIMLIM
 70
     0
  9
$DIMTIH
 70
     0
  9
$DIMTOH
 70
     0
  9
$DIMSE1
 70
     0
  9
$DIMSE2
 70
     0
  9
$DIMTAD
 70
     1
  9
$DIMZIN
 70
     8
  9
$DIMBLK
  1

  9
$DIMASO
 70
     1
  9
$DIMSHO
 70
     1
  9
$DIMPOST
  1

  9
$DIMAPOST
  1

  9
$DIMALT
 70
     0
  9
$DIMALTD
 70
     3
  9
$DIMALTF
 40
0.03937007874016
  9
$DIMLFAC
 40
1.0
  9
$DIMTOFL
 70
     1
  9
$DIMTVP
 40
0.0
  9
$DIMTIX
 70
     0
  9
$DIMSOXD
 70
     0
  9
$DIMSAH
 70
     0
  9
$DIMBLK1
  1

  9
$DIMBLK2
  1

  9
$DIMSTYLE
  2
ISO-25
  9
$DIMCLRD
 70
     0
  9
$DIMCLRE
 70
     0
  9
$DIMCLRT
 70
     0
  9
$DIMTFAC
 40
1.0
  9
$DIMGAP
 40
0.625
  9
$LUNITS
 70
     2
  9
$LUPREC
 70
     1
  9
$SKETCHINC
 40
1.0
  9
$FILLETRAD
 40
0.0
  9
$AUNITS
 70
     0
  9
$AUPREC
 70
     0
  9
$MENU
  1
.
  9
$ELEVATION
 40
0.0
  9
$PELEVATION
 40
0.0
  9
$THICKNESS
 40
0.0
  9
$LIMCHECK
 70
     0
  9
$BLIPMODE
 70
     0
  9
$CHAMFERA
 40
0.0
  9
$CHAMFERB
 40
0.0
  9
$SKPOLY
 70
     0
  9
$TDCREATE
 40
2454946.5997685180045664
  9
$TDUPDATE
 40
2460745.6380324070341885
  9
$TDINDWG
 40
1.3616391087999999
  9
$TDUSRTIMER
 40
1.3616389352
  9
$USRTIMER
 70
     1
  9
$ANGBASE
 50
0.0
  9
$ANGDIR
 70
     0
  9
$PDMODE
 70
     0
  9
$PDSIZE
 40
0.0
  9
$PLINEWID
 40
0.0
  9
$COORDS
 70
     1
  9
$SPLFRAME
 70
     0
  9
$SPLINETYPE
 70
     6
  9
$SPLINESEGS
 70
     8
  9
$ATTDIA
 70
     1
  9
$ATTREQ
 70
     1
  9
$HANDLING
 70
     1
  9
$HANDSEED
  5
15A47
  9
$SURFTAB1
 70
     6
  9
$SURFTAB2
 70
     6
  9
$SURFTYPE
 70
     6
  9
$SURFU
 70
     6
  9
$SURFV
 70
     6
  9
$UCSNAME
  2

  9
$UCSORG
 10
0.0
 20
0.0
 30
0.0
  9
$UCSXDIR
 10
1.0
 20
0.0
 30
0.0
  9
$UCSYDIR
 10
0.0
 20
1.0
 30
0.0
  9
$PUCSNAME
  2

  9
$PUCSORG
 10
0.0
 20
0.0
 30
0.0
  9
$PUCSXDIR
 10
1.0
 20
0.0
 30
0.0
  9
$PUCSYDIR
 10
0.0
 20
1.0
 30
0.0
  9
$USERI1
 70
     0
  9
$USERI2
 70
     0
  9
$USERI3
 70
     0
  9
$USERI4
 70
     0
  9
$USERI5
 70
     0
  9
$USERR1
 40
0.0
  9
$USERR2
 40
0.0
  9
$USERR3
 40
0.0
  9
$USERR4
 40
0.0
  9
$USERR5
 40
0.0
  9
$WORLDVIEW
 70
     1
  9
$SHADEDGE
 70
     3
  9
$SHADEDIF
 70
    70
  9
$TILEMODE
 70
     1
  9
$MAXACTVP
 70
    64
  9
$PLIMCHECK
 70
     0
  9
$PEXTMIN
 10
0.0
 20
0.0
 30
0.0
  9
$PEXTMAX
 10
0.0
 20
0.0
 30
0.0
  9
$PLIMMIN
 10
0.0
 20
0.0
  9
$PLIMMAX
 10
12.0
 20
9.0
  9
$UNITMODE
 70
     0
  9
$VISRETAIN
 70
     1
  9
$PLINEGEN
 70
     0
  9
$PSLTSCALE
 70
     1
  0
ENDSEC
  0
SECTION
  2
TABLES
  0
TABLE
  2
VPORT
 70
     1
  0
VPORT
  2
*ACTIVE
 70
     0
 10
0.0
 20
0.0
 11
1.0
 21
1.0
 12
402.7286356821588811
 22
172.0883174879469948
 13
0.0
 23
0.0
 14
10.0
 24
10.0
 15
10.0
 25
10.0
 16
0.0
 26
0.0
 36
1.0
 17
0.0
 27
0.0
 37
0.0
 40
344.1766349758939896
 41
2.340243902439024
 42
50.0
 43
0.0
 44
0.0
 50
0.0
 51
0.0
 71
     0
 72
  1000
 73
     1
 74
     3
 75
     0
 76
     0
 77
     0
 78
     0
  0
ENDTAB
  0
TABLE
  2
LTYPE
 70
     4
  0
LTYPE
  2
CONTINUOUS
 70
     0
  3
Solid line
 72
    65
 73
     0
 40
0.0
  0
LTYPE
  2
CENTER
 70
     0
  3
Center ____ _ ____ _ ____ _ ____ _ ____ _ ____
 72
    65
 73
     4
 40
10.1600000000000001
 49
6.3499999999999979
 49
-1.27
 49
1.27
 49
-1.27
  0
LTYPE
  2
PHANTOM2
 70
     0
  3
Phantom (.5x) ___ _ _ ___ _ _ ___ _ _ ___ _ _
 72
    65
 73
     6
 40
31.75
 49
15.875
 49
-3.174999999999998
 49
3.174999999999998
 49
-3.174999999999998
 49
3.174999999999998
 49
-3.174999999999998
  0
LTYPE
  2
HIDDEN
 70
     0
  3
Hidden __ __ __ __ __ __ __ __ __ __ __ __ __ __
 72
    65
 73
     2
 40
1.905
 49
1.27
 49
-0.635
  0
ENDTAB
  0
TABLE
  2
LAYER
 70
     5
  0
LAYER
  2
0
 70
     0
 62
     7
  6
CONTINUOUS
  0
LAYER
  2
1
 70
     0
 62
     1
  6
CENTER
  0
LAYER
  2
DEFPOINTS
 70
     0
 62
     7
  6
CONTINUOUS
  0
LAYER
  2
3
 70
     0
 62
     3
  6
CONTINUOUS
  0
LAYER
  2
2
 70
     0
 62
     2
  6
HIDDEN
  0
ENDTAB
  0
TABLE
  2
STYLE
 70
     3
  0
STYLE
  2
STANDARD
 70
     0
 40
0.0
 41
1.0
 50
0.0
 71
     0
 42
2.5
  3
txt
  4

  0
STYLE
  2
ANNOTATIVE
 70
     0
 40
0.0
 41
1.0
 50
0.0
 71
     0
 42
0.2
  3
txt
  4

  0
STYLE
  2
STANDARD1
 70
     0
 40
0.0
 41
1.0
 50
0.0
 71
     0
 42
3.0
  3
txt
  4

  0
ENDTAB
  0
TABLE
  2
VIEW
 70
     0
  0
ENDTAB
  0
TABLE
  2
UCS
 70
     0
  0
ENDTAB
  0
TABLE
  2
APPID
 70
   133
  0
APPID
  2
ACAD
 70
     0
  0
APPID
  2
ACADANNOTATIVE
 70
     0
  0
APPID
  2
_FTCNV
 70
     0
  0
APPID
  2
GENIUS_GENODEF_13
 70
     0
  0
APPID
  2
GENIUS_GENOENT_13
 70
     0
  0
APPID
  2
GENIUS_GENOBJ-N-CEN_13
 70
     0
  0
APPID
  2
GENIUS_GENOLIS_13
 70
     0
  0
APPID
  2
GENIUS_GENOREF_13
 70
     0
  0
APPID
  2
GENIUS_GENOBJ-N-CRS_13
 70
     0
  0
APPID
  2
GENIUS_GENOBJ-N-FIL_13
 70
     0
  0
APPID
  2
GENIUS_GENOBJ-N-REC_13
 70
     0
  0
APPID
  2
GENIUS_GENFIL_13
 70
     0
  0
APPID
  2
GENIUS_GENOBJ-N-CHA_13
 70
     0
  0
APPID
  2
ASM_BASE
 70
     0
  0
APPID
  2
_PHO
 70
     0
  0
APPID
  2
_CLP
 70
     0
  0
APPID
  2
MOJIGUMI_PARTS
 70
     0
  0
APPID
  2
_DBL
 70
     0
  0
APPID
  2
_PWH
 70
     0
  0
APPID
  2
_G9P
 70
     0
  0
APPID
  2
AME_SOL
 70
     0
  0
APPID
  2
HAKO_DEF
 70
     0
  0
APPID
  2
HAKO_TXT
 70
     0
  0
APPID
  2
HAKO_OVR
 70
     0
  0
APPID
  2
ASM_EXPLO_VER_2_00
 70
     0
  0
APPID
  2
ASM_CADM_VER_12_00
 70
     0
  0
APPID
  2
ASM_BASEFORO
 70
     0
  0
APPID
  2
ASM_BASETRAVI
 70
     0
  0
APPID
  2
ASM_BASETRAVI1
 70
     0
  0
APPID
  2
ASM_GRUPPI
 70
     0
  0
APPID
  2
ASM_CADM_ALBERO
 70
     0
  0
APPID
  2
ASM_GOLE
 70
     0
  0
APPID
  2
GENIUS_GENCFG_13
 70
     0
  0
APPID
  2
GENIUS_GENCFG0_13
 70
     0
  0
APPID
  2
GENIUS_GENCFG1_13
 70
     0
  0
APPID
  2
GENIUS_GENCFG2_13
 70
     0
  0
APPID
  2
GENIUS_GENCFG3_13
 70
     0
  0
APPID
  2
GENIUS_GENCFG4_13
 70
     0
  0
APPID
  2
GENIUS_GEVCFG0_13
 70
     0
  0
APPID
  2
GENIUS_GENHATCH_13
 70
     0
  0
APPID
  2
GENIUS_GEFCFG0_13
 70
     0
  0
APPID
  2
GENIUS_GENOBJ-N-HTC_13
 70
     0
  0
APPID
  2
DCO15
 70
     0
  0
APPID
  2
AVE_RENDER
 70
     0
  0
APPID
  2
AVE_ENTITY_MATERIAL
 70
     0
  0
APPID
  2
AVE_FINISH
 70
     0
  0
APPID
  2
AVE_MATERIAL
 70
     0
  0
APPID
  2
AVE_GLOBAL
 70
     0
  0
APPID
  2
_NUM
 70
     0
  0
APPID
  2
HAKO_FNM
 70
     0
  0
APPID
  2
_CALL_MAC$
 70
     0
  0
APPID
  2
ACA_CADIMENU
 70
     0
  0
APPID
  2
AUTOCAD_POSTSCRIPT_FIGURE
 70
     0
  0
APPID
  2
GEV_VCCNULL_SWITCH_OFF
 70
     0
  0
APPID
  2
GENIUS_GENDTOL_13
 70
     0
  0
APPID
  2
GENIUS_GEFWELD_13
 70
     0
  0
APPID
  2
GENIUS_GENOBJ-F-WELS_13
 70
     0
  0
APPID
  2
GEVID961514679
 70
     0
  0
APPID
  2
GEVDC
 70
     0
  0
APPID
  2
GEVPT
 70
     0
  0
APPID
  2
GEVIT
 70
     0
  0
APPID
  2
VCC
 70
     0
  0
APPID
  2
GENBH
 70
     0
  0
APPID
  2
GEVMK
 70
     0
  0
APPID
  2
GENIUS_GENBH_13
 70
     0
  0
APPID
  2
GENIUS_GENOBJ-NBEHI-BHF_13
 70
     0
  0
APPID
  2
GENIUS_GENOBJ-NBEHI-BHB_13
 70
     0
  0
APPID
  2
GENIUS_GENOBJ-F-DESC_13
 70
     0
  0
APPID
  2
GENIUS_GEFDESC_14
 70
     0
  0
APPID
  2
GENIUS_GENOBJ-F-PART_13
 70
     0
  0
APPID
  2
GENIUS_GEFSTDP_13
 70
     0
  0
APPID
  2
GENIUS_GEFPARTINS_13
 70
     0
  0
APPID
  2
GEVID961514680
 70
     0
  0
APPID
  2
GENIUS_GENTRA_14
 70
     0
  0
APPID
  2
GENIUS_GENINF13_13
 70
     0
  0
APPID
  2
GENIUS_GENOBJ-N-INFOPT_13
 70
     0
  0
APPID
  2
GENIUS_GENOBJ-N-RSSYM_13
 70
     0
  0
APPID
  2
GENIUS_GENSYMENT_13
 70
     0
  0
APPID
  2
GENIUS_GENSCSYM_13
 70
     0
  0
APPID
  2
GENIUS_GEFINFNAM_13
 70
     0
  0
APPID
  2
GENIUS_GENREC_14
 70
     0
  0
APPID
  2
GEVID962097543
 70
     0
  0
APPID
  2
GEVID962097544
 70
     0
  0
APPID
  2
GEVID962097545
 70
     0
  0
APPID
  2
GENIUS_DUMCFG0_13
 70
     0
  0
APPID
  2
GEVID962352965
 70
     0
  0
APPID
  2
GEVID962352966
 70
     0
  0
APPID
  2
GEVID962352968
 70
     0
  0
APPID
  2
GEVRADREF
 70
     0
  0
APPID
  2
GEVID963230099
 70
     0
  0
APPID
  2
GENIUS_GENOBJ-F-FEAT_13
 70
     0
  0
APPID
  2
GENIUS_GEFFEAT_14
 70
     0
  0
APPID
  2
GEVID963230100
 70
     0
  0
APPID
  2
GEVID963230101
 70
     0
  0
APPID
  2
GENIUS_GENHINW_13
 70
     0
  0
APPID
  2
GENIUS_FIRSTVISTXT_14
 70
     0
  0
APPID
  2
GENIUS_GENOBJ-N-LEADER_13
 70
     0
  0
APPID
  2
GEVID971698136
 70
     0
  0
APPID
  2
GEVID972029070
 70
     0
  0
APPID
  2
MCAD_NO_VIS
 70
     0
  0
APPID
  2
ACAD_TEMP_GRAPHIC
 70
     0
  0
APPID
  2
ACATTRIBSERVICES
 70
     0
  0
APPID
  2
GENIUS_GENDIMSH_14
 70
     0
  0
APPID
  2
CONTENTTABDATA
 70
     0
  0
APPID
  2
CONTENTCURRENTTAB
 70
     0
  0
APPID
  2
GENIUS_GENBLKED_14
 70
     0
  0
APPID
  2
GENIUS_GENOBJ_13
 70
     0
  0
APPID
  2
GENIUS_GENOBJ-N-TIT_13
 70
     0
  0
APPID
  2
GENIUS_GENTITLE_13
 70
     0
  0
APPID
  2
GENIUS_GENZVEED_13
 70
     0
  0
APPID
  2
GENIUS_GEFINERT_13
 70
     0
  0
APPID
  2
GENIUS_GENOBJ-F-INER_13
 70
     0
  0
APPID
  2
GENIUS_GENOBJ-N-ZOO_13
 70
     0
  0
APPID
  2
GENIUS_GENZOO_13
 70
     0
  0
APPID
  2
GENIUS_GENOBJ-F-TOL_13
 70
     0
  0
APPID
  2
GENIUS_GENOBJ-N-REV_13
 70
     0
  0
APPID
  2
GENIUS_GENREC_13
 70
     0
  0
APPID
  2
_KTH
 70
     0
  0
APPID
  2
GENIUS_GENOBJ-N-SEC_13
 70
     0
  0
APPID
  2
ACAD_EXEMPT_FROM_CAD_STANDARDS
 70
     0
  0
APPID
  2
ACAD_MLEADERVER
 70
     0
  0
APPID
  2
ACAD_NAV_VCDISPLAY
 70
     0
  0
APPID
  2
ACAD_PSEXT
 70
     0
  0
APPID
  2
ACAD_DSTYLE_DIMJAG
 70
     0
  0
APPID
  2
ACAD_DSTYLE_DIMTALN
 70
     0
  0
APPID
  2
ACAD_DSTYLE_DIMBREAK
 70
     0
  0
APPID
  2
ACAECLAYERSTANDARD
 70
     0
  0
APPID
  2
ACCMTRANSPARENCY
 70
     0
  0
APPID
  2
ACAD_DSTYLE_DIM_LINETYPE
 70
     0
  0
APPID
  2
GRADIENTCOLOR1ACI
 70
     0
  0
APPID
  2
GRADIENTCOLOR2ACI
 70
     0
  0
APPID
  2
ACAD_TC
 70
     0
  0
APPID
  2
ACAD_DSTYLE_DIMRADIAL_EXTENSION
 70
     0
  0
ENDTAB
  0
TABLE
  2
DIMSTYLE
 70
     3
  0
DIMSTYLE
  2
STANDARD
 70
     0
  3

  4

  5

  6

  7

 40
1.0
 41
0.18
 42
0.0625
 43
0.38
 44
0.18
 45
0.0
 46
0.0
 47
0.0
 48
0.0
140
0.18
141
0.09
142
0.0
143
25.3999999999999986
144
1.0
145
0.0
146
1.0
147
0.09
 71
     0
 72
     0
 73
     1
 74
     1
 75
     0
 76
     0
 77
     0
 78
     0
170
     0
171
     2
172
     0
173
     0
174
     0
175
     0
176
     0
177
     0
178
     0
  0
DIMSTYLE
  2
ANNOTATIVE
 70
     0
  3

  4

  5

  6

  7

 40
1.0
 41
0.18
 42
0.0625
 43
0.38
 44
0.18
 45
0.0
 46
0.0
 47
0.0
 48
0.0
140
0.18
141
0.09
142
0.0
143
25.3999999999999986
144
1.0
145
0.0
146
1.0
147
0.09
 71
     0
 72
     0
 73
     1
 74
     1
 75
     0
 76
     0
 77
     0
 78
     0
170
     0
171
     2
172
     0
173
     0
174
     0
175
     0
176
     0
177
     0
178
     0
  0
DIMSTYLE
  2
ISO-25
 70
     0
  3

  4

  5

  6

  7

 40
1.0
 41
2.5
 42
0.625
 43
3.75
 44
1.25
 45
0.0
 46
0.0
 47
0.0
 48
0.0
140
2.5
141
2.5
142
0.0
143
0.03937007874016
144
1.0
145
0.0
146
1.0
147
0.625
 71
     0
 72
     0
 73
     0
 74
     0
 75
     0
 76
     0
 77
     1
 78
     8
170
     0
171
     3
172
     1
173
     0
174
     0
175
     0
176
     0
177
     0
178
     0
  0
ENDTAB
  0
ENDSEC
  0
SECTION
  2
BLOCKS
  0
BLOCK
  8
0
  2
$MODEL_SPACE
 70
     0
 10
0.0
 20
0.0
 30
0.0
  3
$MODEL_SPACE
  1

  0
ENDBLK
  5
15639
  8
0
  0
BLOCK
 67
     1
  8
0
  2
$PAPER_SPACE
 70
     0
 10
0.0
 20
0.0
 30
0.0
  3
$PAPER_SPACE
  1

  0
ENDBLK
  5
15635
 67
     1
  8
0
  0
ENDSEC
  0
SECTION
  2
ENTITIES
  0
TEXT
  5
80B7
  8
0
 62
     3
 10
0.0
 20
0.0
 30
0.0
 40
10.0
  1
IMR-RA5-PQ180
  7
STANDARD1
  0
CIRCLE
  5
14AA6
  8
0
 10
216.0594939461456079
 20
235.5603040926069127
 30
0.0
 40
3.0
  0
CIRCLE
  5
14AA7
  8
0
 10
165.560304092606799
 20
253.9405060538545058
 30
0.0
 40
3.0
  0
CIRCLE
  5
14AA8
  8
0
 10
183.9405060538543069
 20
304.4396959073931725
 30
0.0
 40
3.0
  0
CIRCLE
  5
14AA9
  8
0
 10
234.439695907393201
 20
286.0594939461453237
 30
0.0
 40
3.0
  0
CIRCLE
  5
14AAA
  8
0
 10
222.2738636073756027
 20
247.7261363926232036
 30
0.0
 40
3.0
  0
CIRCLE
  5
14AAB
  8
0
 10
177.7261363926230047
 20
247.7261363926243121
 30
0.0
 40
3.0
  0
CIRCLE
  5
14AAC
  8
0
 10
177.7261363926243121
 20
292.2738636073768816
 30
0.0
 40
3.0
  0
CIRCLE
  5
14AAD
  8
0
 10
222.273863607377109
 20
292.27386360737529
 30
0.0
 40
3.0
  0
CIRCLE
  5
14AAE
  8
0
 10
200.0
 20
301.5000000000001137
 30
0.0
 40
3.0
  0
CIRCLE
  5
14AAF
  8
0
 10
200.0
 20
270.0
 30
0.0
 40
16.0
  0
CIRCLE
  5
14AB0
  8
0
 10
200.0
 20
270.0
 30
0.0
 40
19.4226497308103987
  0
CIRCLE
  5
14AB1
  8
0
 10
200.0
 20
270.0
 30
0.0
 40
20.0000000000000604
  0
CIRCLE
  5
14AB2
  8
0
 10
200.0
 20
270.0
 30
0.0
 40
15.0000000000000604
  0
CIRCLE
  5
14AB3
  8
0
 10
200.0
 20
270.0
 30
0.0
 40
45.0
  0
CIRCLE
  5
14AB4
  8
0
 10
222.273863607377109
 20
292.2738636073755174
 30
0.0
 40
3.5
  0
CIRCLE
  5
14AB5
  8
0
 10
177.7261363926243121
 20
292.2738636073768816
 30
0.0
 40
3.5
  0
CIRCLE
  5
14AB6
  8
0
 10
177.7261363926230047
 20
247.726136392624511
 30
0.0
 40
3.5
  0
CIRCLE
  5
14AB7
  8
0
 10
222.2738636073756027
 20
247.7261363926232036
 30
0.0
 40
3.5000000000000551
  0
CIRCLE
  5
14AB8
  8
0
 10
200.0
 20
270.0
 30
0.0
 40
45.4999999999999929
  0
LINE
  5
14AC9
  8
0
 10
225.2738636073756027
 20
194.999999999999801
 30
0.0
 11
225.2738636073756027
 21
200.999999999999801
 31
0.0
  0
LINE
  5
14ACA
  8
0
 10
219.2738636073756027
 20
200.999999999999801
 30
0.0
 11
219.2738636073756027
 21
194.999999999999801
 31
0.0
  0
LINE
  5
14ACB
  8
0
 10
180.7261363926230047
 20
194.999999999999801
 30
0.0
 11
180.7261363926230047
 21
200.999999999999801
 31
0.0
  0
LINE
  5
14ACC
  8
0
 10
174.7261363926230047
 20
200.999999999999801
 30
0.0
 11
174.7261363926230047
 21
194.999999999999801
 31
0.0
  0
LINE
  5
14ACD
  8
0
 10
245.5
 20
184.5
 30
0.0
 11
245.5
 21
194.499999999999801
 31
0.0
  0
LINE
  5
14ACE
  8
0
 10
154.5
 20
194.499999999999801
 30
0.0
 11
154.5
 21
184.5
 31
0.0
  0
LINE
  5
14ACF
  8
0
 10
154.5
 20
184.5
 30
0.0
 11
154.999999999999801
 21
184.0
 31
0.0
  0
LINE
  5
14AD0
  8
0
 10
244.9999999999998863
 20
184.0
 30
0.0
 11
245.5
 21
184.5
 31
0.0
  0
LINE
  5
14AD1
  8
0
 10
245.5
 20
194.499999999999801
 30
0.0
 11
244.9999999999998863
 21
195.0
 31
0.0
  0
LINE
  5
14AD2
  8
0
 10
154.999999999999801
 20
195.0
 30
0.0
 11
154.5
 21
194.499999999999801
 31
0.0
  0
LINE
  5
14AD3
  8
0
 10
194.8146955025208058
 20
177.999999999999801
 30
0.0
 11
194.8146955025208058
 21
183.999999999999801
 31
0.0
  0
LINE
  5
14AD4
  8
0
 10
188.8146955025208058
 20
183.999999999999801
 30
0.0
 11
188.8146955025208058
 21
177.999999999999801
 31
0.0
  0
LINE
  5
14AD5
  8
0
 10
203.0
 20
199.5000000000001137
 30
0.0
 11
203.0
 21
199.999999999999801
 31
0.0
  0
LINE
  5
14AD6
  8
0
 10
197.0
 20
199.999999999999801
 30
0.0
 11
197.0
 21
199.5000000000001137
 31
0.0
  0
LINE
  5
14AD7
  8
0
 10
220.5822307053379916
 20
178.0
 30
0.0
 11
220.5822307053379916
 21
184.0000000000001137
 31
0.0
  0
LINE
  5
14AFC
  8
0
 10
219.2738636073756027
 20
200.999999999999801
 30
0.0
 11
225.2738636073756027
 21
200.999999999999801
 31
0.0
  0
LINE
  5
14AFD
  8
0
 10
174.7261363926230047
 20
200.999999999999801
 30
0.0
 11
180.7261363926230047
 21
200.999999999999801
 31
0.0
  0
LINE
  5
14AFE
  8
0
 10
154.5
 20
194.499999999999801
 30
0.0
 11
245.4999999999998863
 21
194.499999999999801
 31
0.0
  0
LINE
  5
14AFF
  8
0
 10
154.5
 20
184.5
 30
0.0
 11
245.4999999999998863
 21
184.5
 31
0.0
  0
LINE
  5
14B00
  8
0
 10
154.999999999999801
 20
184.0
 30
0.0
 11
244.9999999999998863
 21
184.0
 31
0.0
  0
LINE
  5
14B01
  8
0
 10
154.999999999999801
 20
195.0
 30
0.0
 11
244.9999999999998863
 21
195.0
 31
0.0
  0
LINE
  5
14B02
  8
0
 10
188.8146955025208058
 20
177.999999999999801
 30
0.0
 11
194.8146955025208058
 21
177.999999999999801
 31
0.0
  0
LINE
  5
14B03
  8
2
 10
220.0
 20
198.499999999999801
 30
0.0
 11
180.0
 21
198.499999999999801
 31
0.0
  0
LINE
  5
14B04
  8
0
 10
219.2738636073769101
 20
199.499999999999801
 30
0.0
 11
180.7261363926243121
 21
199.499999999999801
 31
0.0
  0
LINE
  5
14B05
  8
0
 10
197.0
 20
199.999999999999801
 30
0.0
 11
203.0
 21
199.999999999999801
 31
0.0
  0
LINE
  5
14B06
  8
0
 10
219.0594939461456079
 20
178.0
 30
0.0
 11
220.5822307053379916
 21
178.0
 31
0.0
  0
LINE
  5
14B07
  8
2
 10
227.2738636073756027
 20
184.999999999999801
 30
0.0
 11
217.2738636073756027
 21
184.999999999999801
 31
0.0
  0
LINE
  5
14B08
  8
2
 10
182.7261363926230899
 20
185.0
 30
0.0
 11
172.7261363926230047
 21
185.0
 31
0.0
  0
LINE
  5
14B09
  8
2
 10
241.5
 20
190.999999999999801
 30
0.0
 11
158.5
 21
191.0
 31
0.0
  0
LINE
  5
14B0A
  8
2
 10
219.4226497308104058
 20
199.5
 30
0.0
 11
219.2738636073769101
 21
199.499999999999801
 31
0.0
  0
LINE
  5
14B0B
  8
2
 10
180.7261363926243121
 20
199.499999999999801
 30
0.0
 11
180.5773502691895089
 21
199.5
 31
0.0
  0
LINE
  5
14B0C
  8
2
 10
215.0
 20
192.999999999999801
 30
0.0
 11
185.0
 21
192.999999999999801
 31
0.0
  0
LINE
  5
14B0D
  8
2
 10
214.5822307053379916
 20
178.0
 30
0.0
 11
219.0594939461456079
 21
178.0
 31
0.0
  0
LINE
  5
14B0E
  8
2
 10
219.0594939461456079
 20
183.999999999999801
 30
0.0
 11
219.0594939461456079
 21
194.999999999999801
 31
0.0
  0
LINE
  5
14B0F
  8
2
 10
213.0594939461456079
 20
194.999999999999801
 30
0.0
 11
213.0594939461456079
 21
183.999999999999801
 31
0.0
  0
LINE
  5
14B10
  8
2
 10
168.560304092606799
 20
183.999999999999801
 30
0.0
 11
168.560304092606799
 21
194.999999999999801
 31
0.0
  0
LINE
  5
14B11
  8
2
 10
162.5603040926067138
 20
194.999999999999801
 30
0.0
 11
162.5603040926067138
 21
183.999999999999801
 31
0.0
  0
LINE
  5
14B12
  8
2
 10
186.9405060538543069
 20
184.0000000000001137
 30
0.0
 11
186.9405060538543069
 21
195.0000000000001137
 31
0.0
  0
LINE
  5
14B13
  8
2
 10
180.9405060538541079
 20
195.0000000000001137
 30
0.0
 11
180.9405060538541079
 21
184.0000000000001137
 31
0.0
  0
LINE
  5
14B14
  8
2
 10
237.439695907393201
 20
184.0
 30
0.0
 11
237.439695907393201
 21
195.0
 31
0.0
  0
LINE
  5
14B15
  8
2
 10
231.439695907393201
 20
195.0
 30
0.0
 11
231.439695907393201
 21
184.0
 31
0.0
  0
LINE
  5
14B16
  8
2
 10
227.2738636073756027
 20
184.999999999999801
 30
0.0
 11
227.2738636073756027
 21
190.999999999999801
 31
0.0
  0
LINE
  5
14B17
  8
2
 10
217.2738636073756027
 20
190.999999999999801
 30
0.0
 11
217.2738636073756027
 21
184.999999999999801
 31
0.0
  0
LINE
  5
14B18
  8
2
 10
225.2738636073756027
 20
190.999999999999801
 30
0.0
 11
225.2738636073756027
 21
194.999999999999801
 31
0.0
  0
LINE
  5
14B19
  8
2
 10
219.2738636073756027
 20
194.999999999999801
 30
0.0
 11
219.2738636073756027
 21
190.999999999999801
 31
0.0
  0
LINE
  5
14B1A
  8
2
 10
182.7261363926230899
 20
185.0
 30
0.0
 11
182.7261363926230899
 21
191.0
 31
0.0
  0
LINE
  5
14B1B
  8
2
 10
172.7261363926230047
 20
191.0
 30
0.0
 11
172.7261363926230047
 21
185.0
 31
0.0
  0
LINE
  5
14B1C
  8
2
 10
180.7261363926230047
 20
191.0
 30
0.0
 11
180.7261363926230047
 21
194.999999999999801
 31
0.0
  0
LINE
  5
14B1D
  8
2
 10
174.7261363926230047
 20
194.999999999999801
 30
0.0
 11
174.7261363926230047
 21
191.0
 31
0.0
  0
LINE
  5
14B1E
  8
2
 10
197.8146955025208058
 20
183.999999999999801
 30
0.0
 11
197.8146955025208058
 21
190.999999999999801
 31
0.0
  0
LINE
  5
14B1F
  8
2
 10
197.7074049409785061
 20
190.999999999999801
 30
0.0
 11
197.7074049409785061
 21
183.999999999999801
 31
0.0
  0
LINE
  5
14B20
  8
2
 10
210.6809478704205105
 20
183.999999999999801
 30
0.0
 11
210.6809478704205105
 21
190.999999999999801
 31
0.0
  0
LINE
  5
14B21
  8
2
 10
210.0594939461456079
 20
190.999999999999801
 30
0.0
 11
210.0594939461456079
 21
183.999999999999801
 31
0.0
  0
LINE
  5
14B22
  8
2
 10
241.5
 20
184.0
 30
0.0
 11
241.5
 21
190.999999999999801
 31
0.0
  0
LINE
  5
14B23
  8
2
 10
220.0
 20
195.0
 30
0.0
 11
220.0
 21
198.5
 31
0.0
  0
LINE
  5
14B24
  8
2
 10
180.0
 20
198.5
 30
0.0
 11
180.0
 21
195.0
 31
0.0
  0
LINE
  5
14B25
  8
2
 10
220.0
 20
198.5
 30
0.0
 11
219.4226497308104058
 21
199.5
 31
0.0
  0
LINE
  5
14B26
  8
2
 10
180.5773502691895089
 20
199.5
 30
0.0
 11
180.0
 21
198.5
 31
0.0
  0
LINE
  5
14B27
  8
2
 10
225.7738636073756879
 20
190.999999999999801
 30
0.0
 11
225.7738636073756879
 21
195.0
 31
0.0
  0
LINE
  5
14B28
  8
2
 10
218.7738636073756879
 20
195.0
 30
0.0
 11
218.7738636073756879
 21
190.999999999999801
 31
0.0
  0
LINE
  5
14B29
  8
2
 10
181.2261363926230047
 20
190.999999999999801
 30
0.0
 11
181.2261363926230047
 21
195.0
 31
0.0
  0
LINE
  5
14B2A
  8
2
 10
174.2261363926230047
 20
195.0
 30
0.0
 11
174.2261363926230047
 21
190.999999999999801
 31
0.0
  0
LINE
  5
14B2B
  8
2
 10
166.866230472921302
 20
190.999999999999801
 30
0.0
 11
166.866230472921302
 21
183.999999999999801
 31
0.0
  0
LINE
  5
14B2C
  8
2
 10
217.0
 20
190.999999999999801
 30
0.0
 11
215.0
 21
192.999999999999801
 31
0.0
  0
LINE
  5
14B2D
  8
2
 10
185.0
 20
192.999999999999801
 30
0.0
 11
183.0
 21
190.999999999999801
 31
0.0
  0
LINE
  5
14B2E
  8
2
 10
184.0
 20
199.5
 30
0.0
 11
185.0
 21
198.5
 31
0.0
  0
LINE
  5
14B2F
  8
2
 10
215.0
 20
198.5
 30
0.0
 11
216.0
 21
199.5
 31
0.0
  0
LINE
  5
14B30
  8
2
 10
171.5603040926069127
 20
183.999999999999801
 30
0.0
 11
171.5603040926069127
 21
191.0
 31
0.0
  0
LINE
  5
14B31
  8
2
 10
215.0
 20
192.999999999999801
 30
0.0
 11
215.0
 21
198.5
 31
0.0
  0
LINE
  5
14B32
  8
2
 10
185.0
 20
198.5
 30
0.0
 11
185.0
 21
192.999999999999801
 31
0.0
  0
LINE
  5
14B33
  8
2
 10
162.5603040926067138
 20
195.0
 30
0.0
 11
162.5603040926067138
 21
183.999999999999801
 31
0.0
  0
LINE
  5
14B34
  8
2
 10
168.560304092606799
 20
183.999999999999801
 30
0.0
 11
168.560304092606799
 21
195.0
 31
0.0
  0
LINE
  5
14B35
  8
2
 10
158.5
 20
191.0
 30
0.0
 11
158.5
 21
184.0
 31
0.0
  0
LINE
  5
14B36
  8
2
 10
228.439695907393201
 20
190.999999999999801
 30
0.0
 11
228.439695907393201
 21
184.0
 31
0.0
  0
LINE
  5
14B37
  8
2
 10
231.439695907393201
 20
195.0
 30
0.0
 11
231.439695907393201
 21
184.0
 31
0.0
  0
LINE
  5
14B38
  8
2
 10
237.439695907393201
 20
184.0
 30
0.0
 11
237.439695907393201
 21
195.0
 31
0.0
  0
LINE
  5
14B39
  8
2
 10
233.133769527078698
 20
184.0
 30
0.0
 11
233.133769527078698
 21
191.0
 31
0.0
  0
LINE
  5
14B3A
  8
2
 10
203.0
 20
195.0
 30
0.0
 11
203.0
 21
199.5000000000001137
 31
0.0
  0
LINE
  5
14B3B
  8
2
 10
197.0
 20
199.5000000000001137
 30
0.0
 11
197.0
 21
195.0
 31
0.0
  0
LINE
  5
14B3C
  8
2
 10
214.5822307053379916
 20
184.0000000000001137
 30
0.0
 11
214.5822307053379916
 21
178.0
 31
0.0
  0
CIRCLE
  5
14B3D
  8
0
 10
216.0594939461456079
 20
104.4396959073928031
 30
0.0
 40
4.8999999999999764
  0
CIRCLE
  5
14B44
  8
0
 10
165.560304092606799
 20
86.0594939461453663
 30
0.0
 40
4.8999999999999906
  0
CIRCLE
  5
14B51
  8
0
 10
183.9405060538543069
 20
35.5603040926065432
 30
0.0
 40
4.9000000000000039
  0
CIRCLE
  5
14B52
  8
0
 10
234.439695907393201
 20
53.9405060538545627
 30
0.0
 40
4.8999999999999764
  0
LINE
  5
14B59
  8
0
 10
223.7172392803497019
 20
94.7738636073769101
 30
0.0
 11
220.8304879344013045
 21
94.773863607376839
 31
0.0
  0
LINE
  5
14B5A
  8
0
 10
219.3871122614274043
 20
92.2738636073768674
 30
0.0
 11
220.8304879344013045
 21
94.773863607376839
 31
0.0
  0
LINE
  5
14B5B
  8
0
 10
219.3871122614274043
 20
92.2738636073768674
 30
0.0
 11
220.8304879344013045
 21
89.7738636073768674
 31
0.0
  0
LINE
  5
14B5C
  8
0
 10
220.8304879344013045
 20
89.7738636073768674
 30
0.0
 11
223.7172392803497019
 21
89.7738636073769385
 31
0.0
  0
LINE
  5
14B5D
  8
0
 10
225.1606149533236021
 20
92.2738636073768674
 30
0.0
 11
223.7172392803497019
 21
89.7738636073769385
 31
0.0
  0
LINE
  5
14B5E
  8
0
 10
225.1606149533236021
 20
92.2738636073768674
 30
0.0
 11
223.7172392803497019
 21
94.7738636073769101
 31
0.0
  0
CIRCLE
  5
14B5F
  8
0
 10
222.2738636073756027
 20
92.2738636073769101
 30
0.0
 40
5.0
  0
LINE
  5
14B60
  8
0
 10
179.1695120655971039
 20
94.7738636073757448
 30
0.0
 11
176.2827607196489055
 21
94.7738636073757448
 31
0.0
  0
LINE
  5
14B61
  8
0
 10
174.8393850466750052
 20
92.2738636073757448
 30
0.0
 11
176.2827607196489055
 21
94.7738636073757448
 31
0.0
  0
LINE
  5
14B62
  8
0
 10
174.8393850466750052
 20
92.2738636073757448
 30
0.0
 11
176.2827607196489907
 21
89.7738636073755885
 31
0.0
  0
LINE
  5
14B63
  8
0
 10
176.2827607196489907
 20
89.7738636073755885
 30
0.0
 11
179.1695120655971891
 21
89.7738636073755885
 31
0.0
  0
LINE
  5
14B64
  8
0
 10
180.612887738571203
 20
92.2738636073757448
 30
0.0
 11
179.1695120655971891
 21
89.7738636073755885
 31
0.0
  0
LINE
  5
14B65
  8
0
 10
180.612887738571203
 20
92.2738636073757448
 30
0.0
 11
179.1695120655971039
 21
94.7738636073757448
 31
0.0
  0
CIRCLE
  5
14B66
  8
0
 10
177.7261363926230047
 20
92.2738636073757448
 30
0.0
 40
5.0
  0
LINE
  5
14B67
  8
0
 10
179.1695120655984113
 20
50.226136392623097
 30
0.0
 11
176.2827607196502129
 21
50.226136392623097
 31
0.0
  0
LINE
  5
14B68
  8
0
 10
174.8393850466761137
 20
47.726136392623097
 30
0.0
 11
176.2827607196502129
 21
50.226136392623097
 31
0.0
  0
LINE
  5
14B69
  8
0
 10
174.8393850466761137
 20
47.726136392623097
 30
0.0
 11
176.2827607196502129
 21
45.226136392623161
 31
0.0
  0
LINE
  5
14B6A
  8
0
 10
176.2827607196502129
 20
45.226136392623161
 30
0.0
 11
179.1695120655984113
 21
45.2261363926231894
 31
0.0
  0
LINE
  5
14B6B
  8
0
 10
180.6128877385723968
 20
47.726136392623097
 30
0.0
 11
179.1695120655984113
 21
45.2261363926231894
 31
0.0
  0
LINE
  5
14B6C
  8
0
 10
180.6128877385723968
 20
47.726136392623097
 30
0.0
 11
179.1695120655984113
 21
50.226136392623097
 31
0.0
  0
CIRCLE
  5
14B6D
  8
0
 10
177.7261363926243121
 20
47.726136392623097
 30
0.0
 40
5.0
  0
LINE
  5
14B6E
  8
0
 10
223.7172392803510093
 20
50.2261363926246105
 30
0.0
 11
220.8304879344030098
 21
50.2261363926246389
 31
0.0
  0
LINE
  5
14B6F
  8
0
 10
219.3871122614289106
 20
47.72613639262471
 30
0.0
 11
220.8304879344030098
 21
50.2261363926246389
 31
0.0
  0
LINE
  5
14B70
  8
0
 10
219.3871122614289106
 20
47.72613639262471
 30
0.0
 11
220.8304879344030098
 21
45.22613639262471
 31
0.0
  0
LINE
  5
14B71
  8
0
 10
220.8304879344030098
 20
45.22613639262471
 30
0.0
 11
223.7172392803510093
 21
45.2261363926246815
 31
0.0
  0
LINE
  5
14B72
  8
0
 10
225.1606149533251937
 20
47.7261363926246815
 30
0.0
 11
223.7172392803510093
 21
45.2261363926246815
 31
0.0
  0
LINE
  5
14B73
  8
0
 10
225.1606149533251937
 20
47.7261363926246815
 30
0.0
 11
223.7172392803510093
 21
50.2261363926246105
 31
0.0
  0
CIRCLE
  5
14B74
  8
0
 10
222.273863607377109
 20
47.72613639262471
 30
0.0
 40
5.0
  0
CIRCLE
  5
14B75
  8
0
 10
217.5822307053379916
 20
36.3122401542598183
 30
0.0
 40
3.0
  0
CIRCLE
  5
14B76
  8
0
 10
191.8146955025208058
 20
107.1079612789970952
 30
0.0
 40
3.0
  0
CIRCLE
  5
14B77
  8
0
 10
200.0
 20
70.0000000000000284
 30
0.0
 40
45.4999999999999929
  0
CIRCLE
  5
14B78
  8
0
 10
200.0
 20
70.0000000000000284
 30
0.0
 40
45.0
  0
ARC
  5
14B79
  8
0
 10
165.560304092606799
 20
86.0594939461455652
 30
0.0
 40
6.0000000000000577
 50
248.5833216984304954
 51
61.4166783014819728
  0
ARC
  5
14B7A
  8
0
 10
162.2739739727084043
 20
77.6809478704204679
 30
0.0
 40
3.0000000000001221
 50
68.5833216985635232
 51
168.4919775635370911
  0
ARC
  5
14B7B
  8
0
 10
200.0
 20
70.0000000000000284
 30
0.0
 40
41.5000000000000995
 50
168.4919775635366932
 51
231.50802243646541
  0
ARC
  5
14B7C
  8
0
 10
176.0374055225875054
 20
39.866230472921572
 30
0.0
 40
3.0000000000000422
 50
231.508022436463591
 51
331.4166783015087958
  0
ARC
  5
14B7D
  8
0
 10
183.9405060538543069
 20
35.5603040926068914
 30
0.0
 40
6.0000000000000808
 50
35.2766400816400676
 51
151.416678301540486
  0
ARC
  5
14B7E
  8
0
 10
191.2878641259675874
 20
40.7580275712223283
 30
0.0
 40
3.0000000000000719
 50
215.2766400814082033
 51
345.4697004018814823
  0
ARC
  5
14B7F
  8
0
 10
200.0
 20
38.5000000000000284
 30
0.0
 40
6.0000000000000169
 50
3.0657321665553821
 51
165.4697004018476036
  0
ARC
  5
14B80
  8
0
 10
208.9871195198724934
 20
38.9813343282232907
 30
0.0
 40
2.999999999999996
 50
183.065732166556586
 51
342.7485334716619718
  0
ARC
  5
14B81
  8
0
 10
217.5822307053379916
 20
36.3122401542598112
 30
0.0
 40
6.0000000000000231
 50
31.1441648751623816
 51
162.7485334715773888
  0
ARC
  5
14B82
  8
0
 10
225.2850487781120137
 20
40.9669790016868518
 30
0.0
 40
2.999999999999984
 50
211.1441648751118976
 51
311.0528207402070962
  0
ARC
  5
14B83
  8
0
 10
200.0
 20
70.0000000000000284
 30
0.0
 40
41.4999999999999574
 50
311.0528207402114731
 51
321.5080224364758124
  0
ARC
  5
14B84
  8
0
 10
230.133769527078698
 20
46.0374055225878891
 30
0.0
 40
3.0000000000000022
 50
321.508022436588476
 51
61.4166783015636781
  0
ARC
  5
14B85
  8
0
 10
234.439695907393201
 20
53.9405060538547332
 30
0.0
 40
5.9999999999999956
 50
68.5833216984374587
 51
241.4166783015116948
  0
ARC
  5
14B86
  8
0
 10
237.7260260272917094
 20
62.3190521295799016
 30
0.0
 40
3.0000000000000759
 50
248.5833216985494118
 51
348.4919775635370911
  0
ARC
  5
14B87
  8
0
 10
200.0
 20
70.0000000000000284
 30
0.0
 40
41.5000000000000284
 50
348.4919775635380006
 51
51.5080224364634134
  0
ARC
  5
14B88
  8
0
 10
223.9625944774124093
 20
100.1337695270783996
 30
0.0
 40
3.000000000000087
 50
51.5080224364154518
 51
151.4166783015685951
  0
ARC
  5
14B89
  8
0
 10
216.0594939461456079
 20
104.4396959073931015
 30
0.0
 40
6.00000000000004
 50
158.5833216984318028
 51
331.4166783015123769
  0
ARC
  5
14B8A
  8
0
 10
207.6809478704205105
 20
107.7260260272914962
 30
0.0
 40
3.00000000000004
 50
338.5833216985583931
 51
78.4919775635392085
  0
ARC
  5
14B8B
  8
0
 10
200.0
 20
70.0000000000000284
 30
0.0
 40
41.5000000000000071
 50
78.4919775635392085
 51
88.9471792597943107
  0
ARC
  5
14B8C
  8
0
 10
200.7074049409785914
 20
108.4935004676046049
 30
0.0
 40
3.0000000000000222
 50
88.9471792597943107
 51
188.8558351248184124
  0
ARC
  5
14B8D
  8
0
 10
191.8146955025208058
 20
107.1079612789970952
 30
0.0
 40
6.000000000000079
 50
196.0224785217916974
 51
8.8558351248765295
  0
ARC
  5
14B8E
  8
0
 10
183.1643141577386871
 20
104.6238311314719027
 30
0.0
 40
3.0000000000000711
 50
16.0224785218233094
 51
115.9311343868669013
  0
ARC
  5
14B8F
  8
0
 10
200.0
 20
70.0000000000000284
 30
0.0
 40
41.5000000000000284
 50
115.9311343868669013
 51
141.5080224364627099
  0
ARC
  5
14B90
  8
0
 10
169.8662304729215009
 20
93.9625944774123809
 30
0.0
 40
3.0000000000000511
 50
141.5080224364000117
 51
241.4166783016287923
  0
CIRCLE
  5
14B91
  8
0
 10
200.0
 20
70.0000000000000568
 30
0.0
 40
17.0
  0
CIRCLE
  5
14B92
  8
0
 10
200.0
 20
70.0000000000000568
 30
0.0
 40
15.0
  0
LINE
  5
14BA3
  8
0
 10
100.2738636073756027
 20
194.999999999999801
 30
0.0
 11
100.2738636073756027
 21
200.999999999999801
 31
0.0
  0
LINE
  5
14BA4
  8
0
 10
94.2738636073755458
 20
200.999999999999801
 30
0.0
 11
94.2738636073755458
 21
194.999999999999801
 31
0.0
  0
LINE
  5
14BA5
  8
0
 10
55.7261363926231823
 20
195.0
 30
0.0
 11
55.7261363926231823
 21
201.0000000000001137
 31
0.0
  0
LINE
  5
14BA6
  8
0
 10
49.726136392623161
 20
201.000000000000199
 30
0.0
 11
49.726136392623161
 21
195.0
 31
0.0
  0
LINE
  5
14BA7
  8
0
 10
120.5
 20
184.499999999999801
 30
0.0
 11
120.5
 21
194.499999999999801
 31
0.0
  0
LINE
  5
14BA8
  8
0
 10
29.5
 20
194.5000000000001137
 30
0.0
 11
29.4999999999998792
 21
184.500000000000199
 31
0.0
  0
LINE
  5
14BA9
  8
0
 10
29.4999999999998792
 20
184.500000000000199
 30
0.0
 11
30.0
 21
184.0000000000001137
 31
0.0
  0
LINE
  5
14BAA
  8
0
 10
120.0
 20
183.999999999999801
 30
0.0
 11
120.5
 21
184.499999999999801
 31
0.0
  0
LINE
  5
14BAB
  8
0
 10
120.5
 20
194.499999999999801
 30
0.0
 11
120.0000000000000995
 21
194.999999999999801
 31
0.0
  0
LINE
  5
14BAC
  8
0
 10
30.0
 20
195.0000000000001137
 30
0.0
 11
29.5
 21
194.5000000000001137
 31
0.0
  0
LINE
  5
14BAD
  8
0
 10
115.1079612789970952
 20
177.999999999999801
 30
0.0
 11
115.1079612789970952
 21
183.999999999999801
 31
0.0
  0
LINE
  5
14BAE
  8
0
 10
109.1079612789970952
 20
183.999999999999801
 30
0.0
 11
109.1079612789970952
 21
177.999999999999801
 31
0.0
  0
LINE
  5
14BAF
  8
0
 10
46.5
 20
195.0
 30
0.0
 11
46.5
 21
200.4999999999998863
 31
0.0
  0
LINE
  5
14BB0
  8
0
 10
40.4999999999999929
 20
200.4999999999998863
 30
0.0
 11
40.4999999999999929
 21
195.0
 31
0.0
  0
LINE
  5
14BB1
  8
0
 10
44.3122401542598112
 20
178.0
 30
0.0
 11
44.3122401542598112
 21
184.0000000000001137
 31
0.0
  0
LINE
  5
14BCE
  8
0
 10
94.2738636073756737
 20
200.999999999999801
 30
0.0
 11
100.2738636073757021
 21
200.999999999999801
 31
0.0
  0
LINE
  5
14BCF
  8
0
 10
49.7261363926230615
 20
201.000000000000199
 30
0.0
 11
55.7261363926230473
 21
201.0000000000001137
 31
0.0
  0
LINE
  5
14BD0
  8
0
 10
29.5
 20
194.5000000000001137
 30
0.0
 11
120.4999999999999005
 21
194.499999999999801
 31
0.0
  0
LINE
  5
14BD1
  8
0
 10
29.4999999999998792
 20
184.500000000000199
 30
0.0
 11
120.4999999999999005
 21
184.499999999999801
 31
0.0
  0
LINE
  5
14BD2
  8
0
 10
30.0
 20
184.0000000000001137
 30
0.0
 11
120.0
 21
183.999999999999801
 31
0.0
  0
LINE
  5
14BD3
  8
0
 10
30.0
 20
195.0000000000001137
 30
0.0
 11
120.0000000000000995
 21
194.999999999999801
 31
0.0
  0
LINE
  5
14BD4
  8
0
 10
94.2738636073755458
 20
198.499999999999801
 30
0.0
 11
55.7261363926231823
 21
198.5
 31
0.0
  0
LINE
  5
14BD5
  8
0
 10
94.2738636073755458
 20
199.499999999999801
 30
0.0
 11
55.7261363926232818
 21
199.5
 31
0.0
  0
LINE
  5
14BD6
  8
0
 10
109.1079612789970952
 20
177.999999999999801
 30
0.0
 11
115.1079612789970952
 21
177.999999999999801
 31
0.0
  0
LINE
  5
14BD7
  8
0
 10
40.4999999999999929
 20
200.4999999999998863
 30
0.0
 11
46.5
 21
200.4999999999998863
 31
0.0
  0
LINE
  5
14BD8
  8
0
 10
43.5603040926068772
 20
178.0
 30
0.0
 11
44.3122401542598112
 21
178.0
 31
0.0
  0
LINE
  5
14BD9
  8
1
 10
250.5
 20
270.0
 30
0.0
 11
149.5
 21
270.0
 31
0.0
  0
LINE
  5
14BDA
  8
1
 10
200.0
 20
219.5
 30
0.0
 11
200.0
 21
320.5
 31
0.0
  0
LINE
  5
14BDB
  8
1
 10
250.0
 20
70.0
 30
0.0
 11
150.0
 21
70.0
 31
0.0
  0
LINE
  5
14BDC
  8
1
 10
200.0
 20
120.0
 30
0.0
 11
200.0
 21
20.0
 31
0.0
  0
CIRCLE
  5
14BDD
  8
1
 10
200.0
 20
270.0
 30
0.0
 40
31.4999999999999289
  0
CIRCLE
  5
14BDE
  8
1
 10
200.0
 20
270.0
 30
0.0
 40
37.9999999999999503
  0
LINE
  5
14BDF
  8
1
 10
239.8775426296130888
 20
288.5952035165892084
 30
0.0
 11
229.0018491851731994
 21
283.5237843757013252
 31
0.0
  0
LINE
  5
14BE0
  8
1
 10
226.8700576850897903
 20
296.8700576850877724
 30
0.0
 11
217.6776695296643993
 21
287.6776695296629782
 31
0.0
  0
CIRCLE
  5
14BE1
  8
3
 10
234.439695907393201
 20
286.0594939461453237
 30
0.0
 40
2.458499999999999
  0
CIRCLE
  5
14BE2
  8
3
 10
222.273863607377109
 20
292.2738636073754037
 30
0.0
 40
2.458499999999999
  0
LINE
  5
14BE3
  8
1
 10
181.4047964834107063
 20
309.8775426296131741
 30
0.0
 11
186.4762156242987032
 21
299.0018491851732279
 31
0.0
  0
LINE
  5
14BE4
  8
1
 10
173.1299423149121992
 20
296.8700576850898187
 30
0.0
 11
182.3223304703369081
 21
287.6776695296643993
 31
0.0
  0
CIRCLE
  5
14BE5
  8
3
 10
183.9405060538547048
 20
304.4396959073931725
 30
0.0
 40
2.458499999999999
  0
CIRCLE
  5
14BE6
  8
3
 10
177.7261363926245963
 20
292.273863607377109
 30
0.0
 40
2.458499999999999
  0
LINE
  5
14BE7
  8
1
 10
160.1224573703867122
 20
251.4047964834107063
 30
0.0
 11
170.9981508148266869
 21
256.4762156242986748
 31
0.0
  0
LINE
  5
14BE8
  8
1
 10
173.1299423149102097
 20
243.1299423149121992
 30
0.0
 11
182.3223304703356007
 21
252.3223304703369934
 31
0.0
  0
CIRCLE
  5
14BE9
  8
3
 10
165.560304092606799
 20
253.9405060538547048
 30
0.0
 40
2.458499999999999
  0
CIRCLE
  5
14BEA
  8
3
 10
177.7261363926228057
 20
247.7261363926245963
 30
0.0
 40
2.458499999999999
  0
LINE
  5
14BEB
  8
1
 10
218.5952035165892937
 20
230.1224573703867975
 30
0.0
 11
213.5237843757012115
 21
240.9981508148268006
 31
0.0
  0
LINE
  5
14BEC
  8
1
 10
226.8700576850878008
 20
243.1299423149102097
 30
0.0
 11
217.6776695296628077
 21
252.3223304703356007
 31
0.0
  0
CIRCLE
  5
14BED
  8
3
 10
216.0594939461452952
 20
235.560304092606799
 30
0.0
 40
2.458499999999999
  0
CIRCLE
  5
14BEE
  8
3
 10
222.27386360737529
 20
247.7261363926228057
 30
0.0
 40
2.458499999999999
  0
CIRCLE
  5
14BEF
  8
0
 10
200.0
 20
38.5
 30
0.0
 40
3.0
  0
CIRCLE
  5
14BF0
  8
1
 10
200.0
 20
70.0000000000000568
 30
0.0
 40
31.4999999999999289
  0
CIRCLE
  5
14BF1
  8
1
 10
200.0
 20
70.0000000000000568
 30
0.0
 40
37.9999999999999503
  0
LINE
  5
14BF2
  8
1
 10
239.8775426296130888
 20
51.4047964834107418
 30
0.0
 11
229.0018491851731994
 21
56.4762156242987174
 31
0.0
  0
LINE
  5
14BF3
  8
1
 10
227.9307178568695917
 20
42.0692821431325186
 30
0.0
 11
216.6170093578845126
 21
53.3829906421168872
 31
0.0
  0
LINE
  5
14BF4
  8
1
 10
181.4047964834107063
 20
30.1224573703868188
 30
0.0
 11
186.4762156242987032
 21
40.998150814826829
 31
0.0
  0
LINE
  5
14BF5
  8
1
 10
172.0692821431323978
 20
42.0692821431302377
 30
0.0
 11
183.3829906421167095
 21
53.3829906421154305
 31
0.0
  0
LINE
  5
14BF6
  8
1
 10
160.1224573703867122
 20
88.595203516589379
 30
0.0
 11
170.9981508148266869
 21
83.523784375701382
 31
0.0
  0
LINE
  5
14BF7
  8
1
 10
172.0692821431302093
 20
97.9307178568676306
 30
0.0
 11
183.3829906421154874
 21
86.6170093578833757
 31
0.0
  0
LINE
  5
14BF8
  8
1
 10
218.5952035165892937
 20
109.877542629613302
 30
0.0
 11
213.5237843757012115
 21
99.0018491851732705
 31
0.0
  0
LINE
  5
14BF9
  8
1
 10
227.9307178568676022
 20
97.9307178568696912
 30
0.0
 11
216.6170093578830915
 21
86.617009357884541
 31
0.0
  0
LINE
  5
14BFA
  8
1
 10
193.1071120021229035
 20
101.2488094981028013
 30
0.0
 11
190.5222790029189071
 21
112.9671130598913038
 31
0.0
  0
LINE
  5
14BFB
  8
1
 10
214.806089015021513
 20
41.6313601299030083
 30
0.0
 11
220.3583723956544986
 21
30.9931201786166284
 31
0.0
  0
LINE
  5
14C14
  8
1
 10
75.0
 20
205.0
 30
0.0
 11
75.0
 21
179.0
 31
0.0
  0
LINE
  5
14C15
  8
1
 10
199.999999999999801
 20
205.0
 30
0.0
 11
199.999999999999801
 21
179.0
 31
0.0
  0
LINE
  5
14C16
  8
1
 10
40.7578980093648866
 20
126.000000000000199
 30
0.0
 11
40.5603040926065432
 21
198.0000000000001137
 31
0.0
  0
LINE
  5
14C17
  8
1
 10
59.1380999706127426
 20
126.000000000000199
 30
0.0
 11
58.9405060538543779
 21
198.0000000000001137
 31
0.0
  0
LINE
  5
14C18
  8
1
 10
91.2570878629036031
 20
126.000000000000199
 30
0.0
 11
91.0594939461452668
 21
197.999999999999801
 31
0.0
  0
LINE
  5
14C19
  8
1
 10
109.6372898241509972
 20
126.000000000000199
 30
0.0
 11
109.4396959073926041
 21
197.999999999999801
 31
0.0
  0
LINE
  5
14C1A
  8
1
 10
191.8146955025208058
 20
174.999999999999801
 30
0.0
 11
191.8146955025208058
 21
197.999999999999801
 31
0.0
  0
LINE
  5
14C1B
  8
1
 10
222.2738636073756027
 20
181.999999999999801
 30
0.0
 11
222.2738636073756027
 21
203.9999999999998863
 31
0.0
  0
LINE
  5
14C1C
  8
1
 10
177.7261363926230047
 20
181.999999999999801
 30
0.0
 11
177.7261363926230047
 21
203.9999999999998863
 31
0.0
  0
LINE
  5
14C1D
  8
1
 10
97.2738636073756737
 20
181.999999999999801
 30
0.0
 11
97.2738636073756737
 21
203.9999999999998863
 31
0.0
  0
LINE
  5
14C1E
  8
1
 10
52.7261363926230473
 20
182.0000000000001137
 30
0.0
 11
52.7261363926230473
 21
204.0
 31
0.0
  0
LINE
  5
14C1F
  8
1
 10
217.5822307053379916
 20
175.0
 30
0.0
 11
217.5822307053379916
 21
198.0
 31
0.0
  0
LINE
  5
14C20
  8
1
 10
112.1079612789970952
 20
174.999999999999801
 30
0.0
 11
112.1079612789970952
 21
197.999999999999801
 31
0.0
  0
LINE
  5
14C21
  8
1
 10
41.312240154259797
 20
175.0
 30
0.0
 11
41.312240154259797
 21
198.0
 31
0.0
  0
LINE
  5
14C22
  8
1
 10
165.7578980093647942
 20
126.000000000000199
 30
0.0
 11
165.5603040926064011
 21
197.999999999999801
 31
0.0
  0
LINE
  5
14C23
  8
1
 10
184.1380999706123873
 20
126.000000000000199
 30
0.0
 11
183.9405060538539942
 21
198.0000000000001137
 31
0.0
  0
LINE
  5
14C24
  8
1
 10
216.257087862903802
 20
126.000000000000199
 30
0.0
 11
216.0594939461454089
 21
197.999999999999801
 31
0.0
  0
LINE
  5
14C25
  8
1
 10
234.6372898241513099
 20
126.000000000000199
 30
0.0
 11
234.439695907393002
 21
198.000000000000199
 31
0.0
  0
LINE
  5
14C26
  8
1
 10
43.5
 20
180.999999999999801
 30
0.0
 11
43.5
 21
203.4999999999998863
 31
0.0
  0
LINE
  5
14C58
  8
0
 10
239.4781169467628104
 20
129.0000000000001137
 30
0.0
 11
239.4781169467628104
 21
135.0000000000001137
 31
0.0
  0
LINE
  5
14C59
  8
0
 10
229.4781169467628104
 20
135.0000000000001137
 30
0.0
 11
229.4781169467628104
 21
129.0000000000001137
 31
0.0
  0
LINE
  5
14C5A
  8
0
 10
237.4781169467628104
 20
135.0000000000001137
 30
0.0
 11
237.4781169467628104
 21
184.0
 31
0.0
  0
LINE
  5
14C5B
  8
0
 10
231.4781169467628104
 20
184.0
 30
0.0
 11
231.4781169467628104
 21
135.0000000000001137
 31
0.0
  0
LINE
  5
14C5C
  8
0
 10
239.4781169467626967
 20
129.0000000000001137
 30
0.0
 11
229.4781169467628104
 21
129.0000000000001137
 31
0.0
  0
LINE
  5
14C5D
  8
0
 10
239.4781169467626967
 20
135.0000000000001137
 30
0.0
 11
229.4781169467628104
 21
135.0000000000001137
 31
0.0
  0
LINE
  5
14C5E
  8
0
 10
237.4781169467626967
 20
170.0000000000001137
 30
0.0
 11
231.4781169467626967
 21
170.0000000000001137
 31
0.0
  0
LINE
  5
14C5F
  8
3
 10
236.936616946762598
 20
170.0000000000001137
 30
0.0
 11
236.936616946762598
 21
184.0000000000001137
 31
0.0
  0
LINE
  5
14C60
  8
3
 10
232.0196169467627101
 20
170.0000000000001137
 30
0.0
 11
232.0196169467625111
 21
184.0000000000001137
 31
0.0
  0
LINE
  5
14C61
  8
0
 10
221.0979149855151888
 20
129.0000000000001137
 30
0.0
 11
221.0979149855151888
 21
135.0000000000001137
 31
0.0
  0
LINE
  5
14C62
  8
0
 10
211.0979149855151888
 20
135.0000000000001137
 30
0.0
 11
211.0979149855151888
 21
129.0000000000001137
 31
0.0
  0
LINE
  5
14C63
  8
0
 10
219.0979149855151888
 20
135.0000000000001137
 30
0.0
 11
219.0979149855151888
 21
184.0
 31
0.0
  0
LINE
  5
14C64
  8
0
 10
213.0979149855151888
 20
184.0
 30
0.0
 11
213.0979149855151888
 21
135.0000000000001137
 31
0.0
  0
LINE
  5
14C65
  8
0
 10
221.0979149855149899
 20
129.0000000000001137
 30
0.0
 11
211.0979149855151888
 21
129.0000000000001137
 31
0.0
  0
LINE
  5
14C66
  8
0
 10
221.0979149855149899
 20
135.0000000000001137
 30
0.0
 11
211.0979149855151888
 21
135.0000000000001137
 31
0.0
  0
LINE
  5
14C67
  8
0
 10
219.0979149855149899
 20
170.0000000000001137
 30
0.0
 11
213.0979149855149899
 21
170.0000000000001137
 31
0.0
  0
LINE
  5
14C68
  8
3
 10
218.5564149855150049
 20
170.0000000000001137
 30
0.0
 11
218.5564149855150049
 21
184.0000000000001137
 31
0.0
  0
LINE
  5
14C69
  8
3
 10
213.6394149855150886
 20
170.0000000000001137
 30
0.0
 11
213.6394149855150033
 21
184.0000000000001137
 31
0.0
  0
LINE
  5
14C6A
  8
0
 10
188.9789270932238026
 20
129.0000000000001137
 30
0.0
 11
188.9789270932238026
 21
135.0000000000001137
 31
0.0
  0
LINE
  5
14C6B
  8
0
 10
178.9789270932238026
 20
135.0000000000001137
 30
0.0
 11
178.9789270932238026
 21
129.0000000000001137
 31
0.0
  0
LINE
  5
14C6C
  8
0
 10
186.9789270932238026
 20
135.0000000000001137
 30
0.0
 11
186.9789270932238026
 21
184.0
 31
0.0
  0
LINE
  5
14C6D
  8
0
 10
180.9789270932238026
 20
184.0
 30
0.0
 11
180.9789270932238026
 21
135.0000000000001137
 31
0.0
  0
LINE
  5
14C6E
  8
0
 10
188.9789270932236889
 20
129.0000000000001137
 30
0.0
 11
178.9789270932238026
 21
129.0000000000001137
 31
0.0
  0
LINE
  5
14C6F
  8
0
 10
188.9789270932236889
 20
135.0000000000001137
 30
0.0
 11
178.9789270932238026
 21
135.0000000000001137
 31
0.0
  0
LINE
  5
14C70
  8
0
 10
186.9789270932236889
 20
170.0000000000001137
 30
0.0
 11
180.9789270932236889
 21
170.0000000000001137
 31
0.0
  0
LINE
  5
14C71
  8
3
 10
186.4374270932237039
 20
170.0000000000001137
 30
0.0
 11
186.4374270932237039
 21
184.0000000000001137
 31
0.0
  0
LINE
  5
14C72
  8
3
 10
181.5204270932235886
 20
170.0000000000001137
 30
0.0
 11
181.5204270932235886
 21
184.0000000000001137
 31
0.0
  0
LINE
  5
14C73
  8
0
 10
170.5987251319762947
 20
129.0000000000001137
 30
0.0
 11
170.5987251319762947
 21
135.0000000000001137
 31
0.0
  0
LINE
  5
14C74
  8
0
 10
160.5987251319762947
 20
135.0000000000001137
 30
0.0
 11
160.5987251319762947
 21
129.0000000000001137
 31
0.0
  0
LINE
  5
14C75
  8
0
 10
168.5987251319762947
 20
135.0000000000001137
 30
0.0
 11
168.5987251319762947
 21
184.0
 31
0.0
  0
LINE
  5
14C76
  8
0
 10
162.5987251319762947
 20
184.0
 30
0.0
 11
162.5987251319762947
 21
135.0000000000001137
 31
0.0
  0
LINE
  5
14C77
  8
0
 10
170.5987251319760958
 20
129.0000000000001137
 30
0.0
 11
160.5987251319762947
 21
129.0000000000001137
 31
0.0
  0
LINE
  5
14C78
  8
0
 10
170.5987251319760958
 20
135.0000000000001137
 30
0.0
 11
160.5987251319762947
 21
135.0000000000001137
 31
0.0
  0
LINE
  5
14C79
  8
0
 10
168.5987251319762095
 20
170.0000000000001137
 30
0.0
 11
162.5987251319760958
 21
170.0000000000001137
 31
0.0
  0
LINE
  5
14C7A
  8
3
 10
168.0572251319761108
 20
170.0000000000001137
 30
0.0
 11
168.0572251319761108
 21
184.0000000000001137
 31
0.0
  0
LINE
  5
14C7B
  8
3
 10
163.1402251319761945
 20
170.0000000000001137
 30
0.0
 11
163.1402251319761092
 21
184.0000000000001137
 31
0.0
  0
LINE
  5
14C7C
  8
0
 10
114.4781169467623982
 20
128.9999999999998863
 30
0.0
 11
114.4781169467623982
 21
134.9999999999998863
 31
0.0
  0
LINE
  5
14C7D
  8
0
 10
104.4781169467623982
 20
134.9999999999998863
 30
0.0
 11
104.4781169467623982
 21
128.9999999999998863
 31
0.0
  0
LINE
  5
14C7E
  8
0
 10
112.4781169467623982
 20
134.9999999999998863
 30
0.0
 11
112.4781169467623982
 21
177.999999999999801
 31
0.0
  0
LINE
  5
14C7F
  8
0
 10
106.4781169467623982
 20
183.999999999999801
 30
0.0
 11
106.4781169467623982
 21
134.9999999999998863
 31
0.0
  0
LINE
  5
14C80
  8
0
 10
114.4781169467621993
 20
128.9999999999998863
 30
0.0
 11
104.4781169467623982
 21
128.9999999999998863
 31
0.0
  0
LINE
  5
14C81
  8
0
 10
114.4781169467621993
 20
134.9999999999998863
 30
0.0
 11
104.4781169467623982
 21
134.9999999999998863
 31
0.0
  0
LINE
  5
14C82
  8
0
 10
112.4781169467621993
 20
170.0
 30
0.0
 11
106.4781169467622988
 21
170.0
 31
0.0
  0
LINE
  5
14C83
  8
3
 10
111.9366169467622996
 20
170.0
 30
0.0
 11
111.9366169467622996
 21
177.999999999999801
 31
0.0
  0
LINE
  5
14C84
  8
3
 10
107.0196169467621985
 20
170.0
 30
0.0
 11
107.0196169467621985
 21
183.999999999999801
 31
0.0
  0
LINE
  5
14C85
  8
0
 10
96.0979149855150325
 20
129.0
 30
0.0
 11
96.0979149855150325
 21
135.0
 31
0.0
  0
LINE
  5
14C86
  8
0
 10
86.0979149855150325
 20
135.0
 30
0.0
 11
86.0979149855150325
 21
129.0
 31
0.0
  0
LINE
  5
14C87
  8
0
 10
94.0979149855150467
 20
135.0
 30
0.0
 11
94.0979149855150467
 21
183.999999999999801
 31
0.0
  0
LINE
  5
14C88
  8
0
 10
88.0979149855150183
 20
183.999999999999801
 30
0.0
 11
88.0979149855150183
 21
135.0
 31
0.0
  0
LINE
  5
14C89
  8
0
 10
96.0979149855149046
 20
129.0
 30
0.0
 11
86.0979149855150325
 21
129.0
 31
0.0
  0
LINE
  5
14C8A
  8
0
 10
96.0979149855149046
 20
135.0
 30
0.0
 11
86.0979149855150325
 21
135.0
 31
0.0
  0
LINE
  5
14C8B
  8
0
 10
94.0979149855149046
 20
170.0
 30
0.0
 11
88.0979149855149331
 21
170.0
 31
0.0
  0
LINE
  5
14C8C
  8
3
 10
93.5564149855149054
 20
170.0
 30
0.0
 11
93.5564149855149054
 21
184.0
 31
0.0
  0
LINE
  5
14C8D
  8
3
 10
88.6394149855149891
 20
170.0
 30
0.0
 11
88.6394149855148612
 21
184.0
 31
0.0
  0
LINE
  5
14C8E
  8
0
 10
63.978927093224172
 20
129.0000000000001137
 30
0.0
 11
63.978927093224172
 21
135.0000000000001137
 31
0.0
  0
LINE
  5
14C8F
  8
0
 10
53.978927093224172
 20
135.0000000000001137
 30
0.0
 11
53.978927093224172
 21
129.0000000000001137
 31
0.0
  0
LINE
  5
14C90
  8
0
 10
61.978927093224172
 20
135.0000000000001137
 30
0.0
 11
61.978927093224172
 21
184.0
 31
0.0
  0
LINE
  5
14C91
  8
0
 10
55.978927093224172
 20
184.0
 30
0.0
 11
55.978927093224172
 21
135.0000000000001137
 31
0.0
  0
LINE
  5
14C92
  8
0
 10
63.9789270932240512
 20
129.0000000000001137
 30
0.0
 11
53.978927093224172
 21
129.0000000000001137
 31
0.0
  0
LINE
  5
14C93
  8
0
 10
63.9789270932240512
 20
135.0000000000001137
 30
0.0
 11
53.978927093224172
 21
135.0000000000001137
 31
0.0
  0
LINE
  5
14C94
  8
0
 10
61.9789270932240512
 20
170.0000000000001137
 30
0.0
 11
55.9789270932240584
 21
170.0000000000001137
 31
0.0
  0
LINE
  5
14C95
  8
3
 10
61.4374270932240094
 20
170.0000000000001137
 30
0.0
 11
61.4374270932240094
 21
184.0000000000001137
 31
0.0
  0
LINE
  5
14C96
  8
3
 10
56.5204270932240931
 20
170.0000000000001137
 30
0.0
 11
56.5204270932239723
 21
184.0000000000001137
 31
0.0
  0
LINE
  5
14C97
  8
0
 10
45.5987251319763232
 20
129.000000000000199
 30
0.0
 11
45.5987251319763232
 21
135.000000000000199
 31
0.0
  0
LINE
  5
14C98
  8
0
 10
35.5987251319763232
 20
135.000000000000199
 30
0.0
 11
35.5987251319763232
 21
129.000000000000199
 31
0.0
  0
LINE
  5
14C99
  8
0
 10
43.5987251319763232
 20
135.000000000000199
 30
0.0
 11
43.5987251319763232
 21
184.0000000000001137
 31
0.0
  0
LINE
  5
14C9A
  8
0
 10
37.5987251319763232
 20
184.0000000000001137
 30
0.0
 11
37.5987251319763232
 21
135.000000000000199
 31
0.0
  0
LINE
  5
14C9B
  8
0
 10
45.5987251319761882
 20
129.000000000000199
 30
0.0
 11
35.5987251319763232
 21
129.000000000000199
 31
0.0
  0
LINE
  5
14C9C
  8
0
 10
45.5987251319761882
 20
135.000000000000199
 30
0.0
 11
35.5987251319763232
 21
135.000000000000199
 31
0.0
  0
LINE
  5
14C9D
  8
0
 10
43.5987251319762024
 20
170.000000000000199
 30
0.0
 11
37.5987251319762024
 21
170.000000000000199
 31
0.0
  0
LINE
  5
14C9E
  8
3
 10
43.0572251319761676
 20
170.000000000000199
 30
0.0
 11
43.0572251319761676
 21
184.000000000000199
 31
0.0
  0
LINE
  5
14C9F
  8
3
 10
38.1402251319762513
 20
170.000000000000199
 30
0.0
 11
38.1402251319761376
 21
184.000000000000199
 31
0.0
  0
CIRCLE
  5
14CA1
  8
0
 10
217.5822307053379916
 20
303.6877598457401177
 30
0.0
 40
3.0
  0
CIRCLE
  5
14CA2
  8
0
 10
191.8146955025208058
 20
232.8920387210029048
 30
0.0
 40
3.0
  0
LINE
  5
14CA3
  8
1
 10
193.1071120021229035
 20
238.7511905018970992
 30
0.0
 11
190.5222790029189071
 21
227.0328869401085115
 31
0.0
  0
LINE
  5
14CA4
  8
1
 10
214.806089015021513
 20
298.368639870097013
 30
0.0
 11
220.3583723956544986
 21
309.0068798213833929
 31
0.0
  0
POLYLINE
  5
1522C
  8
0
 66
     1
 10
0.0
 20
0.0
 30
0.0
  0
VERTEX
  5
156EF
  8
0
 10
237.3264472533413141
 20
58.9405060538545484
 30
0.0
  0
VERTEX
  5
156F0
  8
0
 10
237.4244103375793884
 20
58.7708290146881609
 30
0.0
  0
VERTEX
  5
156F1
  8
0
 10
237.5224320229675072
 20
58.6010504753524799
 30
0.0
  0
VERTEX
  5
156F2
  8
0
 10
237.6205709106556014
 20
58.431068935678212
 30
0.0
  0
VERTEX
  5
156F3
  8
0
 10
237.7188856017939997
 20
58.2607828954960922
 30
0.0
  0
VERTEX
  5
156F4
  8
0
 10
237.8174346975326898
 20
58.0900908546367916
 30
0.0
  0
VERTEX
  5
156F5
  8
0
 10
237.9162767990216025
 20
57.9188913129310379
 30
0.0
  0
VERTEX
  5
156F6
  8
0
 10
238.0154705074110097
 20
57.7470827702095519
 30
0.0
  0
VERTEX
  5
156F7
  8
0
 10
238.1150736972055881
 20
57.5745649848892214
 30
0.0
  0
VERTEX
  5
156F8
  8
0
 10
238.2150984645242886
 20
57.4013170058779494
 30
0.0
  0
VERTEX
  5
156F9
  8
0
 10
238.3154846664562001
 20
57.2274430037530308
 30
0.0
  0
VERTEX
  5
156FA
  8
0
 10
238.4161657936263907
 20
57.0530581761310103
 30
0.0
  0
VERTEX
  5
156FB
  8
0
 10
238.5170753366599001
 20
56.8782777206284891
 30
0.0
  0
VERTEX
  5
156FC
  8
0
 10
238.6181467861817111
 20
56.7032168348620687
 30
0.0
  0
VERTEX
  5
156FD
  8
0
 10
238.7193136328168919
 20
56.5279907164483078
 30
0.0
  0
VERTEX
  5
156FE
  8
0
 10
238.8205093671905956
 20
56.3527145630038007
 30
0.0
  0
VERTEX
  5
156FF
  8
0
 10
238.9216676493103932
 20
56.1775032787660891
 30
0.0
  0
VERTEX
  5
15700
  8
0
 10
239.0227262858894051
 20
56.0024645856674326
 30
0.0
  0
VERTEX
  5
15701
  8
0
 10
239.1236273747248902
 20
55.8276987732653183
 30
0.0
  0
VERTEX
  5
15702
  8
0
 10
239.2243132118825031
 20
55.6533057877059321
 30
0.0
  0
VERTEX
  5
15703
  8
0
 10
239.3247260934276142
 20
55.4793855751354386
 30
0.0
  0
VERTEX
  5
15704
  8
0
 10
239.4248083154259064
 20
55.3060380817000095
 30
0.0
  0
VERTEX
  5
15705
  8
0
 10
239.5245021739430058
 20
55.1333632535458165
 30
0.0
  0
VERTEX
  5
15706
  8
0
 10
239.6237608341727992
 20
54.9614422109366387
 30
0.0
  0
VERTEX
  5
15707
  8
0
 10
239.7226164535343003
 20
54.7902192555887666
 30
0.0
  0
VERTEX
  5
15708
  8
0
 10
239.8211360773456136
 20
54.6195782616049996
 30
0.0
  0
VERTEX
  5
15709
  8
0
 10
239.919386904716788
 20
54.4494028367125082
 30
0.0
  0
VERTEX
  5
1570A
  8
0
 10
240.0174361347577019
 20
54.2795765886384771
 30
0.0
  0
VERTEX
  5
1570B
  8
0
 10
240.1153509665786885
 20
54.1099831251100767
 30
0.0
  0
VERTEX
  5
1570C
  8
0
 10
240.2131985992895977
 20
53.94050605385452
 30
0.0
  0
SEQEND
  5
1570D
  8
0
  0
POLYLINE
  5
1522D
  8
0
 66
     1
 10
0.0
 20
0.0
 30
0.0
  0
VERTEX
  5
1570E
  8
0
 10
231.5529445614452015
 20
58.9405060538545627
 30
0.0
  0
VERTEX
  5
1570F
  8
0
 10
231.714426107592999
 20
58.9405060538545627
 30
0.0
  0
VERTEX
  5
15710
  8
0
 10
231.8760650154679013
 20
58.9405060538545627
 30
0.0
  0
VERTEX
  5
15711
  8
0
 10
232.0380186467974113
 20
58.9405060538545627
 30
0.0
  0
VERTEX
  5
15712
  8
0
 10
232.2004443633084065
 20
58.9405060538545698
 30
0.0
  0
VERTEX
  5
15713
  8
0
 10
232.3634847721708923
 20
58.9405060538545698
 30
0.0
  0
VERTEX
  5
15714
  8
0
 10
232.5271576080691034
 20
58.9405060538545698
 30
0.0
  0
VERTEX
  5
15715
  8
0
 10
232.6914177826996024
 20
58.9405060538545627
 30
0.0
  0
VERTEX
  5
15716
  8
0
 10
232.8562197309501016
 20
58.9405060538545627
 30
0.0
  0
VERTEX
  5
15717
  8
0
 10
233.0215178877085975
 20
58.9405060538545484
 30
0.0
  0
VERTEX
  5
15718
  8
0
 10
233.1872666878626035
 20
58.9405060538545484
 30
0.0
  0
VERTEX
  5
15719
  8
0
 10
233.3534205663000023
 20
58.9405060538545484
 30
0.0
  0
VERTEX
  5
1571A
  8
0
 10
233.5199339579085063
 20
58.9405060538545413
 30
0.0
  0
VERTEX
  5
1571B
  8
0
 10
233.6867612975761119
 20
58.9405060538545413
 30
0.0
  0
VERTEX
  5
1571C
  8
0
 10
233.8538546482189133
 20
58.9405060538545413
 30
0.0
  0
VERTEX
  5
1571D
  8
0
 10
234.0211563792780112
 20
58.9405060538545413
 30
0.0
  0
VERTEX
  5
1571E
  8
0
 10
234.1886063843199963
 20
58.9405060538545413
 30
0.0
  0
VERTEX
  5
1571F
  8
0
 10
234.3561445569108059
 20
58.9405060538545413
 30
0.0
  0
VERTEX
  5
15720
  8
0
 10
234.5237107906166045
 20
58.9405060538545413
 30
0.0
  0
VERTEX
  5
15721
  8
0
 10
234.6912449790031019
 20
58.9405060538545413
 30
0.0
  0
VERTEX
  5
15722
  8
0
 10
234.8586870156358941
 20
58.9405060538545413
 30
0.0
  0
VERTEX
  5
15723
  8
0
 10
235.0259767940812026
 20
58.9405060538545413
 30
0.0
  0
VERTEX
  5
15724
  8
0
 10
235.1930542079059023
 20
58.94050605385452
 30
0.0
  0
VERTEX
  5
15725
  8
0
 10
235.3598595402538933
 20
58.94050605385452
 30
0.0
  0
VERTEX
  5
15726
  8
0
 10
235.526334567386499
 20
58.94050605385452
 30
0.0
  0
VERTEX
  5
15727
  8
0
 10
235.6924214232230099
 20
58.94050605385452
 30
0.0
  0
VERTEX
  5
15728
  8
0
 10
235.8580622416824895
 20
58.94050605385452
 30
0.0
  0
VERTEX
  5
15729
  8
0
 10
236.0231991566843988
 20
58.94050605385452
 30
0.0
  0
VERTEX
  5
1572A
  8
0
 10
236.1877743021478864
 20
58.9405060538545413
 30
0.0
  0
VERTEX
  5
1572B
  8
0
 10
236.3517332868341896
 20
58.9405060538545413
 30
0.0
  0
VERTEX
  5
1572C
  8
0
 10
236.5150980998286059
 20
58.9405060538545413
 30
0.0
  0
VERTEX
  5
1572D
  8
0
 10
236.6779651935993058
 20
58.9405060538545484
 30
0.0
  0
VERTEX
  5
1572E
  8
0
 10
236.8404341119912999
 20
58.9405060538545484
 30
0.0
  0
VERTEX
  5
1572F
  8
0
 10
237.0026043988492006
 20
58.9405060538545484
 30
0.0
  0
VERTEX
  5
15730
  8
0
 10
237.164575598017592
 20
58.9405060538545484
 30
0.0
  0
VERTEX
  5
15731
  8
0
 10
237.3264472533413141
 20
58.9405060538545484
 30
0.0
  0
SEQEND
  5
15732
  8
0
  0
POLYLINE
  5
1522E
  8
0
 66
     1
 10
0.0
 20
0.0
 30
0.0
  0
VERTEX
  5
15733
  8
0
 10
228.6661932154970032
 20
53.9405060538545769
 30
0.0
  0
VERTEX
  5
15734
  8
0
 10
228.7641562997349922
 20
54.1101830930209573
 30
0.0
  0
VERTEX
  5
15735
  8
0
 10
228.8621779851229121
 20
54.2799616323566312
 30
0.0
  0
VERTEX
  5
15736
  8
0
 10
228.9603168728112053
 20
54.449943172030892
 30
0.0
  0
VERTEX
  5
15737
  8
0
 10
229.0586315639496036
 20
54.6202292122130189
 30
0.0
  0
VERTEX
  5
15738
  8
0
 10
229.1571806596882936
 20
54.7909212530723124
 30
0.0
  0
VERTEX
  5
15739
  8
0
 10
229.2560227611772063
 20
54.9621207947780377
 30
0.0
  0
VERTEX
  5
1573A
  8
0
 10
229.3552164695666136
 20
55.1339293374995307
 30
0.0
  0
VERTEX
  5
1573B
  8
0
 10
229.454819659361192
 20
55.3064471228198613
 30
0.0
  0
VERTEX
  5
1573C
  8
0
 10
229.5548444266798924
 20
55.4796951018311191
 30
0.0
  0
VERTEX
  5
1573D
  8
0
 10
229.6552306286118892
 20
55.6535691039560589
 30
0.0
  0
VERTEX
  5
1573E
  8
0
 10
229.7559117557819945
 20
55.8279539315780795
 30
0.0
  0
VERTEX
  5
1573F
  8
0
 10
229.856821298815504
 20
56.0027343870806007
 30
0.0
  0
VERTEX
  5
15740
  8
0
 10
229.9578927483374002
 20
56.1777952728470282
 30
0.0
  0
VERTEX
  5
15741
  8
0
 10
230.0590595949726094
 20
56.353021391260782
 30
0.0
  0
VERTEX
  5
15742
  8
0
 10
230.1602553293461995
 20
56.528297544705282
 30
0.0
  0
VERTEX
  5
15743
  8
0
 10
230.2614136114661108
 20
56.7035088289429794
 30
0.0
  0
VERTEX
  5
15744
  8
0
 10
230.3624722480452078
 20
56.8785475220416501
 30
0.0
  0
VERTEX
  5
15745
  8
0
 10
230.4633733368806077
 20
57.0533133344437715
 30
0.0
  0
VERTEX
  5
15746
  8
0
 10
230.5640591740381069
 20
57.2277063200031506
 30
0.0
  0
VERTEX
  5
15747
  8
0
 10
230.6644720555833032
 20
57.401626532573637
 30
0.0
  0
VERTEX
  5
15748
  8
0
 10
230.7645542775815954
 20
57.5749740260090803
 30
0.0
  0
VERTEX
  5
15749
  8
0
 10
230.8642481360986949
 20
57.747648854163252
 30
0.0
  0
VERTEX
  5
1574A
  8
0
 10
230.963506796328403
 20
57.9195698967724226
 30
0.0
  0
VERTEX
  5
1574B
  8
0
 10
231.0623624156899893
 20
58.0907928521202805
 30
0.0
  0
VERTEX
  5
1574C
  8
0
 10
231.160882039501189
 20
58.2614338461040475
 30
0.0
  0
VERTEX
  5
1574D
  8
0
 10
231.2591328668723918
 20
58.4316092709965389
 30
0.0
  0
VERTEX
  5
1574E
  8
0
 10
231.357182096913391
 20
58.60143551907057
 30
0.0
  0
VERTEX
  5
1574F
  8
0
 10
231.455096928734207
 20
58.7710289825989705
 30
0.0
  0
VERTEX
  5
15750
  8
0
 10
231.5529445614452015
 20
58.9405060538545484
 30
0.0
  0
SEQEND
  5
15751
  8
0
  0
POLYLINE
  5
1522F
  8
0
 66
     1
 10
0.0
 20
0.0
 30
0.0
  0
VERTEX
  5
15752
  8
0
 10
231.5529445614452015
 20
48.9405060538545484
 30
0.0
  0
VERTEX
  5
15753
  8
0
 10
231.4549814772072125
 20
49.1101830930209289
 30
0.0
  0
VERTEX
  5
15754
  8
0
 10
231.3569597918190937
 20
49.2799616323566099
 30
0.0
  0
VERTEX
  5
15755
  8
0
 10
231.2588209041309142
 20
49.4499431720308706
 30
0.0
  0
VERTEX
  5
15756
  8
0
 10
231.1605062129924022
 20
49.6202292122129975
 30
0.0
  0
VERTEX
  5
15757
  8
0
 10
231.0619571172539111
 20
49.7909212530722911
 30
0.0
  0
VERTEX
  5
15758
  8
0
 10
230.9631150157647994
 20
49.9621207947780306
 30
0.0
  0
VERTEX
  5
15759
  8
0
 10
230.8639213073755911
 20
50.1339293374995165
 30
0.0
  0
VERTEX
  5
1575A
  8
0
 10
230.7643181175808991
 20
50.3064471228198471
 30
0.0
  0
VERTEX
  5
1575B
  8
0
 10
230.6642933502621133
 20
50.479695101831112
 30
0.0
  0
VERTEX
  5
1575C
  8
0
 10
230.5639071483302871
 20
50.6535691039560376
 30
0.0
  0
VERTEX
  5
1575D
  8
0
 10
230.4632260211600112
 20
50.8279539315780582
 30
0.0
  0
VERTEX
  5
1575E
  8
0
 10
230.3623164781265018
 20
51.0027343870805865
 30
0.0
  0
VERTEX
  5
1575F
  8
0
 10
230.2612450286048045
 20
51.1777952728470211
 30
0.0
  0
VERTEX
  5
15760
  8
0
 10
230.1600781819695101
 20
51.353021391260782
 30
0.0
  0
VERTEX
  5
15761
  8
0
 10
230.0588824475958063
 20
51.528297544705282
 30
0.0
  0
VERTEX
  5
15762
  8
0
 10
229.9577241654762076
 20
51.7035088289430007
 30
0.0
  0
VERTEX
  5
15763
  8
0
 10
229.8566655288971958
 20
51.8785475220416572
 30
0.0
  0
VERTEX
  5
15764
  8
0
 10
229.7557644400615118
 20
52.0533133344437715
 30
0.0
  0
VERTEX
  5
15765
  8
0
 10
229.6550786029040125
 20
52.2277063200031577
 30
0.0
  0
VERTEX
  5
15766
  8
0
 10
229.5546657213589867
 20
52.401626532573637
 30
0.0
  0
VERTEX
  5
15767
  8
0
 10
229.4545834993606093
 20
52.5749740260090803
 30
0.0
  0
VERTEX
  5
15768
  8
0
 10
229.3548896408435951
 20
52.7476488541632804
 30
0.0
  0
VERTEX
  5
15769
  8
0
 10
229.2556309806138017
 20
52.919569896772451
 30
0.0
  0
VERTEX
  5
1576A
  8
0
 10
229.1567753612521869
 20
53.090792852120309
 30
0.0
  0
VERTEX
  5
1576B
  8
0
 10
229.0582557374409873
 20
53.2614338461040902
 30
0.0
  0
VERTEX
  5
1576C
  8
0
 10
228.9600049100698982
 20
53.4316092709965602
 30
0.0
  0
VERTEX
  5
1576D
  8
0
 10
228.8619556800288137
 20
53.6014355190705984
 30
0.0
  0
VERTEX
  5
1576E
  8
0
 10
228.7640408482077987
 20
53.7710289825989918
 30
0.0
  0
VERTEX
  5
1576F
  8
0
 10
228.6661932154970032
 20
53.9405060538545698
 30
0.0
  0
SEQEND
  5
15770
  8
0
  0
POLYLINE
  5
15230
  8
0
 66
     1
 10
0.0
 20
0.0
 30
0.0
  0
VERTEX
  5
15771
  8
0
 10
237.3264472533413141
 20
48.94050605385452
 30
0.0
  0
VERTEX
  5
15772
  8
0
 10
237.1645756519932888
 20
48.94050605385452
 30
0.0
  0
VERTEX
  5
15773
  8
0
 10
237.0026043949441998
 20
48.94050605385452
 30
0.0
  0
VERTEX
  5
15774
  8
0
 10
236.8404338264930118
 20
48.94050605385452
 30
0.0
  0
VERTEX
  5
15775
  8
0
 10
236.6779642909386041
 20
48.94050605385452
 30
0.0
  0
VERTEX
  5
15776
  8
0
 10
236.515096132579913
 20
48.94050605385452
 30
0.0
  0
VERTEX
  5
15777
  8
0
 10
236.3517296957157896
 20
48.94050605385452
 30
0.0
  0
VERTEX
  5
15778
  8
0
 10
236.187768429642091
 20
48.9405060538545413
 30
0.0
  0
VERTEX
  5
15779
  8
0
 10
236.0231905649210091
 20
48.9405060538545413
 30
0.0
  0
VERTEX
  5
1577A
  8
0
 10
235.8580510328062019
 20
48.9405060538545413
 30
0.0
  0
VERTEX
  5
1577B
  8
0
 10
235.6924082535097966
 20
48.9405060538545413
 30
0.0
  0
VERTEX
  5
1577C
  8
0
 10
235.5263206472442903
 20
48.9405060538545484
 30
0.0
  0
VERTEX
  5
1577D
  8
0
 10
235.3598466342222082
 20
48.9405060538545484
 30
0.0
  0
VERTEX
  5
1577E
  8
0
 10
235.1930446346555925
 20
48.9405060538545484
 30
0.0
  0
VERTEX
  5
1577F
  8
0
 10
235.0259732343400003
 20
48.9405060538545484
 30
0.0
  0
VERTEX
  5
15780
  8
0
 10
234.8586917102117866
 20
48.9405060538545484
 30
0.0
  0
VERTEX
  5
15781
  8
0
 10
234.6912595195065023
 20
48.9405060538545627
 30
0.0
  0
VERTEX
  5
15782
  8
0
 10
234.5237361194598122
 20
48.9405060538545627
 30
0.0
  0
VERTEX
  5
15783
  8
0
 10
234.3561809673076084
 20
48.9405060538545627
 30
0.0
  0
VERTEX
  5
15784
  8
0
 10
234.1886535202856976
 20
48.9405060538545627
 30
0.0
  0
VERTEX
  5
15785
  8
0
 10
234.0212132356298014
 20
48.9405060538545627
 30
0.0
  0
VERTEX
  5
15786
  8
0
 10
233.8539195705758971
 20
48.9405060538545627
 30
0.0
  0
VERTEX
  5
15787
  8
0
 10
233.6868319557318046
 20
48.9405060538545627
 30
0.0
  0
VERTEX
  5
15788
  8
0
 10
233.5200059344697081
 20
48.9405060538545627
 30
0.0
  0
VERTEX
  5
15789
  8
0
 10
233.3534891133236044
 20
48.9405060538545627
 30
0.0
  0
VERTEX
  5
1578A
  8
0
 10
233.1873281304582974
 20
48.9405060538545627
 30
0.0
  0
VERTEX
  5
1578B
  8
0
 10
233.0215696240393015
 20
48.9405060538545627
 30
0.0
  0
VERTEX
  5
1578C
  8
0
 10
232.856260232231989
 20
48.9405060538545627
 30
0.0
  0
VERTEX
  5
1578D
  8
0
 10
232.6914465932015901
 20
48.9405060538545484
 30
0.0
  0
VERTEX
  5
1578E
  8
0
 10
232.5271753451131929
 20
48.9405060538545484
 30
0.0
  0
VERTEX
  5
1578F
  8
0
 10
232.3634931261323118
 20
48.9405060538545484
 30
0.0
  0
VERTEX
  5
15790
  8
0
 10
232.2004460932211884
 20
48.9405060538545484
 30
0.0
  0
VERTEX
  5
15791
  8
0
 10
232.0380169892657989
 20
48.9405060538545484
 30
0.0
  0
VERTEX
  5
15792
  8
0
 10
231.8760625033202132
 20
48.9405060538545484
 30
0.0
  0
VERTEX
  5
15793
  8
0
 10
231.7144244293810118
 20
48.9405060538545484
 30
0.0
  0
VERTEX
  5
15794
  8
0
 10
231.5529445614452015
 20
48.9405060538545484
 30
0.0
  0
SEQEND
  5
15795
  8
0
  0
POLYLINE
  5
15231
  8
0
 66
     1
 10
0.0
 20
0.0
 30
0.0
  0
VERTEX
  5
15796
  8
0
 10
240.2131985992895977
 20
53.9405060538544916
 30
0.0
  0
VERTEX
  5
15797
  8
0
 10
240.1152355150514097
 20
53.7708290146880969
 30
0.0
  0
VERTEX
  5
15798
  8
0
 10
240.0172138296634898
 20
53.6010504753524373
 30
0.0
  0
VERTEX
  5
15799
  8
0
 10
239.9190749419753104
 20
53.4310689356781694
 30
0.0
  0
VERTEX
  5
1579A
  8
0
 10
239.8207602508369121
 20
53.2607828954960496
 30
0.0
  0
VERTEX
  5
1579B
  8
0
 10
239.7222111550981083
 20
53.0900908546367418
 30
0.0
  0
VERTEX
  5
1579C
  8
0
 10
239.6233690536093093
 20
52.9188913129310095
 30
0.0
  0
VERTEX
  5
1579D
  8
0
 10
239.5241753452199021
 20
52.7470827702095235
 30
0.0
  0
VERTEX
  5
1579E
  8
0
 10
239.42457215542521
 20
52.5745649848892
 30
0.0
  0
VERTEX
  5
1579F
  8
0
 10
239.3245473881065095
 20
52.4013170058779423
 30
0.0
  0
VERTEX
  5
157A0
  8
0
 10
239.2241611861747117
 20
52.2274430037530095
 30
0.0
  0
VERTEX
  5
157A1
  8
0
 10
239.1234800590044927
 20
52.0530581761310032
 30
0.0
  0
VERTEX
  5
157A2
  8
0
 10
239.0225705159710117
 20
51.8782777206284678
 30
0.0
  0
VERTEX
  5
157A3
  8
0
 10
238.9214990664492007
 20
51.7032168348620615
 30
0.0
  0
VERTEX
  5
157A4
  8
0
 10
238.8203322198139915
 20
51.5279907164483006
 30
0.0
  0
VERTEX
  5
157A5
  8
0
 10
238.7191364854402025
 20
51.3527145630038007
 30
0.0
  0
VERTEX
  5
157A6
  8
0
 10
238.6179782033204901
 20
51.177503278766082
 30
0.0
  0
VERTEX
  5
157A7
  8
0
 10
238.5169195667413931
 20
51.0024645856674326
 30
0.0
  0
VERTEX
  5
157A8
  8
0
 10
238.416018477905908
 20
50.8276987732653325
 30
0.0
  0
VERTEX
  5
157A9
  8
0
 10
238.3153326407484087
 20
50.6533057877059321
 30
0.0
  0
VERTEX
  5
157AA
  8
0
 10
238.2149197592032976
 20
50.4793855751354528
 30
0.0
  0
VERTEX
  5
157AB
  8
0
 10
238.1148375372050907
 20
50.3060380817000308
 30
0.0
  0
VERTEX
  5
157AC
  8
0
 10
238.015143678687906
 20
50.1333632535458307
 30
0.0
  0
VERTEX
  5
157AD
  8
0
 10
237.9158850184581979
 20
49.96144221093666
 30
0.0
  0
VERTEX
  5
157AE
  8
0
 10
237.8170293990966968
 20
49.7902192555887879
 30
0.0
  0
VERTEX
  5
157AF
  8
0
 10
237.7185097752854119
 20
49.619578261605028
 30
0.0
  0
VERTEX
  5
157B0
  8
0
 10
237.6202589479142091
 20
49.4494028367125367
 30
0.0
  0
VERTEX
  5
157B1
  8
0
 10
237.5222097178732952
 20
49.2795765886384913
 30
0.0
  0
VERTEX
  5
157B2
  8
0
 10
237.4242948860523086
 20
49.1099831251101122
 30
0.0
  0
VERTEX
  5
157B3
  8
0
 10
237.3264472533413141
 20
48.94050605385452
 30
0.0
  0
SEQEND
  5
157B4
  8
0
  0
POLYLINE
  5
15232
  8
0
 66
     1
 10
0.0
 20
0.0
 30
0.0
  0
VERTEX
  5
157B5
  8
0
 10
186.8272573998023915
 20
40.5603040926066427
 30
0.0
  0
VERTEX
  5
157B6
  8
0
 10
186.925220484040409
 20
40.3906270534402481
 30
0.0
  0
VERTEX
  5
157B7
  8
0
 10
187.0232421694284142
 20
40.2208485141045671
 30
0.0
  0
VERTEX
  5
157B8
  8
0
 10
187.1213810571165084
 20
40.0508669744302992
 30
0.0
  0
VERTEX
  5
157B9
  8
0
 10
187.2196957482549067
 20
39.8805809342481723
 30
0.0
  0
VERTEX
  5
157BA
  8
0
 10
187.3182448439935968
 20
39.7098888933888787
 30
0.0
  0
VERTEX
  5
157BB
  8
0
 10
187.4170869454825095
 20
39.5386893516831321
 30
0.0
  0
VERTEX
  5
157BC
  8
0
 10
187.516280653871803
 20
39.3668808089616391
 30
0.0
  0
VERTEX
  5
157BD
  8
0
 10
187.6158838436666088
 20
39.1943630236413085
 30
0.0
  0
VERTEX
  5
157BE
  8
0
 10
187.7159086109853092
 20
39.0211150446300366
 30
0.0
  0
VERTEX
  5
157BF
  8
0
 10
187.8162948129171923
 20
38.8472410425051109
 30
0.0
  0
VERTEX
  5
157C0
  8
0
 10
187.9169759400874113
 20
38.6728562148830903
 30
0.0
  0
VERTEX
  5
157C1
  8
0
 10
188.0178854831208071
 20
38.498075759380562
 30
0.0
  0
VERTEX
  5
157C2
  8
0
 10
188.1189569326427034
 20
38.3230148736141132
 30
0.0
  0
VERTEX
  5
157C3
  8
0
 10
188.2201237792779125
 20
38.1477887552003665
 30
0.0
  0
VERTEX
  5
157C4
  8
0
 10
188.3213195136515878
 20
37.9725126017558665
 30
0.0
  0
VERTEX
  5
157C5
  8
0
 10
188.4224777957711865
 20
37.7973013175181478
 30
0.0
  0
VERTEX
  5
157C6
  8
0
 10
188.523536432350312
 20
37.6222626244194984
 30
0.0
  0
VERTEX
  5
157C7
  8
0
 10
188.6244375211859108
 20
37.4474968120173912
 30
0.0
  0
VERTEX
  5
157C8
  8
0
 10
188.7251233583432963
 20
37.2731038264580121
 30
0.0
  0
VERTEX
  5
157C9
  8
0
 10
188.8255362398884927
 20
37.0991836138875186
 30
0.0
  0
VERTEX
  5
157CA
  8
0
 10
188.9256184618866996
 20
36.9258361204520966
 30
0.0
  0
VERTEX
  5
157CB
  8
0
 10
189.0253123204037138
 20
36.7531612922979107
 30
0.0
  0
VERTEX
  5
157CC
  8
0
 10
189.1245709806337061
 20
36.5812402496887401
 30
0.0
  0
VERTEX
  5
157CD
  8
0
 10
189.2234265999952072
 20
36.410017294340868
 30
0.0
  0
VERTEX
  5
157CE
  8
0
 10
189.3219462238068047
 20
36.2393763003571223
 30
0.0
  0
VERTEX
  5
157CF
  8
0
 10
189.4201970511778939
 20
36.0692008754646523
 30
0.0
  0
VERTEX
  5
157D0
  8
0
 10
189.5182462812188078
 20
35.8993746273905998
 30
0.0
  0
VERTEX
  5
157D1
  8
0
 10
189.6161611130397091
 20
35.7297811638621994
 30
0.0
  0
VERTEX
  5
157D2
  8
0
 10
189.7140087457507036
 20
35.5603040926066285
 30
0.0
  0
SEQEND
  5
157D3
  8
0
  0
POLYLINE
  5
15233
  8
0
 66
     1
 10
0.0
 20
0.0
 30
0.0
  0
VERTEX
  5
157D4
  8
0
 10
181.0537547079061085
 20
40.560304092606593
 30
0.0
  0
VERTEX
  5
157D5
  8
0
 10
181.215236977213408
 20
40.5603040926066001
 30
0.0
  0
VERTEX
  5
157D6
  8
0
 10
181.3768766625871081
 20
40.5603040926066214
 30
0.0
  0
VERTEX
  5
157D7
  8
0
 10
181.5388311800936947
 20
40.5603040926066285
 30
0.0
  0
VERTEX
  5
157D8
  8
0
 10
181.7012579457997106
 20
40.5603040926066285
 30
0.0
  0
VERTEX
  5
157D9
  8
0
 10
181.8642996086445009
 20
40.5603040926066427
 30
0.0
  0
VERTEX
  5
157DA
  8
0
 10
182.027973848160201
 20
40.5603040926066427
 30
0.0
  0
VERTEX
  5
157DB
  8
0
 10
182.1922354760858127
 20
40.5603040926066427
 30
0.0
  0
VERTEX
  5
157DC
  8
0
 10
182.3570388271240006
 20
40.5603040926066427
 30
0.0
  0
VERTEX
  5
157DD
  8
0
 10
182.5223382359777133
 20
40.5603040926066427
 30
0.0
  0
VERTEX
  5
157DE
  8
0
 10
182.6880880373497007
 20
40.5603040926066427
 30
0.0
  0
VERTEX
  5
157DF
  8
0
 10
182.8542425659427977
 20
40.5603040926066427
 30
0.0
  0
VERTEX
  5
157E0
  8
0
 10
183.0207561564598109
 20
40.5603040926066285
 30
0.0
  0
VERTEX
  5
157E1
  8
0
 10
183.1875831436034048
 20
40.5603040926066285
 30
0.0
  0
VERTEX
  5
157E2
  8
0
 10
183.3546755605711951
 20
40.5603040926066285
 30
0.0
  0
VERTEX
  5
157E3
  8
0
 10
183.5219760370351878
 20
40.5603040926066285
 30
0.0
  0
VERTEX
  5
157E4
  8
0
 10
183.6894248013555
 20
40.5603040926066285
 30
0.0
  0
VERTEX
  5
157E5
  8
0
 10
183.8569620818913108
 20
40.5603040926066427
 30
0.0
  0
VERTEX
  5
157E6
  8
0
 10
184.0245281070021974
 20
40.5603040926066427
 30
0.0
  0
VERTEX
  5
157E7
  8
0
 10
184.1920631050467989
 20
40.5603040926066427
 30
0.0
  0
VERTEX
  5
157E8
  8
0
 10
184.359507304385005
 20
40.5603040926066427
 30
0.0
  0
VERTEX
  5
157E9
  8
0
 10
184.5268009333757107
 20
40.5603040926066427
 30
0.0
  0
VERTEX
  5
157EA
  8
0
 10
184.6938842203788056
 20
40.5603040926066498
 30
0.0
  0
VERTEX
  5
157EB
  8
0
 10
184.8606974954296902
 20
40.5603040926066498
 30
0.0
  0
VERTEX
  5
157EC
  8
0
 10
185.0271814781181092
 20
40.5603040926066427
 30
0.0
  0
VERTEX
  5
157ED
  8
0
 10
185.1932769813130051
 20
40.5603040926066427
 30
0.0
  0
VERTEX
  5
157EE
  8
0
 10
185.3589248178832918
 20
40.5603040926066427
 30
0.0
  0
VERTEX
  5
157EF
  8
0
 10
185.5240658006977128
 20
40.5603040926066427
 30
0.0
  0
VERTEX
  5
157F0
  8
0
 10
185.6886407426256937
 20
40.5603040926066427
 30
0.0
  0
VERTEX
  5
157F1
  8
0
 10
185.8525946527219048
 20
40.5603040926066285
 30
0.0
  0
VERTEX
  5
157F2
  8
0
 10
186.0159527002919901
 20
40.5603040926066285
 30
0.0
  0
VERTEX
  5
157F3
  8
0
 10
186.1788120625583929
 20
40.5603040926066285
 30
0.0
  0
VERTEX
  5
157F4
  8
0
 10
186.3412724765819064
 20
40.5603040926066285
 30
0.0
  0
VERTEX
  5
157F5
  8
0
 10
186.5034336794232956
 20
40.5603040926066285
 30
0.0
  0
VERTEX
  5
157F6
  8
0
 10
186.6653954081432119
 20
40.5603040926066427
 30
0.0
  0
VERTEX
  5
157F7
  8
0
 10
186.8272573998023915
 20
40.5603040926066427
 30
0.0
  0
SEQEND
  5
157F8
  8
0
  0
POLYLINE
  5
15234
  8
0
 66
     1
 10
0.0
 20
0.0
 30
0.0
  0
VERTEX
  5
157F9
  8
0
 10
178.1670033619579954
 20
35.5603040926067777
 30
0.0
  0
VERTEX
  5
157FA
  8
0
 10
178.2649664461960128
 20
35.7299811317731582
 30
0.0
  0
VERTEX
  5
157FB
  8
0
 10
178.3629881315841033
 20
35.899759671108832
 30
0.0
  0
VERTEX
  5
157FC
  8
0
 10
178.4611270192721975
 20
36.0697412107830786
 30
0.0
  0
VERTEX
  5
157FD
  8
0
 10
178.5594417104105958
 20
36.2400272509651984
 30
0.0
  0
VERTEX
  5
157FE
  8
0
 10
178.6579908061492858
 20
36.4107192918244991
 30
0.0
  0
VERTEX
  5
157FF
  8
0
 10
178.7568329076381985
 20
36.5819188335302385
 30
0.0
  0
VERTEX
  5
15800
  8
0
 10
178.8560266160276058
 20
36.7537273762517174
 30
0.0
  0
VERTEX
  5
15801
  8
0
 10
178.9556298058222126
 20
36.9262451615720266
 30
0.0
  0
VERTEX
  5
15802
  8
0
 10
179.055654573140913
 20
37.0994931405832915
 30
0.0
  0
VERTEX
  5
15803
  8
0
 10
179.1560407750729098
 20
37.2733671427082314
 30
0.0
  0
VERTEX
  5
15804
  8
0
 10
179.2567219022429015
 20
37.4477519703302306
 30
0.0
  0
VERTEX
  5
15805
  8
0
 10
179.3576314452764109
 20
37.6225324258327376
 30
0.0
  0
VERTEX
  5
15806
  8
0
 10
179.4587028947983924
 20
37.7975933115991793
 30
0.0
  0
VERTEX
  5
15807
  8
0
 10
179.5598697414336016
 20
37.9728194300129189
 30
0.0
  0
VERTEX
  5
15808
  8
0
 10
179.6610654758073053
 20
38.1480955834574118
 30
0.0
  0
VERTEX
  5
15809
  8
0
 10
179.762223757927103
 20
38.3233068676951305
 30
0.0
  0
VERTEX
  5
1580A
  8
0
 10
179.8632823945062
 20
38.4983455607937728
 30
0.0
  0
VERTEX
  5
1580B
  8
0
 10
179.9641834833417136
 20
38.6731113731958729
 30
0.0
  0
VERTEX
  5
1580C
  8
0
 10
180.0648693204992128
 20
38.8475043587552378
 30
0.0
  0
VERTEX
  5
1580D
  8
0
 10
180.1652822020442954
 20
39.0214245713257384
 30
0.0
  0
VERTEX
  5
1580E
  8
0
 10
180.2653644240425024
 20
39.1947720647611533
 30
0.0
  0
VERTEX
  5
1580F
  8
0
 10
180.3650582825596018
 20
39.3674468929153392
 30
0.0
  0
VERTEX
  5
15810
  8
0
 10
180.4643169427891962
 20
39.5393679355245098
 30
0.0
  0
VERTEX
  5
15811
  8
0
 10
180.563172562150811
 20
39.7105908908723606
 30
0.0
  0
VERTEX
  5
15812
  8
0
 10
180.6616921859620959
 20
39.8812318848561205
 30
0.0
  0
VERTEX
  5
15813
  8
0
 10
180.7599430133332135
 20
40.0514073097486119
 30
0.0
  0
VERTEX
  5
15814
  8
0
 10
180.8579922433742979
 20
40.221233557822643
 30
0.0
  0
VERTEX
  5
15815
  8
0
 10
180.9559070751951992
 20
40.3908270213510292
 30
0.0
  0
VERTEX
  5
15816
  8
0
 10
181.0537547079061085
 20
40.560304092606593
 30
0.0
  0
SEQEND
  5
15817
  8
0
  0
POLYLINE
  5
15235
  8
0
 66
     1
 10
0.0
 20
0.0
 30
0.0
  0
VERTEX
  5
15818
  8
0
 10
181.0537547079061085
 20
30.5603040926067706
 30
0.0
  0
VERTEX
  5
15819
  8
0
 10
180.9557916236682047
 20
30.729981131773151
 30
0.0
  0
VERTEX
  5
1581A
  8
0
 10
180.8577699382800006
 20
30.8997596711088107
 30
0.0
  0
VERTEX
  5
1581B
  8
0
 10
180.7596310505919064
 20
31.0697412107830715
 30
0.0
  0
VERTEX
  5
1581C
  8
0
 10
180.6613163594535081
 20
31.2400272509651913
 30
0.0
  0
VERTEX
  5
1581D
  8
0
 10
180.5627672637147896
 20
31.4107192918244706
 30
0.0
  0
VERTEX
  5
1581E
  8
0
 10
180.4639251622259053
 20
31.5819188335302101
 30
0.0
  0
VERTEX
  5
1581F
  8
0
 10
180.3647314538364981
 20
31.753727376251689
 30
0.0
  0
VERTEX
  5
15820
  8
0
 10
180.265128264041806
 20
31.9262451615720089
 30
0.0
  0
VERTEX
  5
15821
  8
0
 10
180.1651034967231908
 20
32.0994931405832773
 30
0.0
  0
VERTEX
  5
15822
  8
0
 10
180.0647172947913077
 20
32.2733671427082314
 30
0.0
  0
VERTEX
  5
15823
  8
0
 10
179.9640361676210887
 20
32.4477519703302377
 30
0.0
  0
VERTEX
  5
15824
  8
0
 10
179.863126624587693
 20
32.6225324258327589
 30
0.0
  0
VERTEX
  5
15825
  8
0
 10
179.7620551750657967
 20
32.7975933115992007
 30
0.0
  0
VERTEX
  5
15826
  8
0
 10
179.6608883284305875
 20
32.9728194300129616
 30
0.0
  0
VERTEX
  5
15827
  8
0
 10
179.5596925940569975
 20
33.1480955834574615
 30
0.0
  0
VERTEX
  5
15828
  8
0
 10
179.4585343119371998
 20
33.3233068676951802
 30
0.0
  0
VERTEX
  5
15829
  8
0
 10
179.3574756753581028
 20
33.4983455607938367
 30
0.0
  0
VERTEX
  5
1582A
  8
0
 10
179.256574586522504
 20
33.6731113731959368
 30
0.0
  0
VERTEX
  5
1582B
  8
0
 10
179.15588874936509
 20
33.8475043587553301
 30
0.0
  0
VERTEX
  5
1582C
  8
0
 10
179.0554758678198084
 20
34.0214245713258165
 30
0.0
  0
VERTEX
  5
1582D
  8
0
 10
178.9553936458216867
 20
34.1947720647612385
 30
0.0
  0
VERTEX
  5
1582E
  8
0
 10
178.8556997873045873
 20
34.3674468929154173
 30
0.0
  0
VERTEX
  5
1582F
  8
0
 10
178.7564411270747087
 20
34.5393679355246093
 30
0.0
  0
VERTEX
  5
15830
  8
0
 10
178.6575855077130086
 20
34.7105908908724672
 30
0.0
  0
VERTEX
  5
15831
  8
0
 10
178.5590658839018943
 20
34.8812318848562413
 30
0.0
  0
VERTEX
  5
15832
  8
0
 10
178.4608150565306914
 20
35.0514073097487184
 30
0.0
  0
VERTEX
  5
15833
  8
0
 10
178.362765826489607
 20
35.2212335578227922
 30
0.0
  0
VERTEX
  5
15834
  8
0
 10
178.2648509946687909
 20
35.3908270213511784
 30
0.0
  0
VERTEX
  5
15835
  8
0
 10
178.1670033619579101
 20
35.5603040926067635
 30
0.0
  0
SEQEND
  5
15836
  8
0
  0
POLYLINE
  5
15236
  8
0
 66
     1
 10
0.0
 20
0.0
 30
0.0
  0
VERTEX
  5
15837
  8
0
 10
186.8272573998023915
 20
30.5603040926066285
 30
0.0
  0
VERTEX
  5
15838
  8
0
 10
186.6654063761791917
 20
30.5603040926066498
 30
0.0
  0
VERTEX
  5
15839
  8
0
 10
186.5034544548207975
 20
30.5603040926066711
 30
0.0
  0
VERTEX
  5
1583A
  8
0
 10
186.3413007379917019
 20
30.5603040926066889
 30
0.0
  0
VERTEX
  5
1583B
  8
0
 10
186.1788443279567957
 20
30.5603040926066996
 30
0.0
  0
VERTEX
  5
1583C
  8
0
 10
186.0159843269804014
 20
30.5603040926066996
 30
0.0
  0
VERTEX
  5
1583D
  8
0
 10
185.8526198373274951
 20
30.5603040926066996
 30
0.0
  0
VERTEX
  5
1583E
  8
0
 10
185.6886537460106865
 20
30.5603040926066782
 30
0.0
  0
VERTEX
  5
1583F
  8
0
 10
185.5240678216036088
 20
30.5603040926066605
 30
0.0
  0
VERTEX
  5
15840
  8
0
 10
185.3589184269930001
 20
30.5603040926066285
 30
0.0
  0
VERTEX
  5
15841
  8
0
 10
185.1932648515247024
 20
30.5603040926066001
 30
0.0
  0
VERTEX
  5
15842
  8
0
 10
185.0271663845443868
 20
30.5603040926065717
 30
0.0
  0
VERTEX
  5
15843
  8
0
 10
184.8606823153976109
 20
30.5603040926065397
 30
0.0
  0
VERTEX
  5
15844
  8
0
 10
184.6938719334301027
 20
30.560304092606529
 30
0.0
  0
VERTEX
  5
15845
  8
0
 10
184.5267944955533039
 20
30.560304092606529
 30
0.0
  0
VERTEX
  5
15846
  8
0
 10
184.359509123257709
 20
30.5603040926065397
 30
0.0
  0
VERTEX
  5
15847
  8
0
 10
184.1920749026947135
 20
30.5603040926065503
 30
0.0
  0
VERTEX
  5
15848
  8
0
 10
184.0245509200163099
 20
30.5603040926065788
 30
0.0
  0
VERTEX
  5
15849
  8
0
 10
183.8569962613742064
 20
30.5603040926066001
 30
0.0
  0
VERTEX
  5
1584A
  8
0
 10
183.6894700129203102
 20
30.5603040926066285
 30
0.0
  0
VERTEX
  5
1584B
  8
0
 10
183.5220312608061022
 20
30.5603040926066498
 30
0.0
  0
VERTEX
  5
1584C
  8
0
 10
183.3547390911838022
 20
30.5603040926066711
 30
0.0
  0
VERTEX
  5
1584D
  8
0
 10
183.1876525645836864
 20
30.5603040926066782
 30
0.0
  0
VERTEX
  5
1584E
  8
0
 10
183.0208269987871006
 20
30.5603040926066782
 30
0.0
  0
VERTEX
  5
1584F
  8
0
 10
182.8543100684445051
 20
30.5603040926066782
 30
0.0
  0
VERTEX
  5
15850
  8
0
 10
182.6881485154850111
 20
30.5603040926066711
 30
0.0
  0
VERTEX
  5
15851
  8
0
 10
182.5223890818375878
 20
30.5603040926066605
 30
0.0
  0
VERTEX
  5
15852
  8
0
 10
182.3570785094310054
 20
30.5603040926066498
 30
0.0
  0
VERTEX
  5
15853
  8
0
 10
182.1922635401944035
 20
30.5603040926066498
 30
0.0
  0
VERTEX
  5
15854
  8
0
 10
182.0279909160566092
 20
30.5603040926066392
 30
0.0
  0
VERTEX
  5
15855
  8
0
 10
181.8643073789467905
 20
30.5603040926066498
 30
0.0
  0
VERTEX
  5
15856
  8
0
 10
181.7012591893297042
 20
30.5603040926066605
 30
0.0
  0
VERTEX
  5
15857
  8
0
 10
181.5388291462732013
 20
30.5603040926066782
 30
0.0
  0
VERTEX
  5
15858
  8
0
 10
181.3768738941029142
 20
30.5603040926067102
 30
0.0
  0
VERTEX
  5
15859
  8
0
 10
181.2152351691900947
 20
30.5603040926067386
 30
0.0
  0
VERTEX
  5
1585A
  8
0
 10
181.0537547079061085
 20
30.5603040926067706
 30
0.0
  0
SEQEND
  5
1585B
  8
0
  0
POLYLINE
  5
15237
  8
0
 66
     1
 10
0.0
 20
0.0
 30
0.0
  0
VERTEX
  5
1585C
  8
0
 10
189.7140087457505899
 20
35.5603040926066285
 30
0.0
  0
VERTEX
  5
1585D
  8
0
 10
189.6160456615124872
 20
35.390627053440241
 30
0.0
  0
VERTEX
  5
1585E
  8
0
 10
189.5180239761243968
 20
35.2208485141045529
 30
0.0
  0
VERTEX
  5
1585F
  8
0
 10
189.4198850884363026
 20
35.0508669744302921
 30
0.0
  0
VERTEX
  5
15860
  8
0
 10
189.3215703972979043
 20
34.8805809342481581
 30
0.0
  0
VERTEX
  5
15861
  8
0
 10
189.2230213015592994
 20
34.7098888933888716
 30
0.0
  0
VERTEX
  5
15862
  8
0
 10
189.1241792000703015
 20
34.5386893516831108
 30
0.0
  0
VERTEX
  5
15863
  8
0
 10
189.0249854916810079
 20
34.366880808961632
 30
0.0
  0
VERTEX
  5
15864
  8
0
 10
188.9253823018862022
 20
34.1943630236413014
 30
0.0
  0
VERTEX
  5
15865
  8
0
 10
188.825357534567587
 20
34.0211150446300366
 30
0.0
  0
VERTEX
  5
15866
  8
0
 10
188.7249713326357039
 20
33.8472410425051109
 30
0.0
  0
VERTEX
  5
15867
  8
0
 10
188.6242902054655133
 20
33.6728562148830903
 30
0.0
  0
VERTEX
  5
15868
  8
0
 10
188.5233806624320039
 20
33.4980757593805691
 30
0.0
  0
VERTEX
  5
15869
  8
0
 10
188.4223092129101076
 20
33.3230148736141416
 30
0.0
  0
VERTEX
  5
1586A
  8
0
 10
188.3211423662750121
 20
33.1477887552003878
 30
0.0
  0
VERTEX
  5
1586B
  8
0
 10
188.2199466319013084
 20
32.9725126017558878
 30
0.0
  0
VERTEX
  5
1586C
  8
0
 10
188.118788349781596
 20
32.7973013175181833
 30
0.0
  0
VERTEX
  5
1586D
  8
0
 10
188.0177297132026126
 20
32.6222626244195197
 30
0.0
  0
VERTEX
  5
1586E
  8
0
 10
187.9168286243670138
 20
32.4474968120174196
 30
0.0
  0
VERTEX
  5
1586F
  8
0
 10
187.8161427872094862
 20
32.2731038264580334
 30
0.0
  0
VERTEX
  5
15870
  8
0
 10
187.7157299056644888
 20
32.0991836138875399
 30
0.0
  0
VERTEX
  5
15871
  8
0
 10
187.6156476836659976
 20
31.9258361204521108
 30
0.0
  0
VERTEX
  5
15872
  8
0
 10
187.5159538251488982
 20
31.7531612922979214
 30
0.0
  0
VERTEX
  5
15873
  8
0
 10
187.4166951649191901
 20
31.5812402496887401
 30
0.0
  0
VERTEX
  5
15874
  8
0
 10
187.3178395455576037
 20
31.4100172943408893
 30
0.0
  0
VERTEX
  5
15875
  8
0
 10
187.2193199217464041
 20
31.2393763003571188
 30
0.0
  0
VERTEX
  5
15876
  8
0
 10
187.1210690943752013
 20
31.0692008754646309
 30
0.0
  0
VERTEX
  5
15877
  8
0
 10
187.0230198643342874
 20
30.8993746273905892
 30
0.0
  0
VERTEX
  5
15878
  8
0
 10
186.9251050325131871
 20
30.7297811638621887
 30
0.0
  0
VERTEX
  5
15879
  8
0
 10
186.8272573998023915
 20
30.5603040926066107
 30
0.0
  0
SEQEND
  5
1587A
  8
0
  0
POLYLINE
  5
15238
  8
0
 66
     1
 10
0.0
 20
0.0
 30
0.0
  0
VERTEX
  5
1587B
  8
0
 10
168.4470554385549121
 20
91.0594939461453947
 30
0.0
  0
VERTEX
  5
1587C
  8
0
 10
168.5450185227929012
 20
90.8898169069790072
 30
0.0
  0
VERTEX
  5
1587D
  8
0
 10
168.6430402081809916
 20
90.7200383676433262
 30
0.0
  0
VERTEX
  5
1587E
  8
0
 10
168.7411790958690858
 20
90.5500568279690441
 30
0.0
  0
VERTEX
  5
1587F
  8
0
 10
168.8394937870075125
 20
90.3797707877869243
 30
0.0
  0
VERTEX
  5
15880
  8
0
 10
168.9380428827460889
 20
90.2090787469276165
 30
0.0
  0
VERTEX
  5
15881
  8
0
 10
169.0368849842350016
 20
90.0378792052218557
 30
0.0
  0
VERTEX
  5
15882
  8
0
 10
169.1360786926244089
 20
89.8660706625003911
 30
0.0
  0
VERTEX
  5
15883
  8
0
 10
169.2356818824191009
 20
89.6935528771800392
 30
0.0
  0
VERTEX
  5
15884
  8
0
 10
169.3357066497378014
 20
89.5203048981688028
 30
0.0
  0
VERTEX
  5
15885
  8
0
 10
169.4360928516697982
 20
89.3464308960438842
 30
0.0
  0
VERTEX
  5
15886
  8
0
 10
169.5367739788399035
 20
89.1720460684218637
 30
0.0
  0
VERTEX
  5
15887
  8
0
 10
169.6376835218734129
 20
88.9972656129193354
 30
0.0
  0
VERTEX
  5
15888
  8
0
 10
169.7387549713953092
 20
88.822204727152922
 30
0.0
  0
VERTEX
  5
15889
  8
0
 10
169.8399218180306036
 20
88.6469786087391753
 30
0.0
  0
VERTEX
  5
1588A
  8
0
 10
169.9411175524043074
 20
88.4717024552946754
 30
0.0
  0
VERTEX
  5
1588B
  8
0
 10
170.042275834523906
 20
88.2964911710569567
 30
0.0
  0
VERTEX
  5
1588C
  8
0
 10
170.1433344711030031
 20
88.1214524779583144
 30
0.0
  0
VERTEX
  5
1588D
  8
0
 10
170.2442355599384882
 20
87.9466866655561859
 30
0.0
  0
VERTEX
  5
1588E
  8
0
 10
170.3449213970959022
 20
87.7722936799967783
 30
0.0
  0
VERTEX
  5
1588F
  8
0
 10
170.4453342786410985
 20
87.598373467426299
 30
0.0
  0
VERTEX
  5
15890
  8
0
 10
170.5454165006393055
 20
87.4250259739908557
 30
0.0
  0
VERTEX
  5
15891
  8
0
 10
170.6451103591564049
 20
87.2523511458366556
 30
0.0
  0
VERTEX
  5
15892
  8
0
 10
170.744369019386113
 20
87.0804301032275134
 30
0.0
  0
VERTEX
  5
15893
  8
0
 10
170.8432246387476141
 20
86.9092071478796555
 30
0.0
  0
VERTEX
  5
15894
  8
0
 10
170.9417442625588137
 20
86.7385661538958743
 30
0.0
  0
VERTEX
  5
15895
  8
0
 10
171.0399950899301018
 20
86.5683907290033687
 30
0.0
  0
VERTEX
  5
15896
  8
0
 10
171.138044319971101
 20
86.3985644809293518
 30
0.0
  0
VERTEX
  5
15897
  8
0
 10
171.2359591517920023
 20
86.2289710174009514
 30
0.0
  0
VERTEX
  5
15898
  8
0
 10
171.3338067845027979
 20
86.0594939461453521
 30
0.0
  0
SEQEND
  5
15899
  8
0
  0
POLYLINE
  5
15239
  8
0
 66
     1
 10
0.0
 20
0.0
 30
0.0
  0
VERTEX
  5
1589A
  8
0
 10
162.6735527466586007
 20
91.0594939461453947
 30
0.0
  0
VERTEX
  5
1589B
  8
0
 10
162.8350350159660138
 20
91.0594939461453947
 30
0.0
  0
VERTEX
  5
1589C
  8
0
 10
162.9966747013397992
 20
91.0594939461453947
 30
0.0
  0
VERTEX
  5
1589D
  8
0
 10
163.1586292188463005
 20
91.0594939461453947
 30
0.0
  0
VERTEX
  5
1589E
  8
0
 10
163.321055984552288
 20
91.0594939461453947
 30
0.0
  0
VERTEX
  5
1589F
  8
0
 10
163.4840976473971068
 20
91.0594939461453947
 30
0.0
  0
VERTEX
  5
158A0
  8
0
 10
163.6477718869126079
 20
91.0594939461453947
 30
0.0
  0
VERTEX
  5
158A1
  8
0
 10
163.8120335148381059
 20
91.0594939461453947
 30
0.0
  0
VERTEX
  5
158A2
  8
0
 10
163.9768368658764075
 20
91.0594939461453947
 30
0.0
  0
VERTEX
  5
158A3
  8
0
 10
164.1421362747302055
 20
91.0594939461453663
 30
0.0
  0
VERTEX
  5
158A4
  8
0
 10
164.3078860761021929
 20
91.0594939461453663
 30
0.0
  0
VERTEX
  5
158A5
  8
0
 10
164.4740406046952899
 20
91.0594939461453663
 30
0.0
  0
VERTEX
  5
158A6
  8
0
 10
164.6405541952123031
 20
91.0594939461453663
 30
0.0
  0
VERTEX
  5
158A7
  8
0
 10
164.8073811823558117
 20
91.0594939461453663
 30
0.0
  0
VERTEX
  5
158A8
  8
0
 10
164.9744735993236873
 20
91.0594939461453663
 30
0.0
  0
VERTEX
  5
158A9
  8
0
 10
165.1417740757875094
 20
91.0594939461453947
 30
0.0
  0
VERTEX
  5
158AA
  8
0
 10
165.3092228401079069
 20
91.0594939461453947
 30
0.0
  0
VERTEX
  5
158AB
  8
0
 10
165.476760120643803
 20
91.0594939461453947
 30
0.0
  0
VERTEX
  5
158AC
  8
0
 10
165.6443261457546043
 20
91.0594939461453947
 30
0.0
  0
VERTEX
  5
158AD
  8
0
 10
165.8118611437994048
 20
91.0594939461454231
 30
0.0
  0
VERTEX
  5
158AE
  8
0
 10
165.9793053431376109
 20
91.0594939461454231
 30
0.0
  0
VERTEX
  5
158AF
  8
0
 10
166.1465989721282881
 20
91.0594939461454231
 30
0.0
  0
VERTEX
  5
158B0
  8
0
 10
166.3136822591312978
 20
91.0594939461454373
 30
0.0
  0
VERTEX
  5
158B1
  8
0
 10
166.4804955341822108
 20
91.0594939461454373
 30
0.0
  0
VERTEX
  5
158B2
  8
0
 10
166.6469795168706867
 20
91.0594939461454231
 30
0.0
  0
VERTEX
  5
158B3
  8
0
 10
166.8130750200654973
 20
91.0594939461453947
 30
0.0
  0
VERTEX
  5
158B4
  8
0
 10
166.9787228566356134
 20
91.0594939461453947
 30
0.0
  0
VERTEX
  5
158B5
  8
0
 10
167.143863839450205
 20
91.0594939461453947
 30
0.0
  0
VERTEX
  5
158B6
  8
0
 10
167.3084387813779017
 20
91.0594939461453947
 30
0.0
  0
VERTEX
  5
158B7
  8
0
 10
167.4723926914743117
 20
91.0594939461453947
 30
0.0
  0
VERTEX
  5
158B8
  8
0
 10
167.6357507390443971
 20
91.0594939461453947
 30
0.0
  0
VERTEX
  5
158B9
  8
0
 10
167.7986101013107998
 20
91.0594939461453947
 30
0.0
  0
VERTEX
  5
158BA
  8
0
 10
167.9610705153343133
 20
91.0594939461453947
 30
0.0
  0
VERTEX
  5
158BB
  8
0
 10
168.1232317181757026
 20
91.0594939461453947
 30
0.0
  0
VERTEX
  5
158BC
  8
0
 10
168.2851934468955903
 20
91.0594939461453947
 30
0.0
  0
VERTEX
  5
158BD
  8
0
 10
168.4470554385549121
 20
91.0594939461453947
 30
0.0
  0
SEQEND
  5
158BE
  8
0
  0
POLYLINE
  5
1523A
  8
0
 66
     1
 10
0.0
 20
0.0
 30
0.0
  0
VERTEX
  5
158BF
  8
0
 10
159.7868014007104023
 20
86.0594939461454231
 30
0.0
  0
VERTEX
  5
158C0
  8
0
 10
159.884764484948505
 20
86.2291709853117965
 30
0.0
  0
VERTEX
  5
158C1
  8
0
 10
159.9827861703365102
 20
86.398949524647449
 30
0.0
  0
VERTEX
  5
158C2
  8
0
 10
160.0809250580248033
 20
86.5689310643217311
 30
0.0
  0
VERTEX
  5
158C3
  8
0
 10
160.1792397491632016
 20
86.7392171045038651
 30
0.0
  0
VERTEX
  5
158C4
  8
0
 10
160.2777888449018064
 20
86.9099091453631161
 30
0.0
  0
VERTEX
  5
158C5
  8
0
 10
160.3766309463908044
 20
87.0811086870688911
 30
0.0
  0
VERTEX
  5
158C6
  8
0
 10
160.4758246547800979
 20
87.2529172297903841
 30
0.0
  0
VERTEX
  5
158C7
  8
0
 10
160.57542784457479
 20
87.4254350151106934
 30
0.0
  0
VERTEX
  5
158C8
  8
0
 10
160.6754526118934905
 20
87.5986829941219725
 30
0.0
  0
VERTEX
  5
158C9
  8
0
 10
160.775838813825402
 20
87.7725569962469194
 30
0.0
  0
VERTEX
  5
158CA
  8
0
 10
160.8765199409955926
 20
87.94694182386894
 30
0.0
  0
VERTEX
  5
158CB
  8
0
 10
160.977429484029102
 20
88.1217222793714541
 30
0.0
  0
VERTEX
  5
158CC
  8
0
 10
161.078500933550913
 20
88.2967831651378958
 30
0.0
  0
VERTEX
  5
158CD
  8
0
 10
161.1796677801860938
 20
88.4720092835516709
 30
0.0
  0
VERTEX
  5
158CE
  8
0
 10
161.2808635145599112
 20
88.6472854369961851
 30
0.0
  0
VERTEX
  5
158CF
  8
0
 10
161.3820217966795099
 20
88.8224967212338754
 30
0.0
  0
VERTEX
  5
158D0
  8
0
 10
161.4830804332586069
 20
88.9975354143325461
 30
0.0
  0
VERTEX
  5
158D1
  8
0
 10
161.5839815220940068
 20
89.1723012267346462
 30
0.0
  0
VERTEX
  5
158D2
  8
0
 10
161.6846673592515913
 20
89.3466942122939969
 30
0.0
  0
VERTEX
  5
158D3
  8
0
 10
161.7850802407965034
 20
89.5206144248644904
 30
0.0
  0
VERTEX
  5
158D4
  8
0
 10
161.8851624627949946
 20
89.6939619182999053
 30
0.0
  0
VERTEX
  5
158D5
  8
0
 10
161.9848563213120087
 20
89.8666367464540912
 30
0.0
  0
VERTEX
  5
158D6
  8
0
 10
162.0841149815418873
 20
90.038557789063276
 30
0.0
  0
VERTEX
  5
158D7
  8
0
 10
162.1829706009033885
 20
90.2097807444111197
 30
0.0
  0
VERTEX
  5
158D8
  8
0
 10
162.2814902247147018
 20
90.3804217383948867
 30
0.0
  0
VERTEX
  5
158D9
  8
0
 10
162.3797410520857909
 20
90.5505971632873781
 30
0.0
  0
VERTEX
  5
158DA
  8
0
 10
162.4777902821269038
 20
90.7204234113614092
 30
0.0
  0
VERTEX
  5
158DB
  8
0
 10
162.5757051139478051
 20
90.8900168748898238
 30
0.0
  0
VERTEX
  5
158DC
  8
0
 10
162.6735527466586859
 20
91.0594939461453947
 30
0.0
  0
SEQEND
  5
158DD
  8
0
  0
POLYLINE
  5
1523B
  8
0
 66
     1
 10
0.0
 20
0.0
 30
0.0
  0
VERTEX
  5
158DE
  8
0
 10
162.6735527466586859
 20
81.0594939461454231
 30
0.0
  0
VERTEX
  5
158DF
  8
0
 10
162.5755896624206969
 20
81.2291709853117965
 30
0.0
  0
VERTEX
  5
158E0
  8
0
 10
162.4775679770326064
 20
81.3989495246474775
 30
0.0
  0
VERTEX
  5
158E1
  8
0
 10
162.3794290893443133
 20
81.5689310643217311
 30
0.0
  0
VERTEX
  5
158E2
  8
0
 10
162.2811143982060003
 20
81.7392171045038651
 30
0.0
  0
VERTEX
  5
158E3
  8
0
 10
162.1825653024673102
 20
81.9099091453631445
 30
0.0
  0
VERTEX
  5
158E4
  8
0
 10
162.0837232009783975
 20
82.0811086870688911
 30
0.0
  0
VERTEX
  5
158E5
  8
0
 10
161.9845294925891039
 20
82.2529172297903557
 30
0.0
  0
VERTEX
  5
158E6
  8
0
 10
161.8849263027944119
 20
82.4254350151106934
 30
0.0
  0
VERTEX
  5
158E7
  8
0
 10
161.7849015354757114
 20
82.5986829941219725
 30
0.0
  0
VERTEX
  5
158E8
  8
0
 10
161.6845153335437999
 20
82.772556996246891
 30
0.0
  0
VERTEX
  5
158E9
  8
0
 10
161.5838342063736093
 20
82.9469418238689116
 30
0.0
  0
VERTEX
  5
158EA
  8
0
 10
161.4829246633399862
 20
83.1217222793714541
 30
0.0
  0
VERTEX
  5
158EB
  8
0
 10
161.3818532138182036
 20
83.2967831651378674
 30
0.0
  0
VERTEX
  5
158EC
  8
0
 10
161.2806863671831081
 20
83.4720092835516425
 30
0.0
  0
VERTEX
  5
158ED
  8
0
 10
161.1794906328092907
 20
83.6472854369961141
 30
0.0
  0
VERTEX
  5
158EE
  8
0
 10
161.0783323506896068
 20
83.822496721233847
 30
0.0
  0
VERTEX
  5
158EF
  8
0
 10
160.9772737141105097
 20
83.9975354143324751
 30
0.0
  0
VERTEX
  5
158F0
  8
0
 10
160.8763726252749109
 20
84.1723012267346178
 30
0.0
  0
VERTEX
  5
158F1
  8
0
 10
160.7756867881174117
 20
84.3466942122939969
 30
0.0
  0
VERTEX
  5
158F2
  8
0
 10
160.6752739065723858
 20
84.5206144248645046
 30
0.0
  0
VERTEX
  5
158F3
  8
0
 10
160.5751916845740084
 20
84.6939619182999337
 30
0.0
  0
VERTEX
  5
158F4
  8
0
 10
160.4754978260569942
 20
84.8666367464541054
 30
0.0
  0
VERTEX
  5
158F5
  8
0
 10
160.3762391658272861
 20
85.0385577890632902
 30
0.0
  0
VERTEX
  5
158F6
  8
0
 10
160.2773835464658134
 20
85.2097807444111481
 30
0.0
  0
VERTEX
  5
158F7
  8
0
 10
160.1788639226545001
 20
85.3804217383949151
 30
0.0
  0
VERTEX
  5
158F8
  8
0
 10
160.080613095283212
 20
85.5505971632874207
 30
0.0
  0
VERTEX
  5
158F9
  8
0
 10
159.9825638652422128
 20
85.720423411361466
 30
0.0
  0
VERTEX
  5
158FA
  8
0
 10
159.8846490334213968
 20
85.890016874889838
 30
0.0
  0
VERTEX
  5
158FB
  8
0
 10
159.7868014007104023
 20
86.0594939461454231
 30
0.0
  0
SEQEND
  5
158FC
  8
0
  0
POLYLINE
  5
1523C
  8
0
 66
     1
 10
0.0
 20
0.0
 30
0.0
  0
VERTEX
  5
158FD
  8
0
 10
168.4470554385549121
 20
81.0594939461453947
 30
0.0
  0
VERTEX
  5
158FE
  8
0
 10
168.2852044149317976
 20
81.0594939461453947
 30
0.0
  0
VERTEX
  5
158FF
  8
0
 10
168.1232524935734034
 20
81.0594939461454231
 30
0.0
  0
VERTEX
  5
15900
  8
0
 10
167.9610987767443078
 20
81.0594939461454373
 30
0.0
  0
VERTEX
  5
15901
  8
0
 10
167.7986423667092026
 20
81.0594939461454373
 30
0.0
  0
VERTEX
  5
15902
  8
0
 10
167.6357823657328083
 20
81.0594939461454373
 30
0.0
  0
VERTEX
  5
15903
  8
0
 10
167.4724178760799873
 20
81.0594939461454373
 30
0.0
  0
VERTEX
  5
15904
  8
0
 10
167.3084517847632071
 20
81.0594939461454373
 30
0.0
  0
VERTEX
  5
15905
  8
0
 10
167.1438658603561009
 20
81.0594939461454373
 30
0.0
  0
VERTEX
  5
15906
  8
0
 10
166.978716465745407
 20
81.0594939461454373
 30
0.0
  0
VERTEX
  5
15907
  8
0
 10
166.8130628902771946
 20
81.0594939461454231
 30
0.0
  0
VERTEX
  5
15908
  8
0
 10
166.6469644232967937
 20
81.0594939461453947
 30
0.0
  0
VERTEX
  5
15909
  8
0
 10
166.4804803541499894
 20
81.0594939461453947
 30
0.0
  0
VERTEX
  5
1590A
  8
0
 10
166.3136699721825096
 20
81.0594939461453947
 30
0.0
  0
VERTEX
  5
1590B
  8
0
 10
166.1465925343057961
 20
81.0594939461453947
 30
0.0
  0
VERTEX
  5
1590C
  8
0
 10
165.9793071620098885
 20
81.0594939461453947
 30
0.0
  0
VERTEX
  5
1590D
  8
0
 10
165.8118729414470067
 20
81.0594939461453947
 30
0.0
  0
VERTEX
  5
1590E
  8
0
 10
165.6443489587686031
 20
81.0594939461453947
 30
0.0
  0
VERTEX
  5
1590F
  8
0
 10
165.4767943001266133
 20
81.0594939461453947
 30
0.0
  0
VERTEX
  5
15910
  8
0
 10
165.3092680516726887
 20
81.0594939461454231
 30
0.0
  0
VERTEX
  5
15911
  8
0
 10
165.1418292995585944
 20
81.0594939461454373
 30
0.0
  0
VERTEX
  5
15912
  8
0
 10
164.9745371299362091
 20
81.0594939461454373
 30
0.0
  0
VERTEX
  5
15913
  8
0
 10
164.807450603336207
 20
81.0594939461454373
 30
0.0
  0
VERTEX
  5
15914
  8
0
 10
164.6406250375395928
 20
81.0594939461454373
 30
0.0
  0
VERTEX
  5
15915
  8
0
 10
164.4741081071971109
 20
81.0594939461454373
 30
0.0
  0
VERTEX
  5
15916
  8
0
 10
164.3079465542377022
 20
81.0594939461454231
 30
0.0
  0
VERTEX
  5
15917
  8
0
 10
164.1421871205901084
 20
81.0594939461454231
 30
0.0
  0
VERTEX
  5
15918
  8
0
 10
163.9768765481834976
 20
81.0594939461453947
 30
0.0
  0
VERTEX
  5
15919
  8
0
 10
163.8120615789470094
 20
81.0594939461453947
 30
0.0
  0
VERTEX
  5
1591A
  8
0
 10
163.6477889548091866
 20
81.0594939461453947
 30
0.0
  0
VERTEX
  5
1591B
  8
0
 10
163.4841054176993111
 20
81.0594939461453947
 30
0.0
  0
VERTEX
  5
1591C
  8
0
 10
163.3210572280823953
 20
81.0594939461453947
 30
0.0
  0
VERTEX
  5
1591D
  8
0
 10
163.1586271850258072
 20
81.0594939461453947
 30
0.0
  0
VERTEX
  5
1591E
  8
0
 10
162.9966719328554916
 20
81.0594939461453947
 30
0.0
  0
VERTEX
  5
1591F
  8
0
 10
162.8350332079427858
 20
81.0594939461453947
 30
0.0
  0
VERTEX
  5
15920
  8
0
 10
162.6735527466587996
 20
81.0594939461454231
 30
0.0
  0
SEQEND
  5
15921
  8
0
  0
POLYLINE
  5
1523D
  8
0
 66
     1
 10
0.0
 20
0.0
 30
0.0
  0
VERTEX
  5
15922
  8
0
 10
171.3338067845029116
 20
86.0594939461453237
 30
0.0
  0
VERTEX
  5
15923
  8
0
 10
171.2358437002648941
 20
85.8898169069789503
 30
0.0
  0
VERTEX
  5
15924
  8
0
 10
171.1378220148768037
 20
85.7200383676432836
 30
0.0
  0
VERTEX
  5
15925
  8
0
 10
171.0396831271887095
 20
85.5500568279690157
 30
0.0
  0
VERTEX
  5
15926
  8
0
 10
170.9413684360503112
 20
85.3797707877869243
 30
0.0
  0
VERTEX
  5
15927
  8
0
 10
170.8428193403117064
 20
85.2090787469276307
 30
0.0
  0
VERTEX
  5
15928
  8
0
 10
170.7439772388227084
 20
85.0378792052218841
 30
0.0
  0
VERTEX
  5
15929
  8
0
 10
170.6447835304333864
 20
84.8660706625004053
 30
0.0
  0
VERTEX
  5
1592A
  8
0
 10
170.5451803406386944
 20
84.6935528771800392
 30
0.0
  0
VERTEX
  5
1592B
  8
0
 10
170.4451555733199939
 20
84.5203048981688028
 30
0.0
  0
VERTEX
  5
1592C
  8
0
 10
170.3447693713881108
 20
84.34643089604387
 30
0.0
  0
VERTEX
  5
1592D
  8
0
 10
170.2440882442178918
 20
84.1720460684218494
 30
0.0
  0
VERTEX
  5
1592E
  8
0
 10
170.1431787011844108
 20
83.9972656129193354
 30
0.0
  0
VERTEX
  5
1592F
  8
0
 10
170.0421072516625998
 20
83.8222047271529078
 30
0.0
  0
VERTEX
  5
15930
  8
0
 10
169.9409404050273906
 20
83.6469786087391469
 30
0.0
  0
VERTEX
  5
15931
  8
0
 10
169.8397446706536869
 20
83.4717024552946327
 30
0.0
  0
VERTEX
  5
15932
  8
0
 10
169.7385863885340029
 20
83.2964911710569282
 30
0.0
  0
VERTEX
  5
15933
  8
0
 10
169.6375277519551048
 20
83.1214524779583144
 30
0.0
  0
VERTEX
  5
15934
  8
0
 10
169.536626663119506
 20
82.9466866655562143
 30
0.0
  0
VERTEX
  5
15935
  8
0
 10
169.4359408259620068
 20
82.7722936799968068
 30
0.0
  0
VERTEX
  5
15936
  8
0
 10
169.3355279444166968
 20
82.5983734674263133
 30
0.0
  0
VERTEX
  5
15937
  8
0
 10
169.2354457224184898
 20
82.4250259739909126
 30
0.0
  0
VERTEX
  5
15938
  8
0
 10
169.1357518639015041
 20
82.2523511458367125
 30
0.0
  0
VERTEX
  5
15939
  8
0
 10
169.036493203671597
 20
82.0804301032275418
 30
0.0
  0
VERTEX
  5
1593A
  8
0
 10
168.9376375843100107
 20
81.9092071478796697
 30
0.0
  0
VERTEX
  5
1593B
  8
0
 10
168.839117960498811
 20
81.7385661538959027
 30
0.0
  0
VERTEX
  5
1593C
  8
0
 10
168.7408671331276082
 20
81.5683907290034256
 30
0.0
  0
VERTEX
  5
1593D
  8
0
 10
168.642817903086609
 20
81.3985644809293802
 30
0.0
  0
VERTEX
  5
1593E
  8
0
 10
168.5449030712657077
 20
81.2289710174009656
 30
0.0
  0
VERTEX
  5
1593F
  8
0
 10
168.4470554385547985
 20
81.0594939461453947
 30
0.0
  0
SEQEND
  5
15940
  8
0
  0
POLYLINE
  5
1523E
  8
0
 66
     1
 10
0.0
 20
0.0
 30
0.0
  0
VERTEX
  5
15941
  8
0
 10
218.9462452920936926
 20
109.4396959073928031
 30
0.0
  0
VERTEX
  5
15942
  8
0
 10
219.0442083763317953
 20
109.2700188682264013
 30
0.0
  0
VERTEX
  5
15943
  8
0
 10
219.1422300617198005
 20
109.1002403288907061
 30
0.0
  0
VERTEX
  5
15944
  8
0
 10
219.2403689494080083
 20
108.9302587892164951
 30
0.0
  0
VERTEX
  5
15945
  8
0
 10
219.3386836405464067
 20
108.7599727490343042
 30
0.0
  0
VERTEX
  5
15946
  8
0
 10
219.4372327362850967
 20
108.5892807081750959
 30
0.0
  0
VERTEX
  5
15947
  8
0
 10
219.5360748377740947
 20
108.4180811664693067
 30
0.0
  0
VERTEX
  5
15948
  8
0
 10
219.635268546163303
 20
108.2462726237477995
 30
0.0
  0
VERTEX
  5
15949
  8
0
 10
219.734871735957995
 20
108.0737548384275044
 30
0.0
  0
VERTEX
  5
1594A
  8
0
 10
219.8348965032766955
 20
107.9005068594162964
 30
0.0
  0
VERTEX
  5
1594B
  8
0
 10
219.935282705208607
 20
107.7266328572913068
 30
0.0
  0
VERTEX
  5
1594C
  8
0
 10
220.0359638323787976
 20
107.5522480296693004
 30
0.0
  0
VERTEX
  5
1594D
  8
0
 10
220.136873375412307
 20
107.3774675741668005
 30
0.0
  0
VERTEX
  5
1594E
  8
0
 10
220.2379448249340896
 20
107.202406688400302
 30
0.0
  0
VERTEX
  5
1594F
  8
0
 10
220.3391116715692135
 20
107.0271805699865979
 30
0.0
  0
VERTEX
  5
15950
  8
0
 10
220.4403074059430025
 20
106.8519044165420979
 30
0.0
  0
VERTEX
  5
15951
  8
0
 10
220.5414656880626012
 20
106.6766931323043934
 30
0.0
  0
VERTEX
  5
15952
  8
0
 10
220.6425243246416983
 20
106.5016544392056943
 30
0.0
  0
VERTEX
  5
15953
  8
0
 10
220.7434254134772118
 20
106.3268886268034947
 30
0.0
  0
VERTEX
  5
15954
  8
0
 10
220.844111250634711
 20
106.1524956412442009
 30
0.0
  0
VERTEX
  5
15955
  8
0
 10
220.9445241321797937
 20
105.9785754286736932
 30
0.0
  0
VERTEX
  5
15956
  8
0
 10
221.0446063541780859
 20
105.8052279352383067
 30
0.0
  0
VERTEX
  5
15957
  8
0
 10
221.1443002126951001
 20
105.6325531070841066
 30
0.0
  0
VERTEX
  5
15958
  8
0
 10
221.2435588729248934
 20
105.4606320644748934
 30
0.0
  0
VERTEX
  5
15959
  8
0
 10
221.3424144922865082
 20
105.2894091091271065
 30
0.0
  0
VERTEX
  5
1595A
  8
0
 10
221.4409341160977078
 20
105.1187681151432969
 30
0.0
  0
VERTEX
  5
1595B
  8
0
 10
221.5391849434689959
 20
104.9485926902508055
 30
0.0
  0
VERTEX
  5
1595C
  8
0
 10
221.6372341735099951
 20
104.7787664421768028
 30
0.0
  0
VERTEX
  5
1595D
  8
0
 10
221.7351490053310101
 20
104.6091729786484024
 30
0.0
  0
VERTEX
  5
1595E
  8
0
 10
221.8329966380418909
 20
104.4396959073929025
 30
0.0
  0
SEQEND
  5
1595F
  8
0
  0
POLYLINE
  5
1523F
  8
0
 66
     1
 10
0.0
 20
0.0
 30
0.0
  0
VERTEX
  5
15960
  8
0
 10
213.1727426001974948
 20
109.4396959073929025
 30
0.0
  0
VERTEX
  5
15961
  8
0
 10
213.334224869504709
 20
109.4396959073929025
 30
0.0
  0
VERTEX
  5
15962
  8
0
 10
213.4958645548784943
 20
109.4396959073929025
 30
0.0
  0
VERTEX
  5
15963
  8
0
 10
213.6578190723851094
 20
109.4396959073928031
 30
0.0
  0
VERTEX
  5
15964
  8
0
 10
213.8202458380910969
 20
109.4396959073928031
 30
0.0
  0
VERTEX
  5
15965
  8
0
 10
213.9832875009358872
 20
109.4396959073928031
 30
0.0
  0
VERTEX
  5
15966
  8
0
 10
214.1469617404515873
 20
109.4396959073927036
 30
0.0
  0
VERTEX
  5
15967
  8
0
 10
214.3112233683771137
 20
109.4396959073927036
 30
0.0
  0
VERTEX
  5
15968
  8
0
 10
214.4760267194153869
 20
109.4396959073927036
 30
0.0
  0
VERTEX
  5
15969
  8
0
 10
214.6413261282689859
 20
109.4396959073927036
 30
0.0
  0
VERTEX
  5
1596A
  8
0
 10
214.807075929641087
 20
109.4396959073927036
 30
0.0
  0
VERTEX
  5
1596B
  8
0
 10
214.9732304582342124
 20
109.4396959073927036
 30
0.0
  0
VERTEX
  5
1596C
  8
0
 10
215.1397440487511972
 20
109.4396959073927036
 30
0.0
  0
VERTEX
  5
1596D
  8
0
 10
215.3065710358947911
 20
109.4396959073927036
 30
0.0
  0
VERTEX
  5
1596E
  8
0
 10
215.4736634528624108
 20
109.4396959073927036
 30
0.0
  0
VERTEX
  5
1596F
  8
0
 10
215.6409639293264888
 20
109.4396959073927036
 30
0.0
  0
VERTEX
  5
15970
  8
0
 10
215.808412693646801
 20
109.4396959073927036
 30
0.0
  0
VERTEX
  5
15971
  8
0
 10
215.9759499741828108
 20
109.4396959073927036
 30
0.0
  0
VERTEX
  5
15972
  8
0
 10
216.1435159992934985
 20
109.4396959073927036
 30
0.0
  0
VERTEX
  5
15973
  8
0
 10
216.3110509973382989
 20
109.4396959073927036
 30
0.0
  0
VERTEX
  5
15974
  8
0
 10
216.478495196676505
 20
109.4396959073927036
 30
0.0
  0
VERTEX
  5
15975
  8
0
 10
216.6457888256672106
 20
109.4396959073927036
 30
0.0
  0
VERTEX
  5
15976
  8
0
 10
216.8128721126701066
 20
109.4396959073927036
 30
0.0
  0
VERTEX
  5
15977
  8
0
 10
216.9796853877211049
 20
109.4396959073927036
 30
0.0
  0
VERTEX
  5
15978
  8
0
 10
217.1461693704094955
 20
109.4396959073927036
 30
0.0
  0
VERTEX
  5
15979
  8
0
 10
217.3122648736043914
 20
109.4396959073927036
 30
0.0
  0
VERTEX
  5
1597A
  8
0
 10
217.4779127101747065
 20
109.4396959073927036
 30
0.0
  0
VERTEX
  5
1597B
  8
0
 10
217.643053692989298
 20
109.4396959073927036
 30
0.0
  0
VERTEX
  5
1597C
  8
0
 10
217.8076286349169948
 20
109.4396959073927036
 30
0.0
  0
VERTEX
  5
1597D
  8
0
 10
217.9715825450132058
 20
109.4396959073927036
 30
0.0
  0
VERTEX
  5
1597E
  8
0
 10
218.1349405925832912
 20
109.4396959073927036
 30
0.0
  0
VERTEX
  5
1597F
  8
0
 10
218.2977999548498076
 20
109.4396959073927036
 30
0.0
  0
VERTEX
  5
15980
  8
0
 10
218.4602603688732927
 20
109.4396959073927036
 30
0.0
  0
VERTEX
  5
15981
  8
0
 10
218.6224215717145967
 20
109.4396959073927036
 30
0.0
  0
VERTEX
  5
15982
  8
0
 10
218.7843833004345981
 20
109.4396959073927036
 30
0.0
  0
VERTEX
  5
15983
  8
0
 10
218.9462452920936926
 20
109.4396959073928031
 30
0.0
  0
SEQEND
  5
15984
  8
0
  0
POLYLINE
  5
15240
  8
0
 66
     1
 10
0.0
 20
0.0
 30
0.0
  0
VERTEX
  5
15985
  8
0
 10
210.2859912542492964
 20
104.439695907393002
 30
0.0
  0
VERTEX
  5
15986
  8
0
 10
210.3839543384873139
 20
104.6093729465594038
 30
0.0
  0
VERTEX
  5
15987
  8
0
 10
210.4819760238754895
 20
104.7791514858949995
 30
0.0
  0
VERTEX
  5
15988
  8
0
 10
210.5801149115636974
 20
104.9491330255692958
 30
0.0
  0
VERTEX
  5
15989
  8
0
 10
210.6784296027020957
 20
105.1194190657514014
 30
0.0
  0
VERTEX
  5
1598A
  8
0
 10
210.7769786984407858
 20
105.2901111066106949
 30
0.0
  0
VERTEX
  5
1598B
  8
0
 10
210.8758207999296133
 20
105.4613106483163989
 30
0.0
  0
VERTEX
  5
1598C
  8
0
 10
210.9750145083191057
 20
105.6331191910379061
 30
0.0
  0
VERTEX
  5
1598D
  8
0
 10
211.0746176981137125
 20
105.8056369763582012
 30
0.0
  0
VERTEX
  5
1598E
  8
0
 10
211.174642465432413
 20
105.9788849553694945
 30
0.0
  0
VERTEX
  5
1598F
  8
0
 10
211.2750286673642961
 20
106.1527589574943988
 30
0.0
  0
VERTEX
  5
15990
  8
0
 10
211.3757097945344867
 20
106.3271437851164052
 30
0.0
  0
VERTEX
  5
15991
  8
0
 10
211.4766193375677972
 20
106.5019242406190045
 30
0.0
  0
VERTEX
  5
15992
  8
0
 10
211.5776907870896935
 20
106.6769851263854036
 30
0.0
  0
VERTEX
  5
15993
  8
0
 10
211.6788576337249879
 20
106.852211244799193
 30
0.0
  0
VERTEX
  5
15994
  8
0
 10
211.7800533680986064
 20
107.027487398243693
 30
0.0
  0
VERTEX
  5
15995
  8
0
 10
211.881211650218404
 20
107.2026986824813974
 30
0.0
  0
VERTEX
  5
15996
  8
0
 10
211.9822702867973874
 20
107.3777373755799971
 30
0.0
  0
VERTEX
  5
15997
  8
0
 10
212.0831713756329009
 20
107.5525031879820972
 30
0.0
  0
VERTEX
  5
15998
  8
0
 10
212.1838572127905138
 20
107.7268961735415047
 30
0.0
  0
VERTEX
  5
15999
  8
0
 10
212.2842700943355112
 20
107.9008163861119982
 30
0.0
  0
VERTEX
  5
1599A
  8
0
 10
212.3843523163338887
 20
108.0741638795473989
 30
0.0
  0
VERTEX
  5
1599B
  8
0
 10
212.4840461748509028
 20
108.246838707701599
 30
0.0
  0
VERTEX
  5
1599C
  8
0
 10
212.5833048350806109
 20
108.418759750310798
 30
0.0
  0
VERTEX
  5
1599D
  8
0
 10
212.682160454442311
 20
108.5899827056585991
 30
0.0
  0
VERTEX
  5
1599E
  8
0
 10
212.7806800782535959
 20
108.7606236996423945
 30
0.0
  0
VERTEX
  5
1599F
  8
0
 10
212.8789309056247134
 20
108.9307991245349001
 30
0.0
  0
VERTEX
  5
159A0
  8
0
 10
212.9769801356657126
 20
109.1006253726090023
 30
0.0
  0
VERTEX
  5
159A1
  8
0
 10
213.0748949674865003
 20
109.2702188361373032
 30
0.0
  0
VERTEX
  5
159A2
  8
0
 10
213.1727426001974948
 20
109.4396959073929025
 30
0.0
  0
SEQEND
  5
159A3
  8
0
  0
POLYLINE
  5
15241
  8
0
 66
     1
 10
0.0
 20
0.0
 30
0.0
  0
VERTEX
  5
159A4
  8
0
 10
213.1727426001974948
 20
99.4396959073928457
 30
0.0
  0
VERTEX
  5
159A5
  8
0
 10
213.0747795159595057
 20
99.6093729465592332
 30
0.0
  0
VERTEX
  5
159A6
  8
0
 10
212.9767578305713869
 20
99.7791514858949142
 30
0.0
  0
VERTEX
  5
159A7
  8
0
 10
212.8786189428832074
 20
99.9491330255691537
 30
0.0
  0
VERTEX
  5
159A8
  8
0
 10
212.7803042517448091
 20
100.1194190657513019
 30
0.0
  0
VERTEX
  5
159A9
  8
0
 10
212.6817551560062043
 20
100.290111106610496
 30
0.0
  0
VERTEX
  5
159AA
  8
0
 10
212.5829130545172063
 20
100.4613106483162994
 30
0.0
  0
VERTEX
  5
159AB
  8
0
 10
212.4837193461279128
 20
100.6331191910378067
 30
0.0
  0
VERTEX
  5
159AC
  8
0
 10
212.3841161563331923
 20
100.8056369763581017
 30
0.0
  0
VERTEX
  5
159AD
  8
0
 10
212.2840913890144066
 20
100.9788849553692955
 30
0.0
  0
VERTEX
  5
159AE
  8
0
 10
212.1837051870826087
 20
101.1527589574942994
 30
0.0
  0
VERTEX
  5
159AF
  8
0
 10
212.0830240599123897
 20
101.3271437851163057
 30
0.0
  0
VERTEX
  5
159B0
  8
0
 10
211.9821145168789087
 20
101.5019242406189051
 30
0.0
  0
VERTEX
  5
159B1
  8
0
 10
211.8810430673572114
 20
101.6769851263853042
 30
0.0
  0
VERTEX
  5
159B2
  8
0
 10
211.7798762207218886
 20
101.8522112447990935
 30
0.0
  0
VERTEX
  5
159B3
  8
0
 10
211.6786804863482132
 20
102.0274873982435935
 30
0.0
  0
VERTEX
  5
159B4
  8
0
 10
211.5775222042283872
 20
102.202698682481298
 30
0.0
  0
VERTEX
  5
159B5
  8
0
 10
211.4764635676494038
 20
102.3777373755799971
 30
0.0
  0
VERTEX
  5
159B6
  8
0
 10
211.375562478813805
 20
102.5525031879820972
 30
0.0
  0
VERTEX
  5
159B7
  8
0
 10
211.2748766416563058
 20
102.7268961735415047
 30
0.0
  0
VERTEX
  5
159B8
  8
0
 10
211.1744637601111947
 20
102.9008163861119982
 30
0.0
  0
VERTEX
  5
159B9
  8
0
 10
211.0743815381129025
 20
103.0741638795473989
 30
0.0
  0
VERTEX
  5
159BA
  8
0
 10
210.974687679595803
 20
103.246838707701599
 30
0.0
  0
VERTEX
  5
159BB
  8
0
 10
210.875429019366095
 20
103.418759750310798
 30
0.0
  0
VERTEX
  5
159BC
  8
0
 10
210.7765734000045939
 20
103.5899827056586986
 30
0.0
  0
VERTEX
  5
159BD
  8
0
 10
210.678053776193309
 20
103.7606236996423945
 30
0.0
  0
VERTEX
  5
159BE
  8
0
 10
210.5798029488221061
 20
103.9307991245349001
 30
0.0
  0
VERTEX
  5
159BF
  8
0
 10
210.4817537187811922
 20
104.1006253726090023
 30
0.0
  0
VERTEX
  5
159C0
  8
0
 10
210.3838388869602056
 20
104.2702188361374027
 30
0.0
  0
VERTEX
  5
159C1
  8
0
 10
210.2859912542492964
 20
104.439695907393002
 30
0.0
  0
SEQEND
  5
159C2
  8
0
  0
POLYLINE
  5
15242
  8
0
 66
     1
 10
0.0
 20
0.0
 30
0.0
  0
VERTEX
  5
159C3
  8
0
 10
218.9462452920936926
 20
99.4396959073927746
 30
0.0
  0
VERTEX
  5
159C4
  8
0
 10
218.7843942684706064
 20
99.4396959073928457
 30
0.0
  0
VERTEX
  5
159C5
  8
0
 10
218.6224423471120986
 20
99.4396959073928457
 30
0.0
  0
VERTEX
  5
159C6
  8
0
 10
218.4602886302830882
 20
99.4396959073928457
 30
0.0
  0
VERTEX
  5
159C7
  8
0
 10
218.2978322202480115
 20
99.4396959073928741
 30
0.0
  0
VERTEX
  5
159C8
  8
0
 10
218.1349722192717024
 20
99.4396959073929168
 30
0.0
  0
VERTEX
  5
159C9
  8
0
 10
217.9716077296189098
 20
99.4396959073929168
 30
0.0
  0
VERTEX
  5
159CA
  8
0
 10
217.8076416383019875
 20
99.4396959073929168
 30
0.0
  0
VERTEX
  5
159CB
  8
0
 10
217.6430557138949098
 20
99.4396959073929168
 30
0.0
  0
VERTEX
  5
159CC
  8
0
 10
217.4779063192843012
 20
99.4396959073929168
 30
0.0
  0
VERTEX
  5
159CD
  8
0
 10
217.3122527438160034
 20
99.4396959073929168
 30
0.0
  0
VERTEX
  5
159CE
  8
0
 10
217.1461542768356878
 20
99.4396959073928741
 30
0.0
  0
VERTEX
  5
159CF
  8
0
 10
216.9796702076887982
 20
99.4396959073928741
 30
0.0
  0
VERTEX
  5
159D0
  8
0
 10
216.8128598257214037
 20
99.4396959073928741
 30
0.0
  0
VERTEX
  5
159D1
  8
0
 10
216.645782387844605
 20
99.4396959073928741
 30
0.0
  0
VERTEX
  5
159D2
  8
0
 10
216.4784970155488963
 20
99.4396959073928741
 30
0.0
  0
VERTEX
  5
159D3
  8
0
 10
216.3110627949859008
 20
99.4396959073928741
 30
0.0
  0
VERTEX
  5
159D4
  8
0
 10
216.1435388123074972
 20
99.4396959073928741
 30
0.0
  0
VERTEX
  5
159D5
  8
0
 10
215.9759841536653084
 20
99.4396959073929168
 30
0.0
  0
VERTEX
  5
159D6
  8
0
 10
215.8084579052114975
 20
99.4396959073929168
 30
0.0
  0
VERTEX
  5
159D7
  8
0
 10
215.6410191530974032
 20
99.4396959073929168
 30
0.0
  0
VERTEX
  5
159D8
  8
0
 10
215.4737269834751885
 20
99.4396959073929168
 30
0.0
  0
VERTEX
  5
159D9
  8
0
 10
215.3066404568749022
 20
99.4396959073929168
 30
0.0
  0
VERTEX
  5
159DA
  8
0
 10
215.1398148910784016
 20
99.4396959073929168
 30
0.0
  0
VERTEX
  5
159DB
  8
0
 10
214.9732979607360051
 20
99.4396959073929168
 30
0.0
  0
VERTEX
  5
159DC
  8
0
 10
214.8071364077765111
 20
99.4396959073929168
 30
0.0
  0
VERTEX
  5
159DD
  8
0
 10
214.6413769741290025
 20
99.4396959073929168
 30
0.0
  0
VERTEX
  5
159DE
  8
0
 10
214.4760664017223917
 20
99.4396959073929168
 30
0.0
  0
VERTEX
  5
159DF
  8
0
 10
214.3112514324859035
 20
99.4396959073929168
 30
0.0
  0
VERTEX
  5
159E0
  8
0
 10
214.1469788083481092
 20
99.4396959073929168
 30
0.0
  0
VERTEX
  5
159E1
  8
0
 10
213.9832952712382053
 20
99.4396959073929168
 30
0.0
  0
VERTEX
  5
159E2
  8
0
 10
213.8202470816210905
 20
99.4396959073928741
 30
0.0
  0
VERTEX
  5
159E3
  8
0
 10
213.6578170385645024
 20
99.4396959073928741
 30
0.0
  0
VERTEX
  5
159E4
  8
0
 10
213.4958617863944141
 20
99.4396959073928457
 30
0.0
  0
VERTEX
  5
159E5
  8
0
 10
213.3342230614815094
 20
99.4396959073928457
 30
0.0
  0
VERTEX
  5
159E6
  8
0
 10
213.1727426001974948
 20
99.4396959073928457
 30
0.0
  0
SEQEND
  5
159E7
  8
0
  0
POLYLINE
  5
15243
  8
0
 66
     1
 10
0.0
 20
0.0
 30
0.0
  0
VERTEX
  5
159E8
  8
0
 10
221.8329966380418909
 20
104.4396959073929025
 30
0.0
  0
VERTEX
  5
159E9
  8
0
 10
221.7350335538039019
 20
104.2700188682265008
 30
0.0
  0
VERTEX
  5
159EA
  8
0
 10
221.6370118684158115
 20
104.1002403288908056
 30
0.0
  0
VERTEX
  5
159EB
  8
0
 10
221.5388729807274899
 20
103.9302587892164951
 30
0.0
  0
VERTEX
  5
159EC
  8
0
 10
221.4405582895892053
 20
103.7599727490344037
 30
0.0
  0
VERTEX
  5
159ED
  8
0
 10
221.3420091938506005
 20
103.5892807081750959
 30
0.0
  0
VERTEX
  5
159EE
  8
0
 10
221.2431670923616878
 20
103.4180811664693067
 30
0.0
  0
VERTEX
  5
159EF
  8
0
 10
221.143973383972309
 20
103.2462726237477995
 30
0.0
  0
VERTEX
  5
159F0
  8
0
 10
221.0443701941775885
 20
103.0737548384275044
 30
0.0
  0
VERTEX
  5
159F1
  8
0
 10
220.9443454268590017
 20
102.9005068594161969
 30
0.0
  0
VERTEX
  5
159F2
  8
0
 10
220.8439592249270902
 20
102.7266328572913068
 30
0.0
  0
VERTEX
  5
159F3
  8
0
 10
220.7432780977570133
 20
102.5522480296693004
 30
0.0
  0
VERTEX
  5
159F4
  8
0
 10
220.6423685547235038
 20
102.3774675741668005
 30
0.0
  0
VERTEX
  5
159F5
  8
0
 10
220.5412971052016076
 20
102.202406688400302
 30
0.0
  0
VERTEX
  5
159F6
  8
0
 10
220.4401302585665121
 20
102.0271805699865979
 30
0.0
  0
VERTEX
  5
159F7
  8
0
 10
220.3389345241926947
 20
101.8519044165420979
 30
0.0
  0
VERTEX
  5
159F8
  8
0
 10
220.2377762420730107
 20
101.676693132304294
 30
0.0
  0
VERTEX
  5
159F9
  8
0
 10
220.1367176054939137
 20
101.5016544392056943
 30
0.0
  0
VERTEX
  5
159FA
  8
0
 10
220.0358165166582864
 20
101.3268886268035942
 30
0.0
  0
VERTEX
  5
159FB
  8
0
 10
219.9351306795009009
 20
101.1524956412442009
 30
0.0
  0
VERTEX
  5
159FC
  8
0
 10
219.8347177979557046
 20
100.9785754286736932
 30
0.0
  0
VERTEX
  5
159FD
  8
0
 10
219.7346355759574124
 20
100.8052279352383067
 30
0.0
  0
VERTEX
  5
159FE
  8
0
 10
219.6349417174403982
 20
100.6325531070841066
 30
0.0
  0
VERTEX
  5
159FF
  8
0
 10
219.5356830572104911
 20
100.4606320644748934
 30
0.0
  0
VERTEX
  5
15A00
  8
0
 10
219.43682743784899
 20
100.2894091091271065
 30
0.0
  0
VERTEX
  5
15A01
  8
0
 10
219.3383078140375062
 20
100.1187681151432969
 30
0.0
  0
VERTEX
  5
15A02
  8
0
 10
219.2400569866665023
 20
99.9485926902508339
 30
0.0
  0
VERTEX
  5
15A03
  8
0
 10
219.1420077566253894
 20
99.7787664421768028
 30
0.0
  0
VERTEX
  5
15A04
  8
0
 10
219.0440929248044881
 20
99.6091729786483739
 30
0.0
  0
VERTEX
  5
15A05
  8
0
 10
218.9462452920936073
 20
99.4396959073928173
 30
0.0
  0
SEQEND
  5
15A06
  8
0
  0
ENDSEC
  0
EOF
