  0
SECTION
  2
HEADER
  9
$ACADVER
  1
AC1009
  9
$INSBASE
 10
0.0
 20
0.0
 30
0.0
  9
$EXTMIN
 10
0.0
 20
0.0
 30
0.0
  9
$EXTMAX
 10
266.5000000000006253
 20
292.0000000000001137
 30
0.0
  9
$LIMMIN
 10
0.0
 20
0.0
  9
$LIMMAX
 10
420.0
 20
297.0
  9
$ORTHOMODE
 70
     1
  9
$REGENMODE
 70
     1
  9
$FILLMODE
 70
     1
  9
$QTEXTMODE
 70
     0
  9
$MIRRTEXT
 70
     0
  9
$DRAGMODE
 70
     2
  9
$LTSCALE
 40
1.0
  9
$OSMODE
 70
    37
  9
$ATTMODE
 70
     1
  9
$TEXTSIZE
 40
2.5
  9
$TRACEWID
 40
1.0
  9
$TEXTSTYLE
  7
STANDARD
  9
$CLAYER
  8
0
  9
$CELTYPE
  6
BYLAYER
  9
$CECOLOR
 62
   256
  9
$DIMSCALE
 40
1.0
  9
$DIMASZ
 40
2.5
  9
$DIMEXO
 40
0.625
  9
$DIMDLI
 40
3.75
  9
$DIMRND
 40
0.0
  9
$DIMDLE
 40
0.0
  9
$DIMEXE
 40
1.25
  9
$DIMTP
 40
0.0
  9
$DIMTM
 40
0.0
  9
$DIMTXT
 40
2.5
  9
$DIMCEN
 40
2.5
  9
$DIMTSZ
 40
0.0
  9
$DIMTOL
 70
     0
  9
$DIMLIM
 70
     0
  9
$DIMTIH
 70
     0
  9
$DIMTOH
 70
     0
  9
$DIMSE1
 70
     0
  9
$DIMSE2
 70
     0
  9
$DIMTAD
 70
     1
  9
$DIMZIN
 70
     8
  9
$DIMBLK
  1

  9
$DIMASO
 70
     1
  9
$DIMSHO
 70
     1
  9
$DIMPOST
  1

  9
$DIMAPOST
  1

  9
$DIMALT
 70
     0
  9
$DIMALTD
 70
     3
  9
$DIMALTF
 40
0.03937007874016
  9
$DIMLFAC
 40
1.0
  9
$DIMTOFL
 70
     1
  9
$DIMTVP
 40
0.0
  9
$DIMTIX
 70
     0
  9
$DIMSOXD
 70
     0
  9
$DIMSAH
 70
     0
  9
$DIMBLK1
  1

  9
$DIMBLK2
  1

  9
$DIMSTYLE
  2
ISO-25
  9
$DIMCLRD
 70
     0
  9
$DIMCLRE
 70
     0
  9
$DIMCLRT
 70
     0
  9
$DIMTFAC
 40
1.0
  9
$DIMGAP
 40
0.625
  9
$LUNITS
 70
     2
  9
$LUPREC
 70
     1
  9
$SKETCHINC
 40
1.0
  9
$FILLETRAD
 40
0.0
  9
$AUNITS
 70
     0
  9
$AUPREC
 70
     0
  9
$MENU
  1
.
  9
$ELEVATION
 40
0.0
  9
$PELEVATION
 40
0.0
  9
$THICKNESS
 40
0.0
  9
$LIMCHECK
 70
     0
  9
$BLIPMODE
 70
     0
  9
$CHAMFERA
 40
0.0
  9
$CHAMFERB
 40
0.0
  9
$SKPOLY
 70
     0
  9
$TDCREATE
 40
2454946.5997685180045664
  9
$TDUPDATE
 40
2460745.6380671299993992
  9
$TDINDWG
 40
1.3702502199
  9
$TDUSRTIMER
 40
1.3702500463
  9
$USRTIMER
 70
     1
  9
$ANGBASE
 50
0.0
  9
$ANGDIR
 70
     0
  9
$PDMODE
 70
     0
  9
$PDSIZE
 40
0.0
  9
$PLINEWID
 40
0.0
  9
$COORDS
 70
     1
  9
$SPLFRAME
 70
     0
  9
$SPLINETYPE
 70
     6
  9
$SPLINESEGS
 70
     8
  9
$ATTDIA
 70
     1
  9
$ATTREQ
 70
     1
  9
$HANDLING
 70
     1
  9
$HANDSEED
  5
170BC
  9
$SURFTAB1
 70
     6
  9
$SURFTAB2
 70
     6
  9
$SURFTYPE
 70
     6
  9
$SURFU
 70
     6
  9
$SURFV
 70
     6
  9
$UCSNAME
  2

  9
$UCSORG
 10
0.0
 20
0.0
 30
0.0
  9
$UCSXDIR
 10
1.0
 20
0.0
 30
0.0
  9
$UCSYDIR
 10
0.0
 20
1.0
 30
0.0
  9
$PUCSNAME
  2

  9
$PUCSORG
 10
0.0
 20
0.0
 30
0.0
  9
$PUCSXDIR
 10
1.0
 20
0.0
 30
0.0
  9
$PUCSYDIR
 10
0.0
 20
1.0
 30
0.0
  9
$USERI1
 70
     0
  9
$USERI2
 70
     0
  9
$USERI3
 70
     0
  9
$USERI4
 70
     0
  9
$USERI5
 70
     0
  9
$USERR1
 40
0.0
  9
$USERR2
 40
0.0
  9
$USERR3
 40
0.0
  9
$USERR4
 40
0.0
  9
$USERR5
 40
0.0
  9
$WORLDVIEW
 70
     1
  9
$SHADEDGE
 70
     3
  9
$SHADEDIF
 70
    70
  9
$TILEMODE
 70
     1
  9
$MAXACTVP
 70
    64
  9
$PLIMCHECK
 70
     0
  9
$PEXTMIN
 10
0.0
 20
0.0
 30
0.0
  9
$PEXTMAX
 10
0.0
 20
0.0
 30
0.0
  9
$PLIMMIN
 10
0.0
 20
0.0
  9
$PLIMMAX
 10
12.0
 20
9.0
  9
$UNITMODE
 70
     0
  9
$VISRETAIN
 70
     1
  9
$PLINEGEN
 70
     0
  9
$PSLTSCALE
 70
     1
  0
ENDSEC
  0
SECTION
  2
TABLES
  0
TABLE
  2
VPORT
 70
     1
  0
VPORT
  2
*ACTIVE
 70
     0
 10
0.0
 20
0.0
 11
1.0
 21
1.0
 12
366.1169415292353051
 22
156.4439249890426993
 13
0.0
 23
0.0
 14
10.0
 24
10.0
 15
10.0
 25
10.0
 16
0.0
 26
0.0
 36
1.0
 17
0.0
 27
0.0
 37
0.0
 40
312.8878499780855122
 41
2.340243902439024
 42
50.0
 43
0.0
 44
0.0
 50
0.0
 51
0.0
 71
     0
 72
  1000
 73
     1
 74
     3
 75
     0
 76
     0
 77
     0
 78
     0
  0
ENDTAB
  0
TABLE
  2
LTYPE
 70
     4
  0
LTYPE
  2
CONTINUOUS
 70
     0
  3
Solid line
 72
    65
 73
     0
 40
0.0
  0
LTYPE
  2
CENTER
 70
     0
  3
Center ____ _ ____ _ ____ _ ____ _ ____ _ ____
 72
    65
 73
     4
 40
10.1600000000000001
 49
6.3499999999999979
 49
-1.27
 49
1.27
 49
-1.27
  0
LTYPE
  2
PHANTOM2
 70
     0
  3
Phantom (.5x) ___ _ _ ___ _ _ ___ _ _ ___ _ _
 72
    65
 73
     6
 40
31.75
 49
15.875
 49
-3.174999999999998
 49
3.174999999999998
 49
-3.174999999999998
 49
3.174999999999998
 49
-3.174999999999998
  0
LTYPE
  2
HIDDEN
 70
     0
  3
Hidden __ __ __ __ __ __ __ __ __ __ __ __ __ __
 72
    65
 73
     2
 40
1.905
 49
1.27
 49
-0.635
  0
ENDTAB
  0
TABLE
  2
LAYER
 70
     5
  0
LAYER
  2
0
 70
     0
 62
     7
  6
CONTINUOUS
  0
LAYER
  2
DEFPOINTS
 70
     0
 62
     7
  6
CONTINUOUS
  0
LAYER
  2
1
 70
     0
 62
     1
  6
CENTER
  0
LAYER
  2
3
 70
     0
 62
     3
  6
CONTINUOUS
  0
LAYER
  2
2
 70
     0
 62
     2
  6
HIDDEN
  0
ENDTAB
  0
TABLE
  2
STYLE
 70
     3
  0
STYLE
  2
STANDARD
 70
     0
 40
0.0
 41
1.0
 50
0.0
 71
     0
 42
2.5
  3
txt
  4

  0
STYLE
  2
ANNOTATIVE
 70
     0
 40
0.0
 41
1.0
 50
0.0
 71
     0
 42
0.2
  3
txt
  4

  0
STYLE
  2
STANDARD1
 70
     0
 40
0.0
 41
1.0
 50
0.0
 71
     0
 42
3.0
  3
txt
  4

  0
ENDTAB
  0
TABLE
  2
VIEW
 70
     0
  0
ENDTAB
  0
TABLE
  2
UCS
 70
     0
  0
ENDTAB
  0
TABLE
  2
APPID
 70
   134
  0
APPID
  2
ACAD
 70
     0
  0
APPID
  2
ACADANNOTATIVE
 70
     0
  0
APPID
  2
_FTCNV
 70
     0
  0
APPID
  2
GENIUS_GENODEF_13
 70
     0
  0
APPID
  2
GENIUS_GENOENT_13
 70
     0
  0
APPID
  2
GENIUS_GENOBJ-N-CEN_13
 70
     0
  0
APPID
  2
GENIUS_GENOLIS_13
 70
     0
  0
APPID
  2
GENIUS_GENOREF_13
 70
     0
  0
APPID
  2
GENIUS_GENOBJ-N-CRS_13
 70
     0
  0
APPID
  2
GENIUS_GENOBJ-N-FIL_13
 70
     0
  0
APPID
  2
GENIUS_GENOBJ-N-REC_13
 70
     0
  0
APPID
  2
GENIUS_GENFIL_13
 70
     0
  0
APPID
  2
GENIUS_GENOBJ-N-CHA_13
 70
     0
  0
APPID
  2
ASM_BASE
 70
     0
  0
APPID
  2
_PHO
 70
     0
  0
APPID
  2
_CLP
 70
     0
  0
APPID
  2
MOJIGUMI_PARTS
 70
     0
  0
APPID
  2
_DBL
 70
     0
  0
APPID
  2
_PWH
 70
     0
  0
APPID
  2
_G9P
 70
     0
  0
APPID
  2
AME_SOL
 70
     0
  0
APPID
  2
HAKO_DEF
 70
     0
  0
APPID
  2
HAKO_TXT
 70
     0
  0
APPID
  2
HAKO_OVR
 70
     0
  0
APPID
  2
ASM_EXPLO_VER_2_00
 70
     0
  0
APPID
  2
ASM_CADM_VER_12_00
 70
     0
  0
APPID
  2
ASM_BASEFORO
 70
     0
  0
APPID
  2
ASM_BASETRAVI
 70
     0
  0
APPID
  2
ASM_BASETRAVI1
 70
     0
  0
APPID
  2
ASM_GRUPPI
 70
     0
  0
APPID
  2
ASM_CADM_ALBERO
 70
     0
  0
APPID
  2
ASM_GOLE
 70
     0
  0
APPID
  2
GENIUS_GENCFG_13
 70
     0
  0
APPID
  2
GENIUS_GENCFG0_13
 70
     0
  0
APPID
  2
GENIUS_GENCFG1_13
 70
     0
  0
APPID
  2
GENIUS_GENCFG2_13
 70
     0
  0
APPID
  2
GENIUS_GENCFG3_13
 70
     0
  0
APPID
  2
GENIUS_GENCFG4_13
 70
     0
  0
APPID
  2
GENIUS_GEVCFG0_13
 70
     0
  0
APPID
  2
GENIUS_GENHATCH_13
 70
     0
  0
APPID
  2
GENIUS_GEFCFG0_13
 70
     0
  0
APPID
  2
GENIUS_GENOBJ-N-HTC_13
 70
     0
  0
APPID
  2
DCO15
 70
     0
  0
APPID
  2
AVE_RENDER
 70
     0
  0
APPID
  2
AVE_ENTITY_MATERIAL
 70
     0
  0
APPID
  2
AVE_FINISH
 70
     0
  0
APPID
  2
AVE_MATERIAL
 70
     0
  0
APPID
  2
AVE_GLOBAL
 70
     0
  0
APPID
  2
_NUM
 70
     0
  0
APPID
  2
HAKO_FNM
 70
     0
  0
APPID
  2
_CALL_MAC$
 70
     0
  0
APPID
  2
ACA_CADIMENU
 70
     0
  0
APPID
  2
AUTOCAD_POSTSCRIPT_FIGURE
 70
     0
  0
APPID
  2
GEV_VCCNULL_SWITCH_OFF
 70
     0
  0
APPID
  2
GENIUS_GENDTOL_13
 70
     0
  0
APPID
  2
GENIUS_GEFWELD_13
 70
     0
  0
APPID
  2
GENIUS_GENOBJ-F-WELS_13
 70
     0
  0
APPID
  2
GEVID961514679
 70
     0
  0
APPID
  2
GEVDC
 70
     0
  0
APPID
  2
GEVPT
 70
     0
  0
APPID
  2
GEVIT
 70
     0
  0
APPID
  2
VCC
 70
     0
  0
APPID
  2
GENBH
 70
     0
  0
APPID
  2
GEVMK
 70
     0
  0
APPID
  2
GENIUS_GENBH_13
 70
     0
  0
APPID
  2
GENIUS_GENOBJ-NBEHI-BHF_13
 70
     0
  0
APPID
  2
GENIUS_GENOBJ-NBEHI-BHB_13
 70
     0
  0
APPID
  2
GENIUS_GENOBJ-F-DESC_13
 70
     0
  0
APPID
  2
GENIUS_GEFDESC_14
 70
     0
  0
APPID
  2
GENIUS_GENOBJ-F-PART_13
 70
     0
  0
APPID
  2
GENIUS_GEFSTDP_13
 70
     0
  0
APPID
  2
GENIUS_GEFPARTINS_13
 70
     0
  0
APPID
  2
GEVID961514680
 70
     0
  0
APPID
  2
GENIUS_GENTRA_14
 70
     0
  0
APPID
  2
GENIUS_GENINF13_13
 70
     0
  0
APPID
  2
GENIUS_GENOBJ-N-INFOPT_13
 70
     0
  0
APPID
  2
GENIUS_GENOBJ-N-RSSYM_13
 70
     0
  0
APPID
  2
GENIUS_GENSYMENT_13
 70
     0
  0
APPID
  2
GENIUS_GENSCSYM_13
 70
     0
  0
APPID
  2
GENIUS_GEFINFNAM_13
 70
     0
  0
APPID
  2
GENIUS_GENREC_14
 70
     0
  0
APPID
  2
GEVID962097543
 70
     0
  0
APPID
  2
GEVID962097544
 70
     0
  0
APPID
  2
GEVID962097545
 70
     0
  0
APPID
  2
GENIUS_DUMCFG0_13
 70
     0
  0
APPID
  2
GEVID962352965
 70
     0
  0
APPID
  2
GEVID962352966
 70
     0
  0
APPID
  2
GEVID962352968
 70
     0
  0
APPID
  2
GEVRADREF
 70
     0
  0
APPID
  2
GEVID963230099
 70
     0
  0
APPID
  2
GENIUS_GENOBJ-F-FEAT_13
 70
     0
  0
APPID
  2
GENIUS_GEFFEAT_14
 70
     0
  0
APPID
  2
GEVID963230100
 70
     0
  0
APPID
  2
GEVID963230101
 70
     0
  0
APPID
  2
GENIUS_GENHINW_13
 70
     0
  0
APPID
  2
GENIUS_FIRSTVISTXT_14
 70
     0
  0
APPID
  2
GENIUS_GENOBJ-N-LEADER_13
 70
     0
  0
APPID
  2
GEVID971698136
 70
     0
  0
APPID
  2
GEVID972029070
 70
     0
  0
APPID
  2
MCAD_NO_VIS
 70
     0
  0
APPID
  2
ACAD_TEMP_GRAPHIC
 70
     0
  0
APPID
  2
ACATTRIBSERVICES
 70
     0
  0
APPID
  2
GENIUS_GENDIMSH_14
 70
     0
  0
APPID
  2
CONTENTTABDATA
 70
     0
  0
APPID
  2
CONTENTCURRENTTAB
 70
     0
  0
APPID
  2
GENIUS_GENBLKED_14
 70
     0
  0
APPID
  2
GENIUS_GENOBJ_13
 70
     0
  0
APPID
  2
GENIUS_GENOBJ-N-TIT_13
 70
     0
  0
APPID
  2
GENIUS_GENTITLE_13
 70
     0
  0
APPID
  2
GENIUS_GENZVEED_13
 70
     0
  0
APPID
  2
GENIUS_GEFINERT_13
 70
     0
  0
APPID
  2
GENIUS_GENOBJ-F-INER_13
 70
     0
  0
APPID
  2
GENIUS_GENOBJ-N-ZOO_13
 70
     0
  0
APPID
  2
GENIUS_GENZOO_13
 70
     0
  0
APPID
  2
GENIUS_GENOBJ-F-TOL_13
 70
     0
  0
APPID
  2
GENIUS_GENOBJ-N-REV_13
 70
     0
  0
APPID
  2
GENIUS_GENREC_13
 70
     0
  0
APPID
  2
_KTH
 70
     0
  0
APPID
  2
GENIUS_GENOBJ-N-SEC_13
 70
     0
  0
APPID
  2
ACAD_EXEMPT_FROM_CAD_STANDARDS
 70
     0
  0
APPID
  2
ACAD_MLEADERVER
 70
     0
  0
APPID
  2
ACAD_NAV_VCDISPLAY
 70
     0
  0
APPID
  2
ACAD_PSEXT
 70
     0
  0
APPID
  2
ACAD_DSTYLE_DIMJAG
 70
     0
  0
APPID
  2
ACAD_DSTYLE_DIMTALN
 70
     0
  0
APPID
  2
ACAD_DSTYLE_DIMBREAK
 70
     0
  0
APPID
  2
ACAECLAYERSTANDARD
 70
     0
  0
APPID
  2
ACCMTRANSPARENCY
 70
     0
  0
APPID
  2
ACAD_DSTYLE_DIM_LINETYPE
 70
     0
  0
APPID
  2
GRADIENTCOLOR1ACI
 70
     0
  0
APPID
  2
GRADIENTCOLOR2ACI
 70
     0
  0
APPID
  2
ACAD_TC
 70
     0
  0
APPID
  2
ACAD_DSTYLE_DIMRADIAL_EXTENSION
 70
     0
  0
APPID
  2
ACDBDYNAMICBLOCKTRUENAME2
 70
     0
  0
ENDTAB
  0
TABLE
  2
DIMSTYLE
 70
     3
  0
DIMSTYLE
  2
STANDARD
 70
     0
  3

  4

  5

  6

  7

 40
1.0
 41
0.18
 42
0.0625
 43
0.38
 44
0.18
 45
0.0
 46
0.0
 47
0.0
 48
0.0
140
0.18
141
0.09
142
0.0
143
25.3999999999999986
144
1.0
145
0.0
146
1.0
147
0.09
 71
     0
 72
     0
 73
     1
 74
     1
 75
     0
 76
     0
 77
     0
 78
     0
170
     0
171
     2
172
     0
173
     0
174
     0
175
     0
176
     0
177
     0
178
     0
  0
DIMSTYLE
  2
ANNOTATIVE
 70
     0
  3

  4

  5

  6

  7

 40
1.0
 41
0.18
 42
0.0625
 43
0.38
 44
0.18
 45
0.0
 46
0.0
 47
0.0
 48
0.0
140
0.18
141
0.09
142
0.0
143
25.3999999999999986
144
1.0
145
0.0
146
1.0
147
0.09
 71
     0
 72
     0
 73
     1
 74
     1
 75
     0
 76
     0
 77
     0
 78
     0
170
     0
171
     2
172
     0
173
     0
174
     0
175
     0
176
     0
177
     0
178
     0
  0
DIMSTYLE
  2
ISO-25
 70
     0
  3

  4

  5

  6

  7

 40
1.0
 41
2.5
 42
0.625
 43
3.75
 44
1.25
 45
0.0
 46
0.0
 47
0.0
 48
0.0
140
2.5
141
2.5
142
0.0
143
0.03937007874016
144
1.0
145
0.0
146
1.0
147
0.625
 71
     0
 72
     0
 73
     0
 74
     0
 75
     0
 76
     0
 77
     1
 78
     8
170
     0
171
     3
172
     1
173
     0
174
     0
175
     0
176
     0
177
     0
178
     0
  0
ENDTAB
  0
ENDSEC
  0
SECTION
  2
BLOCKS
  0
BLOCK
  8
0
  2
$MODEL_SPACE
 70
     0
 10
0.0
 20
0.0
 30
0.0
  3
$MODEL_SPACE
  1

  0
ENDBLK
  5
16436
  8
0
  0
BLOCK
 67
     1
  8
0
  2
$PAPER_SPACE
 70
     0
 10
0.0
 20
0.0
 30
0.0
  3
$PAPER_SPACE
  1

  0
ENDBLK
  5
16432
 67
     1
  8
0
  0
BLOCK
  8
0
  2
*U2
 70
     1
 10
0.0
 20
0.0
 30
0.0
  3
*U2
  1

  0
LINE
  5
14D91
  8
1
 10
-2.6787840265556042
 20
-6.4671567275790078
 30
0.0
 11
2.6787840265556042
 21
6.4671567275790078
 31
0.0
  0
ENDBLK
  5
14D92
  8
0
  0
BLOCK
  8
0
  2
*U3
 70
     1
 10
0.0
 20
0.0
 30
0.0
  3
*U3
  1

  0
INSERT
  5
14D95
  8
1
  6
BYBLOCK
 62
     0
  2
*U2
 10
1842.413546738704099
 20
79.3674324036800698
 30
0.0
  0
INSERT
  5
14D96
  8
1
  6
BYBLOCK
 62
     0
  2
*U2
 10
1820.9832745262599474
 20
79.367432403680013
 30
0.0
 50
44.9999999999999716
  0
INSERT
  5
14D97
  8
1
  6
BYBLOCK
 62
     0
  2
*U2
 10
1805.8297837221659847
 20
64.2139415995864908
 30
0.0
 50
89.9999999999999858
  0
INSERT
  5
14D98
  8
1
  6
BYBLOCK
 62
     0
  2
*U2
 10
1805.8297837221659847
 20
42.7836693871415576
 30
0.0
 50
134.999999999999801
  0
INSERT
  5
14D99
  8
1
  6
BYBLOCK
 62
     0
  2
*U2
 10
1820.9832745262599474
 20
27.6301785830481208
 30
0.0
 50
180.0
  0
INSERT
  5
14D9A
  8
1
  6
BYBLOCK
 62
     0
  2
*U2
 10
1842.413546738705918
 20
27.6301785830481705
 30
0.0
 50
224.9999999999998863
  0
INSERT
  5
14D9B
  8
1
  6
BYBLOCK
 62
     0
  2
*U2
 10
1857.5670375427980616
 20
42.7836693871416927
 30
0.0
 50
270.0
  0
INSERT
  5
14D9C
  8
1
  6
BYBLOCK
 62
     0
  2
*U2
 10
1857.5670375427980616
 20
64.2139415995866472
 30
0.0
 50
314.9999999999998863
  0
ENDBLK
  5
14D9D
  8
0
  0
ENDSEC
  0
SECTION
  2
ENTITIES
  0
TEXT
  5
80B7
  8
0
 62
     3
 10
0.0
 20
0.0
 30
0.0
 40
10.0
  1
IMR-RA56-PQ9020
  7
STANDARD1
  0
LINE
  5
14B37
  8
0
 10
261.5000000000002842
 20
155.014226530992687
 30
0.0
 11
260.0055534994655204
 21
155.4998016339827984
 31
0.0
  0
LINE
  5
14B38
  8
0
 10
251.3874290876028113
 20
158.2999999999825889
 30
0.0
 11
240.0000000000003979
 21
162.0
 31
0.0
  0
LINE
  5
14B39
  8
0
 10
160.0000000000003126
 20
162.0
 30
0.0
 11
148.6125709123980982
 21
158.2999999999825889
 31
0.0
  0
LINE
  5
14B3A
  8
0
 10
139.9944465005353038
 20
155.4998016339827984
 30
0.0
 11
138.5000000000003979
 21
155.014226530992687
 31
0.0
  0
LINE
  5
14B3B
  8
0
 10
240.0000000000003979
 20
162.0
 30
0.0
 11
240.0000000000003979
 21
168.0
 31
0.0
  0
LINE
  5
14B3C
  8
0
 10
160.0000000000003126
 20
168.0
 30
0.0
 11
160.0000000000003126
 21
162.0
 31
0.0
  0
LINE
  5
14B3D
  8
0
 10
202.0000000000003126
 20
167.999999999999801
 30
0.0
 11
202.0000000000003126
 21
168.9999999999814122
 31
0.0
  0
LINE
  5
14B3E
  8
0
 10
198.0000000000003126
 20
168.9999999999814122
 30
0.0
 11
198.0000000000003126
 21
167.999999999999801
 31
0.0
  0
LINE
  5
14B3F
  8
0
 10
246.2000000000174964
 20
153.600000000058003
 30
0.0
 11
246.7000000000003865
 21
153.1000000000751129
 31
0.0
  0
LINE
  5
14B40
  8
0
 10
258.3000000000004093
 20
153.1000000000751129
 30
0.0
 11
258.7999999999832994
 21
153.600000000058003
 31
0.0
  0
LINE
  5
14B41
  8
0
 10
258.3000000000004093
 20
152.999999999999801
 30
0.0
 11
258.3000000000004093
 21
153.0999999999999091
 31
0.0
  0
LINE
  5
14B42
  8
0
 10
246.7000000000003865
 20
153.0999999999999091
 30
0.0
 11
246.7000000000003865
 21
152.999999999999801
 31
0.0
  0
LINE
  5
14B43
  8
0
 10
256.5000000000002842
 20
136.9999999999998863
 30
0.0
 11
256.5000000000002842
 21
145.0000000000001137
 31
0.0
  0
LINE
  5
14B44
  8
0
 10
248.5000000000003979
 20
144.9999999999998863
 30
0.0
 11
248.5000000000003979
 21
136.9999999999998863
 31
0.0
  0
LINE
  5
14B45
  8
0
 10
246.0000000000067075
 20
158.299999999980912
 30
0.0
 11
244.9944465005351901
 21
158.0305627518719973
 31
0.0
  0
LINE
  5
14B46
  8
0
 10
260.0055534994655204
 20
158.0305627518719973
 30
0.0
 11
258.9999999999939746
 21
158.299999999980912
 31
0.0
  0
LINE
  5
14B47
  8
0
 10
141.2000000000174111
 20
153.600000000058003
 30
0.0
 11
141.7000000000003865
 21
153.1000000000751129
 31
0.0
  0
LINE
  5
14B48
  8
0
 10
153.3000000000004093
 20
153.1000000000751129
 30
0.0
 11
153.7999999999832994
 21
153.600000000058003
 31
0.0
  0
LINE
  5
14B49
  8
0
 10
153.3000000000004093
 20
152.999999999999801
 30
0.0
 11
153.3000000000004093
 21
153.0999999999999091
 31
0.0
  0
LINE
  5
14B4A
  8
0
 10
141.7000000000003865
 20
153.0999999999999091
 30
0.0
 11
141.7000000000003865
 21
152.999999999999801
 31
0.0
  0
LINE
  5
14B4B
  8
0
 10
151.5000000000003126
 20
136.9999999999998863
 30
0.0
 11
151.5000000000003126
 21
145.0000000000001137
 31
0.0
  0
LINE
  5
14B4C
  8
0
 10
143.5000000000003979
 20
145.0000000000001137
 30
0.0
 11
143.5000000000003979
 21
136.9999999999998863
 31
0.0
  0
LINE
  5
14B4D
  8
0
 10
141.0000000000067928
 20
158.299999999980912
 30
0.0
 11
139.9944465005353038
 21
158.0305627518719973
 31
0.0
  0
LINE
  5
14B4E
  8
0
 10
155.005553499465492
 20
158.0305627518719973
 30
0.0
 11
153.999999999994003
 21
158.299999999980912
 31
0.0
  0
LINE
  5
14B51
  8
0
 10
138.5156402886649118
 20
144.9999999999998863
 30
0.0
 11
138.5156402886649118
 21
152.999999999999801
 31
0.0
  0
LINE
  5
14B52
  8
0
 10
146.5000000000003979
 20
152.999999999999801
 30
0.0
 11
138.5156402886649118
 21
152.999999999999801
 31
0.0
  0
LINE
  5
14B55
  8
0
 10
230.9541082251909927
 20
152.999999999999801
 30
0.0
 11
253.5000000000003979
 21
152.999999999999801
 31
0.0
  0
LINE
  5
14B56
  8
0
 10
146.5000000000003979
 20
152.999999999999801
 30
0.0
 11
169.0458917748100021
 21
152.999999999999801
 31
0.0
  0
LINE
  5
14B57
  8
0
 10
138.5156402886649118
 20
144.9999999999998863
 30
0.0
 11
261.4843597113360829
 21
144.9999999999996874
 31
0.0
  0
LINE
  5
14B58
  8
0
 10
261.4843597113360829
 20
144.9999999999998863
 30
0.0
 11
261.4843597113360829
 21
152.999999999999801
 31
0.0
  0
LINE
  5
14B59
  8
0
 10
261.4843597113360829
 20
152.999999999999801
 30
0.0
 11
253.5000000000003979
 21
152.999999999999801
 31
0.0
  0
LINE
  5
14B65
  8
0
 10
160.0000000000003126
 20
162.0
 30
0.0
 11
240.0000000000003979
 21
162.0
 31
0.0
  0
LINE
  5
14B66
  8
0
 10
240.0000000000003979
 20
168.0
 30
0.0
 11
160.0000000000003126
 21
168.0
 31
0.0
  0
LINE
  5
14B67
  8
0
 10
138.5000000000003979
 20
144.9999999999998863
 30
0.0
 11
138.5000000000003979
 21
152.999999999999801
 31
0.0
  0
LINE
  5
14B68
  8
0
 10
138.5156402886645992
 20
152.999999999999801
 30
0.0
 11
138.5000000000003979
 21
152.999999999999801
 31
0.0
  0
LINE
  5
14B69
  8
0
 10
138.5000000000003979
 20
144.9999999999998863
 30
0.0
 11
138.5156402886649118
 21
144.9999999999998863
 31
0.0
  0
LINE
  5
14B6A
  8
0
 10
261.5000000000002842
 20
144.9999999999998863
 30
0.0
 11
261.5000000000002842
 21
152.999999999999801
 31
0.0
  0
LINE
  5
14B6B
  8
0
 10
261.5000000000002842
 20
152.999999999999801
 30
0.0
 11
261.4843597113360261
 21
152.999999999999801
 31
0.0
  0
LINE
  5
14B6C
  8
0
 10
261.4843597113360829
 20
144.9999999999998863
 30
0.0
 11
261.5000000000002842
 21
144.9999999999998863
 31
0.0
  0
LINE
  5
14B6D
  8
0
 10
261.5000000000002842
 20
153.0
 30
0.0
 11
261.5000000000002842
 21
154.7890820060856072
 31
0.0
  0
LINE
  5
14B6E
  8
0
 10
138.5000000000003979
 20
154.789082012009402
 30
0.0
 11
138.5000000000003979
 21
153.0
 31
0.0
  0
LINE
  5
14B70
  8
0
 10
198.0000000000003126
 20
168.9999999999814122
 30
0.0
 11
202.0000000000003126
 21
168.9999999999814122
 31
0.0
  0
LINE
  5
14B71
  8
0
 10
256.252776749733016
 20
153.5999999999997954
 30
0.0
 11
260.0055534994655204
 21
153.5999999999999091
 31
0.0
  0
LINE
  5
14B72
  8
0
 10
256.252776749733016
 20
158.0305627518719973
 30
0.0
 11
256.252776749733016
 21
153.5999999999997954
 31
0.0
  0
LINE
  5
14B75
  8
0
 10
260.0055534994655204
 20
158.0305627518719973
 30
0.0
 11
260.0055534994655204
 21
153.5999999999999091
 31
0.0
  0
LINE
  5
14B76
  8
0
 10
248.7472232502678082
 20
153.5999999999997954
 30
0.0
 11
256.252776749733016
 21
153.5999999999997954
 31
0.0
  0
LINE
  5
14B77
  8
0
 10
248.7472232502678082
 20
158.0305627518719973
 30
0.0
 11
248.7472232502678082
 21
153.5999999999997954
 31
0.0
  0
LINE
  5
14B7A
  8
0
 10
244.9944465005351901
 20
153.5999999999999091
 30
0.0
 11
248.7472232502678082
 21
153.5999999999997954
 31
0.0
  0
LINE
  5
14B7B
  8
0
 10
244.9944465005351901
 20
158.0305627518719973
 30
0.0
 11
244.9944465005351901
 21
153.5999999999999091
 31
0.0
  0
LINE
  5
14B7E
  8
0
 10
258.129165124593726
 20
158.299999999980912
 30
0.0
 11
252.5000000000003979
 21
158.299999999980912
 31
0.0
  0
LINE
  5
14B7F
  8
0
 10
252.5000000000003979
 20
158.299999999980912
 30
0.0
 11
246.870834875407013
 21
158.299999999980912
 31
0.0
  0
LINE
  5
14B80
  8
0
 10
252.5000000000003979
 20
153.0999999999999091
 30
0.0
 11
246.7000000000003865
 21
153.0999999999999091
 31
0.0
  0
LINE
  5
14B81
  8
0
 10
258.3000000000004093
 20
153.0999999999999091
 30
0.0
 11
252.5000000000003979
 21
153.0999999999999091
 31
0.0
  0
LINE
  5
14B82
  8
0
 10
248.5000000000003979
 20
136.9999999999998863
 30
0.0
 11
256.5000000000002842
 21
136.9999999999998863
 31
0.0
  0
LINE
  5
14B83
  8
0
 10
246.870834875407013
 20
158.299999999980912
 30
0.0
 11
246.0000000000067075
 21
158.2999999999811109
 31
0.0
  0
LINE
  5
14B84
  8
0
 10
258.9999999999939746
 20
158.2999999999811109
 30
0.0
 11
258.129165124593726
 21
158.299999999980912
 31
0.0
  0
LINE
  5
14B85
  8
0
 10
151.2527767497329876
 20
153.5999999999997954
 30
0.0
 11
155.005553499465492
 21
153.5999999999999091
 31
0.0
  0
LINE
  5
14B86
  8
0
 10
151.2527767497329876
 20
158.0305627518719973
 30
0.0
 11
151.2527767497329876
 21
153.5999999999997954
 31
0.0
  0
LINE
  5
14B89
  8
0
 10
155.005553499465492
 20
158.0305627518719973
 30
0.0
 11
155.005553499465492
 21
153.5999999999999091
 31
0.0
  0
LINE
  5
14B8A
  8
0
 10
143.7472232502678082
 20
153.5999999999997954
 30
0.0
 11
151.2527767497329876
 21
153.5999999999997954
 31
0.0
  0
LINE
  5
14B8B
  8
0
 10
143.7472232502678082
 20
158.0305627518719973
 30
0.0
 11
143.7472232502678082
 21
153.5999999999997954
 31
0.0
  0
LINE
  5
14B8E
  8
0
 10
139.9944465005353038
 20
158.0305627518719973
 30
0.0
 11
139.9944465005353038
 21
153.5999999999999091
 31
0.0
  0
LINE
  5
14B91
  8
0
 10
139.9944465005353038
 20
153.5999999999999091
 30
0.0
 11
143.7472232502678082
 21
153.5999999999997954
 31
0.0
  0
LINE
  5
14B92
  8
0
 10
153.1291651245936123
 20
158.299999999980912
 30
0.0
 11
147.5000000000003979
 21
158.299999999980912
 31
0.0
  0
LINE
  5
14B93
  8
0
 10
147.5000000000003979
 20
158.299999999980912
 30
0.0
 11
141.8708348754070983
 21
158.299999999980912
 31
0.0
  0
LINE
  5
14B94
  8
0
 10
147.5000000000003979
 20
153.0999999999999091
 30
0.0
 11
141.7000000000003865
 21
153.0999999999999091
 31
0.0
  0
LINE
  5
14B95
  8
0
 10
153.3000000000004093
 20
153.0999999999999091
 30
0.0
 11
147.5000000000003979
 21
153.0999999999999091
 31
0.0
  0
LINE
  5
14B96
  8
0
 10
143.5000000000003979
 20
136.9999999999998863
 30
0.0
 11
151.5000000000003126
 21
136.9999999999998863
 31
0.0
  0
LINE
  5
14B97
  8
0
 10
141.8708348754070983
 20
158.299999999980912
 30
0.0
 11
141.0000000000067928
 21
158.2999999999811109
 31
0.0
  0
LINE
  5
14B98
  8
0
 10
153.999999999994003
 20
158.2999999999811109
 30
0.0
 11
153.1291651245936123
 21
158.299999999980912
 31
0.0
  0
LINE
  5
14B9B
  8
2
 10
151.12346663143569
 20
158.2377073753351056
 30
0.0
 11
151.3561789305379932
 21
158.2999999999825889
 31
0.0
  0
LINE
  5
14BA1
  8
0
 10
248.6472864688581978
 20
158.2999999999825889
 30
0.0
 11
248.876533368565191
 21
158.2377073753351056
 31
0.0
  0
LINE
  5
14BA5
  8
2
 10
169.0000000000005116
 20
167.0
 30
0.0
 11
231.0000000000003979
 21
167.0
 31
0.0
  0
LINE
  5
14BA6
  8
2
 10
231.0000000000003979
 20
162.999999999999801
 30
0.0
 11
169.0000000000003979
 21
163.0
 31
0.0
  0
LINE
  5
14BA8
  8
2
 10
193.2848638937778958
 20
158.0
 30
0.0
 11
185.2848638937778958
 21
158.0
 31
0.0
  0
LINE
  5
14BA9
  8
2
 10
214.7151361062229
 20
158.0
 30
0.0
 11
206.7151361062229
 21
158.0
 31
0.0
  0
LINE
  5
14BAA
  8
2
 10
178.1313730896841889
 20
158.0
 30
0.0
 11
170.1313730896841889
 21
158.0
 31
0.0
  0
LINE
  5
14BAB
  8
2
 10
229.8686269103164932
 20
158.0
 30
0.0
 11
221.8686269103164932
 21
158.0
 31
0.0
  0
LINE
  5
14BAD
  8
0
 10
144.5000000000003979
 20
139.0
 30
0.0
 11
150.5000000000003979
 21
139.0
 31
0.0
  0
LINE
  5
14BAE
  8
2
 10
149.5000000000142961
 20
155.6008606190358137
 30
0.0
 11
145.4999999999863007
 21
155.6008606190358137
 31
0.0
  0
LINE
  5
14BB0
  8
2
 10
144.5000000000003979
 20
155.0
 30
0.0
 11
150.5000000000003126
 21
155.0000000000304965
 31
0.0
  0
LINE
  5
14BB2
  8
2
 10
249.5000000000003979
 20
155.0
 30
0.0
 11
255.5000000000003979
 21
155.0000000000304965
 31
0.0
  0
LINE
  5
14BB3
  8
2
 10
254.5000000000144098
 20
155.6008606190358137
 30
0.0
 11
250.4999999999863007
 21
155.6008606190358137
 31
0.0
  0
LINE
  5
14BB5
  8
2
 10
249.5000000000003979
 20
139.0
 30
0.0
 11
255.5000000000003979
 21
139.0
 31
0.0
  0
LINE
  5
14BB6
  8
2
 10
200.0000000000003126
 20
152.3991393809725139
 30
0.0
 11
199.0000000000003126
 21
152.3991393809725139
 31
0.0
  0
LINE
  5
14BB7
  8
2
 10
201.0000000000003126
 20
152.3991393809725139
 30
0.0
 11
200.0000000000003126
 21
152.3991393809725139
 31
0.0
  0
LINE
  5
14BB8
  8
2
 10
200.0000000000003126
 20
152.9999999999814122
 30
0.0
 11
198.0000000000106866
 21
152.9999999999814122
 31
0.0
  0
LINE
  5
14BB9
  8
2
 10
201.9999999999899103
 20
152.9999999999814122
 30
0.0
 11
200.0000000000003126
 21
152.9999999999814122
 31
0.0
  0
LINE
  5
14BBA
  8
2
 10
177.6313730896843026
 20
154.0
 30
0.0
 11
170.6313730896843026
 21
154.0
 31
0.0
  0
LINE
  5
14BC0
  8
2
 10
192.7848638937778958
 20
154.0
 30
0.0
 11
185.7848638937778958
 21
154.0
 31
0.0
  0
LINE
  5
14BC6
  8
2
 10
214.2151361062230137
 20
154.0
 30
0.0
 11
207.2151361062230137
 21
154.0
 31
0.0
  0
LINE
  5
14BCC
  8
2
 10
229.3686269103164932
 20
154.0
 30
0.0
 11
222.3686269103164932
 21
154.0
 31
0.0
  0
LINE
  5
14BD2
  8
2
 10
260.0055534994655204
 20
155.4998016339827984
 30
0.0
 11
251.3874290876028113
 21
158.2999999999825889
 31
0.0
  0
LINE
  5
14BD3
  8
2
 10
148.6125709123980982
 20
158.2999999999825889
 30
0.0
 11
139.9944465005353038
 21
155.4998016339827984
 31
0.0
  0
LINE
  5
14BD4
  8
2
 10
248.0000000000003126
 20
152.999999999999801
 30
0.0
 11
248.0000000000003126
 21
144.9999999999998863
 31
0.0
  0
LINE
  5
14BD5
  8
2
 10
152.0000000000003979
 20
144.9999999999998863
 30
0.0
 11
152.0000000000003979
 21
152.999999999999801
 31
0.0
  0
LINE
  5
14BD6
  8
2
 10
168.0000000000003979
 20
168.0
 30
0.0
 11
169.0000000000003979
 21
167.0
 31
0.0
  0
LINE
  5
14BD7
  8
2
 10
231.0000000000003979
 20
167.0
 30
0.0
 11
232.0000000000003979
 21
168.0
 31
0.0
  0
LINE
  5
14BD8
  8
2
 10
169.0000000000003979
 20
167.0
 30
0.0
 11
169.0000000000003979
 21
164.9242772660961123
 31
0.0
  0
LINE
  5
14BD9
  8
2
 10
231.0000000000003979
 20
164.9242772660961123
 30
0.0
 11
231.0000000000003979
 21
167.0
 31
0.0
  0
LINE
  5
14BDA
  8
2
 10
169.0000000000003979
 20
164.9242772660961123
 30
0.0
 11
169.0000000000003979
 21
163.0
 31
0.0
  0
LINE
  5
14BDB
  8
2
 10
231.0000000000003979
 20
163.0
 30
0.0
 11
231.0000000000003979
 21
164.9242772660961123
 31
0.0
  0
LINE
  5
14BDC
  8
2
 10
193.2848638937778958
 20
144.9999999999998863
 30
0.0
 11
193.2848638937778958
 21
158.0
 31
0.0
  0
LINE
  5
14BDD
  8
2
 10
185.2848638937778958
 20
158.0
 30
0.0
 11
185.2848638937778958
 21
144.9999999999998863
 31
0.0
  0
LINE
  5
14BDE
  8
2
 10
214.7151361062229
 20
144.9999999999998863
 30
0.0
 11
214.7151361062229
 21
158.0
 31
0.0
  0
LINE
  5
14BDF
  8
2
 10
206.7151361062229
 20
158.0
 30
0.0
 11
206.7151361062229
 21
144.9999999999998863
 31
0.0
  0
LINE
  5
14BE0
  8
2
 10
191.5348638937778958
 20
158.0
 30
0.0
 11
191.5348638937778958
 21
163.0
 31
0.0
  0
LINE
  5
14BE1
  8
2
 10
187.0348638937778958
 20
163.0
 30
0.0
 11
187.0348638937778958
 21
158.0
 31
0.0
  0
LINE
  5
14BE2
  8
2
 10
212.9651361062229
 20
158.0
 30
0.0
 11
212.9651361062229
 21
163.0
 31
0.0
  0
LINE
  5
14BE3
  8
2
 10
208.4651361062229
 20
163.0
 30
0.0
 11
208.4651361062229
 21
158.0
 31
0.0
  0
LINE
  5
14BE4
  8
2
 10
176.5000000000003979
 20
163.0
 30
0.0
 11
177.5000000000003979
 21
162.0
 31
0.0
  0
LINE
  5
14BE5
  8
2
 10
222.5000000000003979
 20
162.0
 30
0.0
 11
223.5000000000003979
 21
163.0
 31
0.0
  0
LINE
  5
14BE6
  8
0
 10
177.5000000000003979
 20
162.0
 30
0.0
 11
177.5000000000003979
 21
145.0
 31
0.0
  0
LINE
  5
14BE7
  8
2
 10
222.5000000000003979
 20
145.0
 30
0.0
 11
222.5000000000003979
 21
162.0
 31
0.0
  0
LINE
  5
14BE8
  8
2
 10
178.1313730896841889
 20
145.0
 30
0.0
 11
178.1313730896841889
 21
158.0
 31
0.0
  0
LINE
  5
14BE9
  8
2
 10
170.1313730896841889
 20
158.0
 30
0.0
 11
170.1313730896841889
 21
145.0
 31
0.0
  0
LINE
  5
14BEA
  8
2
 10
229.8686269103164932
 20
145.0
 30
0.0
 11
229.8686269103164932
 21
158.0
 31
0.0
  0
LINE
  5
14BEB
  8
2
 10
221.8686269103164932
 20
158.0
 30
0.0
 11
221.8686269103164932
 21
145.0
 31
0.0
  0
LINE
  5
14BEC
  8
2
 10
176.3813730896841889
 20
158.0
 30
0.0
 11
176.3813730896841889
 21
163.0
 31
0.0
  0
LINE
  5
14BED
  8
2
 10
171.8813730896841889
 20
163.0
 30
0.0
 11
171.8813730896841889
 21
158.0
 31
0.0
  0
LINE
  5
14BEE
  8
2
 10
228.1186269103164932
 20
158.0
 30
0.0
 11
228.1186269103164932
 21
163.0
 31
0.0
  0
LINE
  5
14BEF
  8
2
 10
223.6186269103164932
 20
163.0
 30
0.0
 11
223.6186269103164932
 21
158.0
 31
0.0
  0
LINE
  5
14BF0
  8
2
 10
150.5000000000003979
 20
139.0
 30
0.0
 11
150.5000000000003979
 21
155.0000000000306102
 31
0.0
  0
LINE
  5
14BF1
  8
2
 10
144.5000000000003979
 20
155.0000000000306102
 30
0.0
 11
144.5000000000003979
 21
139.0
 31
0.0
  0
LINE
  5
14BF2
  8
2
 10
150.5000000000003126
 20
155.0000000000304965
 30
0.0
 11
149.5000000000142961
 21
155.6008606190470118
 31
0.0
  0
LINE
  5
14BF3
  8
2
 10
145.4999999999863007
 20
155.6008606190470118
 30
0.0
 11
144.5000000000003979
 21
155.0000000000304965
 31
0.0
  0
LINE
  5
14BF4
  8
2
 10
255.5000000000003979
 20
155.0000000000304965
 30
0.0
 11
254.4999999999683098
 21
155.6008606190746946
 31
0.0
  0
LINE
  5
14BF5
  8
2
 10
250.5000000000324007
 20
155.6008606190746946
 30
0.0
 11
249.5000000000003979
 21
155.0000000000304965
 31
0.0
  0
LINE
  5
14BF6
  8
2
 10
255.5000000000003979
 20
139.0
 30
0.0
 11
255.5000000000003979
 21
155.0000000000306954
 31
0.0
  0
LINE
  5
14BF7
  8
2
 10
249.5000000000003979
 20
155.0000000000306954
 30
0.0
 11
249.5000000000003979
 21
139.0
 31
0.0
  0
LINE
  5
14BF8
  8
2
 10
149.5000000000003979
 20
155.6008606190358137
 30
0.0
 11
149.5000000000003979
 21
158.511155989683914
 31
0.0
  0
LINE
  5
14BF9
  8
2
 10
145.5000000000003979
 20
157.2224111336869896
 30
0.0
 11
145.5000000000003979
 21
155.6008606190358137
 31
0.0
  0
LINE
  5
14BFA
  8
2
 10
254.5000000000003979
 20
155.600860619099592
 30
0.0
 11
254.5000000000003979
 21
157.2227916171640061
 31
0.0
  0
LINE
  5
14BFB
  8
2
 10
250.5000000000003979
 20
158.511155989683914
 30
0.0
 11
250.5000000000003979
 21
155.600860619099592
 31
0.0
  0
LINE
  5
14BFC
  8
2
 10
201.9999999999708109
 20
152.9999999999814122
 30
0.0
 11
202.0000000000003126
 21
167.999999999999801
 31
0.0
  0
LINE
  5
14BFD
  8
2
 10
198.0000000000003126
 20
167.999999999999801
 30
0.0
 11
197.9999999999708109
 21
152.9999999999814122
 31
0.0
  0
LINE
  5
14BFE
  8
2
 10
198.0000000000106866
 20
152.9999999999928946
 30
0.0
 11
199.0000000000003126
 21
152.3991393809743045
 31
0.0
  0
LINE
  5
14BFF
  8
2
 10
201.0000000000003126
 20
152.3991393809743045
 30
0.0
 11
201.9999999999899103
 21
152.9999999999928946
 31
0.0
  0
LINE
  5
14C00
  8
2
 10
199.0000000000003126
 20
152.3991393809725139
 30
0.0
 11
199.0000000000003126
 21
145.0000000000001137
 31
0.0
  0
LINE
  5
14C01
  8
2
 10
201.0000000000003126
 20
145.0000000000001137
 30
0.0
 11
201.0000000000003126
 21
152.3991393809725139
 31
0.0
  0
LINE
  5
14C02
  8
2
 10
177.6313730896843026
 20
154.0
 30
0.0
 11
177.6313730896843026
 21
158.0
 31
0.0
  0
LINE
  5
14C03
  8
2
 10
170.6313730896843026
 20
158.0
 30
0.0
 11
170.6313730896843026
 21
154.0
 31
0.0
  0
LINE
  5
14C04
  8
2
 10
176.1313730896841889
 20
158.0
 30
0.0
 11
176.1313730896841889
 21
168.0
 31
0.0
  0
LINE
  5
14C05
  8
2
 10
172.1313730896841889
 20
168.0
 30
0.0
 11
172.1313730896841889
 21
158.0
 31
0.0
  0
LINE
  5
14C06
  8
2
 10
192.7848638937778958
 20
154.0
 30
0.0
 11
192.7848638937778958
 21
158.0
 31
0.0
  0
LINE
  5
14C07
  8
2
 10
185.7848638937778958
 20
158.0
 30
0.0
 11
185.7848638937778958
 21
154.0
 31
0.0
  0
LINE
  5
14C08
  8
2
 10
191.2848638937778958
 20
158.0
 30
0.0
 11
191.2848638937778958
 21
168.0
 31
0.0
  0
LINE
  5
14C09
  8
2
 10
187.2848638937778958
 20
168.0
 30
0.0
 11
187.2848638937778958
 21
158.0
 31
0.0
  0
LINE
  5
14C0A
  8
2
 10
214.2151361062230137
 20
154.0
 30
0.0
 11
214.2151361062230137
 21
158.0
 31
0.0
  0
LINE
  5
14C0B
  8
2
 10
207.2151361062230137
 20
158.0
 30
0.0
 11
207.2151361062230137
 21
154.0
 31
0.0
  0
LINE
  5
14C0C
  8
2
 10
212.7151361062229
 20
158.0
 30
0.0
 11
212.7151361062229
 21
168.0
 31
0.0
  0
LINE
  5
14C0D
  8
2
 10
208.7151361062229
 20
168.0
 30
0.0
 11
208.7151361062229
 21
158.0
 31
0.0
  0
LINE
  5
14C0E
  8
2
 10
229.3686269103164932
 20
154.0
 30
0.0
 11
229.3686269103164932
 21
158.0
 31
0.0
  0
LINE
  5
14C0F
  8
2
 10
222.3686269103164932
 20
158.0
 30
0.0
 11
222.3686269103164932
 21
154.0
 31
0.0
  0
LINE
  5
14C10
  8
2
 10
227.8686269103164932
 20
158.0
 30
0.0
 11
227.8686269103164932
 21
168.0
 31
0.0
  0
LINE
  5
14C11
  8
2
 10
223.8686269103164932
 20
168.0
 30
0.0
 11
223.8686269103164932
 21
158.0
 31
0.0
  0
LINE
  5
14C12
  8
2
 10
256.5000000000002842
 20
145.0000000000001137
 30
0.0
 11
256.5000000000002842
 21
152.999999999999801
 31
0.0
  0
LINE
  5
14C13
  8
2
 10
248.5000000000003979
 20
152.999999999999801
 30
0.0
 11
248.5000000000003979
 21
144.9999999999998863
 31
0.0
  0
LINE
  5
14C14
  8
2
 10
151.5000000000003126
 20
145.0000000000001137
 30
0.0
 11
151.5000000000003126
 21
152.999999999999801
 31
0.0
  0
LINE
  5
14C15
  8
2
 10
143.5000000000003979
 20
152.999999999999801
 30
0.0
 11
143.5000000000003979
 21
145.0000000000001137
 31
0.0
  0
CIRCLE
  5
14C16
  8
0
 10
200.0000000000003126
 20
273.0000000000001137
 30
0.0
 40
2.0
  0
CIRCLE
  5
14C17
  8
0
 10
200.0000000000003126
 20
245.0000000000001137
 30
0.0
 40
32.0
  0
CIRCLE
  5
14C18
  8
0
 10
200.0000000000003126
 20
245.0000000000001137
 30
0.0
 40
40.0
  0
CIRCLE
  5
14C19
  8
0
 10
200.0000000000003126
 20
245.0000000000001137
 30
0.0
 40
30.9999999999999396
  0
CIRCLE
  5
14C1A
  8
0
 10
200.0000000000003126
 20
245.0000000000001137
 30
0.0
 40
23.4999999999999396
  0
CIRCLE
  5
14C1B
  8
0
 10
189.2848638937778958
 20
270.8686269103160953
 30
0.0
 40
2.25
  0
CIRCLE
  5
14C1C
  8
0
 10
174.1313730896841889
 20
234.2848638937774979
 30
0.0
 40
2.25
  0
CIRCLE
  5
14C1D
  8
0
 10
225.8686269103164932
 20
255.7151361062225021
 30
0.0
 40
2.2500000000000551
  0
CIRCLE
  5
14C1E
  8
0
 10
210.7151361062229
 20
219.1313730896841037
 30
0.0
 40
2.2499999999999432
  0
CIRCLE
  5
14C1F
  8
0
 10
174.1313730896841889
 20
255.7151361062225021
 30
0.0
 40
2.25
  0
CIRCLE
  5
14C20
  8
0
 10
189.2848638937778958
 20
219.13137308968399
 30
0.0
 40
2.2499999999999432
  0
CIRCLE
  5
14C21
  8
0
 10
210.7151361062229
 20
270.868626910316209
 30
0.0
 40
2.25
  0
CIRCLE
  5
14C22
  8
0
 10
225.8686269103164932
 20
234.2848638937776968
 30
0.0
 40
2.25
  0
CIRCLE
  5
14C23
  8
0
 10
200.0000000000003126
 20
245.0000000000001137
 30
0.0
 40
22.4999999999999396
  0
LINE
  5
14C3E
  8
0
 10
138.5156402886645992
 20
279.5000000000002842
 30
0.0
 11
142.5925227118904104
 21
279.5000000000002842
 31
0.0
  0
ARC
  5
14C3F
  8
0
 10
146.5000000000003979
 20
279.0000000000002842
 30
0.0
 40
8.0000000000001421
 50
90.0
 51
176.4166783015282078
  0
LINE
  5
14C40
  8
0
 10
138.5000000000003979
 20
270.5000000000001137
 30
0.0
 11
142.5925227118902114
 21
270.4999999999998863
 31
0.0
  0
LINE
  5
14C41
  8
0
 10
138.5000000000003979
 20
270.5000000000001137
 30
0.0
 11
138.5000000000003979
 21
219.500000000000199
 31
0.0
  0
LINE
  5
14C43
  8
0
 10
261.5000000000002842
 20
270.5000000000001137
 30
0.0
 11
257.4074772881104991
 21
270.5000000000001137
 31
0.0
  0
ARC
  5
14C44
  8
0
 10
253.5000000000003979
 20
279.0000000000002842
 30
0.0
 40
8.0
 50
3.5833216984717691
 51
90.0
  0
LINE
  5
14C45
  8
0
 10
261.4843597113360261
 20
279.5000000000002842
 30
0.0
 11
257.4074772881104991
 21
279.5000000000003979
 31
0.0
  0
LINE
  5
14C46
  8
0
 10
261.5000000000002842
 20
219.500000000000199
 30
0.0
 11
261.5000000000002842
 21
270.5000000000001137
 31
0.0
  0
LINE
  5
14C47
  8
0
 10
253.5000000000003979
 20
287.0000000000002842
 30
0.0
 11
146.5000000000003979
 21
287.0000000000002842
 31
0.0
  0
LINE
  5
14C48
  8
0
 10
142.5925227118904104
 20
219.499999999999801
 30
0.0
 11
138.5000000000003979
 21
219.500000000000199
 31
0.0
  0
ARC
  5
14C49
  8
0
 10
146.5000000000003979
 20
211.000000000000199
 30
0.0
 40
8.0000000000000568
 50
183.583321698472389
 51
270.0
  0
LINE
  5
14C4A
  8
0
 10
138.5156402886649118
 20
210.5000000000001137
 30
0.0
 11
142.5925227118902114
 21
210.5
 31
0.0
  0
LINE
  5
14C4D
  8
0
 10
261.4843597113360829
 20
210.5000000000001137
 30
0.0
 11
257.4074772881104991
 21
210.5000000000001137
 31
0.0
  0
ARC
  5
14C4E
  8
0
 10
253.5000000000003979
 20
211.000000000000199
 30
0.0
 40
8.0000000000001421
 50
270.0
 51
356.4166783015290889
  0
LINE
  5
14C4F
  8
0
 10
261.5000000000002842
 20
219.500000000000199
 30
0.0
 11
257.4074772881104991
 21
219.5000000000003979
 31
0.0
  0
LINE
  5
14C51
  8
0
 10
146.5000000000003979
 20
203.0000000000001137
 30
0.0
 11
253.5000000000003979
 21
203.0000000000001137
 31
0.0
  0
CIRCLE
  5
14C52
  8
0
 10
210.7151361062229
 20
270.8686269103160953
 30
0.0
 40
2.0
  0
CIRCLE
  5
14C53
  8
0
 10
189.2848638937778958
 20
270.8686269103160953
 30
0.0
 40
2.0
  0
CIRCLE
  5
14C54
  8
0
 10
174.1313730896841889
 20
255.7151361062225021
 30
0.0
 40
2.0
  0
CIRCLE
  5
14C55
  8
0
 10
174.1313730896841889
 20
234.2848638937774979
 30
0.0
 40
2.0
  0
CIRCLE
  5
14C56
  8
0
 10
189.2848638937778958
 20
219.13137308968399
 30
0.0
 40
2.0
  0
CIRCLE
  5
14C57
  8
0
 10
210.7151361062229
 20
219.13137308968399
 30
0.0
 40
2.0
  0
CIRCLE
  5
14C58
  8
0
 10
225.8686269103164932
 20
234.2848638937776968
 30
0.0
 40
2.0
  0
CIRCLE
  5
14C59
  8
0
 10
225.8686269103164932
 20
255.7151361062225021
 30
0.0
 40
2.0
  0
ARC
  5
14C5A
  8
0
 10
252.5000000000003979
 20
275.0000000000001137
 30
0.0
 40
6.4999999999935971
 50
90.0
 51
149.9999999999990052
  0
ARC
  5
14C5B
  8
0
 10
252.5000000000003979
 20
275.0000000000001137
 30
0.0
 40
6.4999999999935749
 50
30.0000000000009415
 51
90.0
  0
ARC
  5
14C5C
  8
0
 10
252.5000000000003979
 20
275.0000000000001137
 30
0.0
 40
6.499999999993574
 50
329.9999999999993179
 51
30.0000000000009415
  0
ARC
  5
14C5D
  8
0
 10
252.5000000000003979
 20
275.0000000000001137
 30
0.0
 40
6.4999999999936886
 50
270.0
 51
329.9999999999993179
  0
ARC
  5
14C5E
  8
0
 10
252.5000000000003979
 20
275.0000000000001137
 30
0.0
 40
6.4999999999936886
 50
210.0000000000013927
 51
270.0
  0
ARC
  5
14C5F
  8
0
 10
252.5000000000003979
 20
275.0000000000001137
 30
0.0
 40
6.4999999999936238
 50
149.9999999999990052
 51
210.0000000000013927
  0
ARC
  5
14C6C
  8
0
 10
147.5000000000003979
 20
275.0000000000001137
 30
0.0
 40
6.4999999999935749
 50
90.0
 51
149.9999999999990052
  0
ARC
  5
14C6D
  8
0
 10
147.5000000000003979
 20
275.0000000000001137
 30
0.0
 40
6.4999999999935749
 50
30.0000000000009415
 51
90.0
  0
ARC
  5
14C6E
  8
0
 10
147.5000000000003979
 20
275.0000000000001137
 30
0.0
 40
6.4999999999935989
 50
329.9999999999993179
 51
30.0000000000009415
  0
ARC
  5
14C6F
  8
0
 10
147.5000000000003979
 20
275.0000000000001137
 30
0.0
 40
6.4999999999936886
 50
270.0
 51
329.9999999999993179
  0
ARC
  5
14C70
  8
0
 10
147.5000000000003979
 20
275.0000000000001137
 30
0.0
 40
6.4999999999936886
 50
210.0000000000015916
 51
270.0
  0
ARC
  5
14C71
  8
0
 10
147.5000000000003979
 20
275.0000000000001137
 30
0.0
 40
6.4999999999935989
 50
149.9999999999990052
 51
210.0000000000015916
  0
ARC
  5
14C7E
  8
0
 10
252.5000000000003979
 20
215.000000000000199
 30
0.0
 40
6.4999999999936238
 50
90.0
 51
149.9999999999990052
  0
ARC
  5
14C7F
  8
0
 10
252.5000000000003979
 20
215.000000000000199
 30
0.0
 40
6.4999999999935749
 50
30.0000000000009699
 51
90.0
  0
ARC
  5
14C80
  8
0
 10
252.5000000000003979
 20
215.000000000000199
 30
0.0
 40
6.499999999993574
 50
329.9999999999993179
 51
30.0000000000009699
  0
ARC
  5
14C81
  8
0
 10
252.5000000000003979
 20
215.000000000000199
 30
0.0
 40
6.4999999999936886
 50
270.0
 51
329.9999999999993179
  0
ARC
  5
14C82
  8
0
 10
252.5000000000003979
 20
215.000000000000199
 30
0.0
 40
6.4999999999936886
 50
210.0000000000013927
 51
270.0
  0
ARC
  5
14C83
  8
0
 10
252.5000000000003979
 20
215.000000000000199
 30
0.0
 40
6.4999999999936238
 50
149.9999999999990052
 51
210.0000000000013927
  0
ARC
  5
14C90
  8
0
 10
147.5000000000003979
 20
215.000000000000199
 30
0.0
 40
6.4999999999935989
 50
90.0
 51
149.9999999999990052
  0
ARC
  5
14C91
  8
0
 10
147.5000000000003979
 20
215.000000000000199
 30
0.0
 40
6.4999999999935989
 50
30.0000000000009699
 51
90.0
  0
ARC
  5
14C92
  8
0
 10
147.5000000000003979
 20
215.000000000000199
 30
0.0
 40
6.4999999999935989
 50
329.9999999999993179
 51
30.0000000000009699
  0
ARC
  5
14C93
  8
0
 10
147.5000000000003979
 20
215.000000000000199
 30
0.0
 40
6.4999999999936886
 50
270.0
 51
329.9999999999993179
  0
ARC
  5
14C94
  8
0
 10
147.5000000000003979
 20
215.000000000000199
 30
0.0
 40
6.4999999999936886
 50
210.0000000000015916
 51
270.0
  0
ARC
  5
14C95
  8
0
 10
147.5000000000003979
 20
215.000000000000199
 30
0.0
 40
6.4999999999935989
 50
149.9999999999990052
 51
210.0000000000015916
  0
LINE
  5
14CA2
  8
0
 10
92.0000000000001279
 20
161.3501606075340931
 30
0.0
 11
90.0000000000001847
 21
161.999999999999801
 31
0.0
  0
LINE
  5
14CA3
  8
0
 10
10.0000000000001705
 20
162.0000000000001137
 30
0.0
 11
8.0000000000001137
 21
161.3501606075342067
 31
0.0
  0
LINE
  5
14CA4
  8
0
 10
58.0000000000002913
 20
139.0
 30
0.0
 11
58.0000000000002913
 21
145.0
 31
0.0
  0
LINE
  5
14CA5
  8
0
 10
52.0000000000003268
 20
145.0
 30
0.0
 11
52.0000000000003268
 21
139.0
 31
0.0
  0
LINE
  5
14CA6
  8
0
 10
90.0000000000001847
 20
161.999999999999801
 30
0.0
 11
90.0000000000002274
 21
167.999999999999801
 31
0.0
  0
LINE
  5
14CA7
  8
0
 10
10.0000000000002292
 20
168.0000000000001137
 30
0.0
 11
10.0000000000001705
 21
162.0000000000001137
 31
0.0
  0
LINE
  5
14CA8
  8
0
 10
24.0000000000001101
 20
168.000000000000199
 30
0.0
 11
24.0000000000001101
 21
168.9999999999812985
 31
0.0
  0
LINE
  5
14CA9
  8
0
 10
20.0000000000001101
 20
168.9999999999812985
 30
0.0
 11
20.0000000000001101
 21
168.000000000000199
 31
0.0
  0
LINE
  5
14CAA
  8
0
 10
13.7000000000172104
 20
153.600000000058202
 30
0.0
 11
14.2000000000001005
 21
153.1000000000753118
 31
0.0
  0
LINE
  5
14CAB
  8
0
 10
25.8000000000001215
 20
153.1000000000753118
 30
0.0
 11
26.2999999999830187
 21
153.600000000058202
 31
0.0
  0
LINE
  5
14CAC
  8
0
 10
25.8000000000001215
 20
153.0000000000001137
 30
0.0
 11
25.8000000000001215
 21
153.0999999999999943
 31
0.0
  0
LINE
  5
14CAD
  8
0
 10
14.2000000000001005
 20
153.100000000000108
 30
0.0
 11
14.2000000000001005
 21
153.0000000000001137
 31
0.0
  0
LINE
  5
14CAE
  8
0
 10
24.0000000000000604
 20
137.0000000000001137
 30
0.0
 11
24.0000000000001101
 21
153.0000000000001137
 31
0.0
  0
LINE
  5
14CAF
  8
0
 10
16.0000000000001101
 20
153.0000000000001137
 30
0.0
 11
16.0000000000000604
 21
137.0000000000001137
 31
0.0
  0
LINE
  5
14CB0
  8
0
 10
73.7000000000172122
 20
153.600000000058003
 30
0.0
 11
74.2000000000001023
 21
153.1000000000751129
 31
0.0
  0
LINE
  5
14CB1
  8
0
 10
85.8000000000001251
 20
153.1000000000751129
 30
0.0
 11
86.299999999983001
 21
153.600000000058003
 31
0.0
  0
LINE
  5
14CB2
  8
0
 10
85.8000000000001251
 20
152.999999999999801
 30
0.0
 11
85.8000000000001251
 21
153.0999999999999091
 31
0.0
  0
LINE
  5
14CB3
  8
0
 10
74.2000000000001023
 20
153.0999999999999091
 30
0.0
 11
74.2000000000001023
 21
152.999999999999801
 31
0.0
  0
LINE
  5
14CB4
  8
0
 10
84.0000000000000568
 20
136.9999999999998863
 30
0.0
 11
84.0000000000001137
 21
152.999999999999801
 31
0.0
  0
LINE
  5
14CB5
  8
0
 10
76.0000000000001137
 20
152.999999999999801
 30
0.0
 11
76.0000000000000568
 21
136.9999999999998863
 31
0.0
  0
LINE
  5
14CB7
  8
0
 10
86.499999999997442
 20
158.259549835364794
 30
0.0
 11
88.2940949350905413
 21
157.9674196331357905
 31
0.0
  0
LINE
  5
14CBF
  8
0
 10
11.7059047744876299
 20
157.9674195814523046
 30
0.0
 11
13.5000000000029505
 21
158.2595797165168108
 31
0.0
  0
LINE
  5
14CC6
  8
0
 10
10.0000000000001705
 20
162.0000000000001137
 30
0.0
 11
90.0000000000001847
 21
161.999999999999801
 31
0.0
  0
LINE
  5
14CC7
  8
0
 10
59.2579558024843323
 20
153.0
 30
0.0
 11
92.0000000000001279
 21
152.999999999999801
 31
0.0
  0
LINE
  5
14CC8
  8
0
 10
75.5000000000001137
 20
144.9999999999998863
 30
0.0
 11
75.5000000000001137
 21
152.999999999999801
 31
0.0
  0
LINE
  5
14CC9
  8
0
 10
24.5000000000001208
 20
145.0000000000001137
 30
0.0
 11
24.5000000000001208
 21
153.0000000000001137
 31
0.0
  0
LINE
  5
14CCA
  8
0
 10
8.0000000000001137
 20
153.0000000000001137
 30
0.0
 11
40.7420441975163996
 21
153.0
 31
0.0
  0
LINE
  5
14CCB
  8
0
 10
24.0000000000001101
 20
145.0000000000001137
 30
0.0
 11
76.0000000000001847
 21
144.9999999999998863
 31
0.0
  0
LINE
  5
14CCC
  8
0
 10
8.0000000000001137
 20
161.3501606075342067
 30
0.0
 11
8.0000000000001137
 21
145.0000000000001137
 31
0.0
  0
LINE
  5
14CCD
  8
0
 10
15.5000000000001101
 20
145.0000000000001137
 30
0.0
 11
15.5000000000001101
 21
153.0000000000001137
 31
0.0
  0
LINE
  5
14CCF
  8
0
 10
16.0000000000001101
 20
145.0000000000001137
 30
0.0
 11
8.0000000000001137
 21
145.0000000000001137
 31
0.0
  0
LINE
  5
14CD0
  8
0
 10
92.0000000000001279
 20
144.9999999999996874
 30
0.0
 11
92.0000000000001279
 21
161.3501606075340931
 31
0.0
  0
LINE
  5
14CD1
  8
0
 10
84.5000000000001137
 20
144.9999999999996874
 30
0.0
 11
84.5000000000001137
 21
152.999999999999801
 31
0.0
  0
LINE
  5
14CD3
  8
0
 10
92.0000000000001279
 20
144.9999999999996874
 30
0.0
 11
84.0000000000000568
 21
144.9999999999996874
 31
0.0
  0
LINE
  5
14CD4
  8
0
 10
52.0000000000003268
 20
139.0
 30
0.0
 11
58.0000000000002913
 21
139.0
 31
0.0
  0
LINE
  5
14CD9
  8
0
 10
90.0000000000002274
 20
167.999999999999801
 30
0.0
 11
10.0000000000002292
 21
168.0000000000001137
 31
0.0
  0
LINE
  5
14CDC
  8
0
 10
20.0000000000001101
 20
168.9999999999812985
 30
0.0
 11
24.0000000000001101
 21
168.9999999999812985
 31
0.0
  0
LINE
  5
14CDD
  8
0
 10
13.5000000000001101
 20
153.600000000000108
 30
0.0
 11
13.5000000000001101
 21
158.0305627518721963
 31
0.0
  0
LINE
  5
14CE0
  8
0
 10
20.0000000000001101
 20
158.0305627518721963
 30
0.0
 11
20.0000000000001101
 21
153.600000000000108
 31
0.0
  0
LINE
  5
14CE1
  8
0
 10
13.5000000000001101
 20
153.600000000000108
 30
0.0
 11
20.0000000000001101
 21
153.600000000000108
 31
0.0
  0
LINE
  5
14CE4
  8
0
 10
26.5000000000001101
 20
158.030562751872111
 30
0.0
 11
26.5000000000001101
 21
153.5999999999999943
 31
0.0
  0
LINE
  5
14CE5
  8
0
 10
20.0000000000001101
 20
153.600000000000108
 30
0.0
 11
26.5000000000001101
 21
153.5999999999999943
 31
0.0
  0
LINE
  5
14CE6
  8
0
 10
23.2499999999969305
 20
158.2999999999809972
 30
0.0
 11
16.7500000000033005
 21
158.2999999999809972
 31
0.0
  0
LINE
  5
14CE7
  8
0
 10
25.8000000000001215
 20
153.100000000000108
 30
0.0
 11
14.2000000000001005
 21
153.100000000000108
 31
0.0
  0
LINE
  5
14CEA
  8
0
 10
16.7500000000033005
 20
158.2999999999809972
 30
0.0
 11
13.5000000000064801
 21
158.2999999999809972
 31
0.0
  0
LINE
  5
14CEC
  8
0
 10
26.4999999999937508
 20
158.2999999999809972
 30
0.0
 11
23.2499999999969305
 21
158.2999999999809972
 31
0.0
  0
LINE
  5
14CED
  8
0
 10
16.0000000000000604
 20
137.0000000000001137
 30
0.0
 11
24.0000000000000604
 21
137.0000000000001137
 31
0.0
  0
LINE
  5
14CEE
  8
0
 10
73.5000000000001137
 20
153.5999999999999091
 30
0.0
 11
73.5000000000001137
 21
158.0305627518719973
 31
0.0
  0
LINE
  5
14CF1
  8
0
 10
80.0000000000001137
 20
158.0305627518719973
 30
0.0
 11
80.0000000000001137
 21
153.5999999999997954
 31
0.0
  0
LINE
  5
14CF2
  8
0
 10
73.5000000000001137
 20
153.5999999999999091
 30
0.0
 11
80.0000000000001137
 21
153.5999999999997954
 31
0.0
  0
LINE
  5
14CF5
  8
0
 10
86.5000000000001137
 20
158.0305627518719973
 30
0.0
 11
86.5000000000001137
 21
153.5999999999997954
 31
0.0
  0
LINE
  5
14CF6
  8
0
 10
80.0000000000001137
 20
153.5999999999997954
 30
0.0
 11
86.5000000000001137
 21
153.5999999999997954
 31
0.0
  0
LINE
  5
14CF7
  8
0
 10
83.2499999999969305
 20
158.299999999980912
 30
0.0
 11
76.7500000000032969
 21
158.299999999980912
 31
0.0
  0
LINE
  5
14CF8
  8
0
 10
85.8000000000001251
 20
153.0999999999999091
 30
0.0
 11
74.2000000000001023
 21
153.0999999999999091
 31
0.0
  0
LINE
  5
14CFB
  8
0
 10
76.7500000000032969
 20
158.299999999980912
 30
0.0
 11
73.5000000000064801
 21
158.299999999980912
 31
0.0
  0
LINE
  5
14CFD
  8
0
 10
86.4999999999937756
 20
158.299999999980912
 30
0.0
 11
83.2499999999969305
 21
158.299999999980912
 31
0.0
  0
LINE
  5
14CFE
  8
0
 10
76.0000000000000568
 20
136.9999999999998863
 30
0.0
 11
84.0000000000000568
 21
136.9999999999998863
 31
0.0
  0
CIRCLE
  5
14CFF
  8
0
 10
252.5000000000003979
 20
74.9999999999998721
 30
0.0
 40
3.0
  0
CIRCLE
  5
14D00
  8
0
 10
147.5000000000003979
 20
75.0000000000002274
 30
0.0
 40
3.0
  0
CIRCLE
  5
14D01
  8
0
 10
225.8686269103164932
 20
80.7151361062224879
 30
0.0
 40
4.0
  0
CIRCLE
  5
14D02
  8
0
 10
210.7151361062229
 20
95.8686269103161379
 30
0.0
 40
3.9999999999999711
  0
CIRCLE
  5
14D03
  8
0
 10
189.2848638937778958
 20
95.8686269103161521
 30
0.0
 40
4.0
  0
CIRCLE
  5
14D04
  8
0
 10
174.1313730896841889
 20
80.7151361062225874
 30
0.0
 40
4.0
  0
CIRCLE
  5
14D05
  8
0
 10
200.0000000000003126
 20
70.0000000000000284
 30
0.0
 40
22.5000000000000107
  0
CIRCLE
  5
14D06
  8
0
 10
174.1313730896841889
 20
59.2848638937775974
 30
0.0
 40
3.999999999999984
  0
CIRCLE
  5
14D07
  8
0
 10
189.2848638937778958
 20
44.13137308968399
 30
0.0
 40
4.0000000000000142
  0
CIRCLE
  5
14D08
  8
0
 10
200.0000000000003126
 20
42.0000000000000426
 30
0.0
 40
1.0000000000000131
  0
CIRCLE
  5
14D09
  8
0
 10
210.7151361062229
 20
44.13137308968399
 30
0.0
 40
4.0000000000000142
  0
CIRCLE
  5
14D0A
  8
0
 10
225.8686269103164932
 20
59.2848638937774908
 30
0.0
 40
4.0000000000000142
  0
LINE
  5
14D0B
  8
0
 10
138.5000000000003979
 20
95.5000000000000568
 30
0.0
 11
147.5000000000003979
 21
95.5000000000000568
 31
0.0
  0
ARC
  5
14D0C
  8
0
 10
147.5000000000003979
 20
100.0
 30
0.0
 40
4.5
 50
270.0
 51
90.0
  0
LINE
  5
14D0D
  8
0
 10
147.5000000000003979
 20
104.5
 30
0.0
 11
138.5156402886649118
 21
104.5
 31
0.0
  0
ARC
  5
14D0E
  8
0
 10
146.5000000000003979
 20
104.0
 30
0.0
 40
8.0
 50
90.0
 51
176.4166783015282078
  0
LINE
  5
14D0F
  8
0
 10
146.5000000000003979
 20
112.0
 30
0.0
 11
253.5000000000003979
 21
112.0
 31
0.0
  0
ARC
  5
14D10
  8
0
 10
253.5000000000003979
 20
104.0
 30
0.0
 40
8.0000000000001421
 50
3.5833216984717691
 51
90.0
  0
LINE
  5
14D11
  8
0
 10
261.4843597113360829
 20
104.5
 30
0.0
 11
252.5000000000003979
 21
104.5
 31
0.0
  0
ARC
  5
14D12
  8
0
 10
252.5000000000003979
 20
100.0
 30
0.0
 40
4.5
 50
90.0
 51
270.0
  0
LINE
  5
14D13
  8
0
 10
252.5000000000003979
 20
95.5000000000000568
 30
0.0
 11
261.5000000000002842
 21
95.5000000000000568
 31
0.0
  0
LINE
  5
14D14
  8
0
 10
261.5000000000002842
 20
95.5000000000000568
 30
0.0
 11
261.5000000000002842
 21
44.5000000000000497
 31
0.0
  0
LINE
  5
14D15
  8
0
 10
261.5000000000002842
 20
44.5000000000000497
 30
0.0
 11
252.5000000000003979
 21
44.5000000000000497
 31
0.0
  0
ARC
  5
14D16
  8
0
 10
252.5000000000003979
 20
40.0000000000000426
 30
0.0
 40
4.5000000000000142
 50
90.0
 51
270.0
  0
LINE
  5
14D17
  8
0
 10
252.5000000000003979
 20
35.5000000000000426
 30
0.0
 11
261.4843597113360261
 21
35.5000000000000426
 31
0.0
  0
ARC
  5
14D18
  8
0
 10
253.5000000000003979
 20
36.0000000000000426
 30
0.0
 40
7.9999999999999849
 50
270.0
 51
356.4166783015290889
  0
LINE
  5
14D19
  8
0
 10
253.5000000000003979
 20
28.0000000000000604
 30
0.0
 11
146.5000000000003979
 21
28.0000000000000604
 31
0.0
  0
ARC
  5
14D1A
  8
0
 10
146.5000000000003979
 20
36.0000000000000426
 30
0.0
 40
8.0000000000001421
 50
183.583321698472389
 51
270.0
  0
LINE
  5
14D1B
  8
0
 10
138.5156402886645992
 20
35.5000000000000426
 30
0.0
 11
147.5000000000003979
 21
35.5000000000000426
 31
0.0
  0
ARC
  5
14D1C
  8
0
 10
147.5000000000003979
 20
40.0000000000000426
 30
0.0
 40
4.5000000000000142
 50
270.0
 51
90.0
  0
LINE
  5
14D1D
  8
0
 10
147.5000000000003979
 20
44.5000000000000497
 30
0.0
 11
138.5000000000003979
 21
44.5000000000000497
 31
0.0
  0
LINE
  5
14D1E
  8
0
 10
138.5000000000003979
 20
44.5000000000000497
 30
0.0
 11
138.5000000000003979
 21
95.5000000000000568
 31
0.0
  0
LINE
  5
14D1F
  8
0
 10
212.2151361062229
 20
43.2653476858995987
 30
0.0
 11
212.2151361062229
 21
44.9973984934684665
 31
0.0
  0
LINE
  5
14D20
  8
0
 10
210.7151361062229
 20
45.8634238972529218
 30
0.0
 11
212.2151361062229
 21
44.9973984934684665
 31
0.0
  0
LINE
  5
14D21
  8
0
 10
210.7151361062229
 20
45.8634238972529218
 30
0.0
 11
209.2151361062229
 21
44.9973984934684665
 31
0.0
  0
LINE
  5
14D22
  8
0
 10
209.2151361062229
 20
44.9973984934684665
 30
0.0
 11
209.2151361062229
 21
43.2653476858995987
 31
0.0
  0
LINE
  5
14D23
  8
0
 10
210.7151361062229
 20
42.3993222821151505
 30
0.0
 11
209.2151361062229
 21
43.2653476858995987
 31
0.0
  0
LINE
  5
14D24
  8
0
 10
210.7151361062229
 20
42.3993222821151505
 30
0.0
 11
212.2151361062229
 21
43.2653476858995987
 31
0.0
  0
CIRCLE
  5
14D25
  8
0
 10
210.7151361062229
 20
44.1313730896840397
 30
0.0
 40
3.5
  0
LINE
  5
14D26
  8
0
 10
190.7848638937778958
 20
43.2653476858995987
 30
0.0
 11
190.7848638937778958
 21
44.9973984934684665
 31
0.0
  0
LINE
  5
14D27
  8
0
 10
189.2848638937778958
 20
45.8634238972529218
 30
0.0
 11
190.7848638937778958
 21
44.9973984934684665
 31
0.0
  0
LINE
  5
14D28
  8
0
 10
189.2848638937778958
 20
45.8634238972529218
 30
0.0
 11
187.7848638937778958
 21
44.9973984934684665
 31
0.0
  0
LINE
  5
14D29
  8
0
 10
187.7848638937778958
 20
44.9973984934684665
 30
0.0
 11
187.7848638937778958
 21
43.2653476858995987
 31
0.0
  0
LINE
  5
14D2A
  8
0
 10
189.2848638937778958
 20
42.3993222821151505
 30
0.0
 11
187.7848638937778958
 21
43.2653476858995987
 31
0.0
  0
LINE
  5
14D2B
  8
0
 10
189.2848638937778958
 20
42.3993222821151505
 30
0.0
 11
190.7848638937778958
 21
43.2653476858995987
 31
0.0
  0
CIRCLE
  5
14D2C
  8
0
 10
189.2848638937778958
 20
44.1313730896840397
 30
0.0
 40
3.5
  0
LINE
  5
14D2D
  8
0
 10
175.6313730896843026
 20
58.4188384899931918
 30
0.0
 11
175.6313730896843026
 21
60.1508892975620668
 31
0.0
  0
LINE
  5
14D2E
  8
0
 10
174.1313730896841889
 20
61.0169147013465007
 30
0.0
 11
175.6313730896843026
 21
60.1508892975620668
 31
0.0
  0
LINE
  5
14D2F
  8
0
 10
174.1313730896841889
 20
61.0169147013465007
 30
0.0
 11
172.6313730896841889
 21
60.1508892975620668
 31
0.0
  0
LINE
  5
14D30
  8
0
 10
172.6313730896841889
 20
60.1508892975620668
 30
0.0
 11
172.6313730896841889
 21
58.4188384899931918
 31
0.0
  0
LINE
  5
14D31
  8
0
 10
174.1313730896841889
 20
57.5528130862087579
 30
0.0
 11
172.6313730896841889
 21
58.4188384899931918
 31
0.0
  0
LINE
  5
14D32
  8
0
 10
174.1313730896841889
 20
57.5528130862087579
 30
0.0
 11
175.6313730896843026
 21
58.4188384899931918
 31
0.0
  0
CIRCLE
  5
14D33
  8
0
 10
174.1313730896841889
 20
59.2848638937776329
 30
0.0
 40
3.5
  0
LINE
  5
14D34
  8
0
 10
175.6313730896843026
 20
79.8491107024381819
 30
0.0
 11
175.6313730896843026
 21
81.5811615100070355
 31
0.0
  0
LINE
  5
14D35
  8
0
 10
174.1313730896841889
 20
82.4471869137915121
 30
0.0
 11
175.6313730896843026
 21
81.5811615100070355
 31
0.0
  0
LINE
  5
14D36
  8
0
 10
174.1313730896841889
 20
82.4471869137915121
 30
0.0
 11
172.6313730896841889
 21
81.5811615100070355
 31
0.0
  0
LINE
  5
14D37
  8
0
 10
172.6313730896841889
 20
81.5811615100070355
 30
0.0
 11
172.6313730896841889
 21
79.8491107024381819
 31
0.0
  0
LINE
  5
14D38
  8
0
 10
174.1313730896841889
 20
78.9830852986537337
 30
0.0
 11
172.6313730896841889
 21
79.8491107024381819
 31
0.0
  0
LINE
  5
14D39
  8
0
 10
174.1313730896841889
 20
78.9830852986537337
 30
0.0
 11
175.6313730896843026
 21
79.8491107024381819
 31
0.0
  0
CIRCLE
  5
14D3A
  8
0
 10
174.1313730896841889
 20
80.7151361062226442
 30
0.0
 40
3.5
  0
LINE
  5
14D3B
  8
0
 10
190.7848638937778958
 20
95.002601506531704
 30
0.0
 11
190.7848638937778958
 21
96.7346523141005861
 31
0.0
  0
LINE
  5
14D3C
  8
0
 10
189.2848638937778958
 20
97.6006777178849916
 30
0.0
 11
190.7848638937778958
 21
96.7346523141005861
 31
0.0
  0
LINE
  5
14D3D
  8
0
 10
189.2848638937778958
 20
97.6006777178849916
 30
0.0
 11
187.7848638937778958
 21
96.7346523141005861
 31
0.0
  0
LINE
  5
14D3E
  8
0
 10
187.7848638937778958
 20
96.7346523141005861
 30
0.0
 11
187.7848638937778958
 21
95.002601506531704
 31
0.0
  0
LINE
  5
14D3F
  8
0
 10
189.2848638937778958
 20
94.1365761027472558
 30
0.0
 11
187.7848638937778958
 21
95.002601506531704
 31
0.0
  0
LINE
  5
14D40
  8
0
 10
189.2848638937778958
 20
94.1365761027472558
 30
0.0
 11
190.7848638937778958
 21
95.002601506531704
 31
0.0
  0
CIRCLE
  5
14D41
  8
0
 10
189.2848638937778958
 20
95.8686269103161521
 30
0.0
 40
3.5
  0
LINE
  5
14D42
  8
0
 10
212.2151361062230137
 20
95.002601506531704
 30
0.0
 11
212.2151361062230137
 21
96.7346523141005861
 31
0.0
  0
LINE
  5
14D43
  8
0
 10
210.7151361062229
 20
97.6006777178849916
 30
0.0
 11
212.2151361062230137
 21
96.7346523141005861
 31
0.0
  0
LINE
  5
14D44
  8
0
 10
210.7151361062229
 20
97.6006777178849916
 30
0.0
 11
209.2151361062230137
 21
96.7346523141005861
 31
0.0
  0
LINE
  5
14D45
  8
0
 10
209.2151361062230137
 20
96.7346523141005861
 30
0.0
 11
209.2151361062230137
 21
95.002601506531704
 31
0.0
  0
LINE
  5
14D46
  8
0
 10
210.7151361062229
 20
94.1365761027472558
 30
0.0
 11
209.2151361062230137
 21
95.002601506531704
 31
0.0
  0
LINE
  5
14D47
  8
0
 10
210.7151361062229
 20
94.1365761027472558
 30
0.0
 11
212.2151361062230137
 21
95.002601506531704
 31
0.0
  0
CIRCLE
  5
14D48
  8
0
 10
210.7151361062229
 20
95.8686269103161521
 30
0.0
 40
3.5
  0
LINE
  5
14D49
  8
0
 10
227.3686269103164932
 20
79.8491107024380824
 30
0.0
 11
227.3686269103164932
 21
81.5811615100069645
 31
0.0
  0
LINE
  5
14D4A
  8
0
 10
225.8686269103164932
 20
82.4471869137913842
 30
0.0
 11
227.3686269103164932
 21
81.5811615100069645
 31
0.0
  0
LINE
  5
14D4B
  8
0
 10
225.8686269103164932
 20
82.4471869137913842
 30
0.0
 11
224.3686269103164932
 21
81.5811615100069645
 31
0.0
  0
LINE
  5
14D4C
  8
0
 10
224.3686269103164932
 20
81.5811615100069645
 30
0.0
 11
224.3686269103164932
 21
79.8491107024380824
 31
0.0
  0
LINE
  5
14D4D
  8
0
 10
225.8686269103164932
 20
78.9830852986536627
 30
0.0
 11
224.3686269103164932
 21
79.8491107024380824
 31
0.0
  0
LINE
  5
14D4E
  8
0
 10
225.8686269103164932
 20
78.9830852986536627
 30
0.0
 11
227.3686269103164932
 21
79.8491107024380824
 31
0.0
  0
CIRCLE
  5
14D4F
  8
0
 10
225.8686269103164932
 20
80.7151361062225163
 30
0.0
 40
3.4999999999999432
  0
LINE
  5
14D50
  8
0
 10
227.3686269103164932
 20
58.4188384899930924
 30
0.0
 11
227.3686269103164932
 21
60.1508892975619673
 31
0.0
  0
LINE
  5
14D51
  8
0
 10
225.8686269103164932
 20
61.0169147013463871
 30
0.0
 11
227.3686269103164932
 21
60.1508892975619673
 31
0.0
  0
LINE
  5
14D52
  8
0
 10
225.8686269103164932
 20
61.0169147013463871
 30
0.0
 11
224.3686269103164932
 21
60.1508892975619673
 31
0.0
  0
LINE
  5
14D53
  8
0
 10
224.3686269103164932
 20
60.1508892975619673
 30
0.0
 11
224.3686269103164932
 21
58.4188384899930924
 31
0.0
  0
LINE
  5
14D54
  8
0
 10
225.8686269103164932
 20
57.5528130862086513
 30
0.0
 11
224.3686269103164932
 21
58.4188384899930924
 31
0.0
  0
LINE
  5
14D55
  8
0
 10
225.8686269103164932
 20
57.5528130862086513
 30
0.0
 11
227.3686269103164932
 21
58.4188384899930924
 31
0.0
  0
CIRCLE
  5
14D56
  8
0
 10
225.8686269103164932
 20
59.2848638937775192
 30
0.0
 40
3.4999999999999432
  0
CIRCLE
  5
14D57
  8
0
 10
252.5000000000003979
 20
39.9999999999999716
 30
0.0
 40
4.0
  0
ARC
  5
14D58
  8
0
 10
252.5000000000003979
 20
40.0000000000000426
 30
0.0
 40
5.7999999999999998
 50
309.1167437795791102
 51
50.8832562204210177
  0
ARC
  5
14D59
  8
0
 10
252.5000000000003979
 20
40.0000000000000426
 30
0.0
 40
6.2999999999829273
 50
314.4153085970348798
 51
45.5846914029652979
  0
LINE
  5
14D5A
  8
0
 10
257.4074772881122044
 20
44.5000000000000924
 30
0.0
 11
260.0055534994655204
 21
40.0000000000000426
 31
0.0
  0
LINE
  5
14D5B
  8
0
 10
260.0055534994655204
 20
40.0000000000000426
 30
0.0
 11
257.4074772881122044
 21
35.5000000000000711
 31
0.0
  0
CIRCLE
  5
14D5C
  8
0
 10
147.5000000000003979
 20
39.9999999999999716
 30
0.0
 40
4.0
  0
ARC
  5
14D5D
  8
0
 10
147.5000000000003979
 20
40.0000000000000426
 30
0.0
 40
5.800000000000006
 50
129.1167437795789965
 51
230.8832562204210035
  0
ARC
  5
14D5E
  8
0
 10
147.5000000000003979
 20
40.0000000000000426
 30
0.0
 40
6.2999999999829068
 50
134.4153085970345956
 51
225.5846914029652908
  0
LINE
  5
14D5F
  8
0
 10
142.5925227118883925
 20
35.5000000000000711
 30
0.0
 11
139.9944465005353038
 21
40.0000000000000426
 31
0.0
  0
LINE
  5
14D60
  8
0
 10
139.9944465005353038
 20
40.0000000000000426
 30
0.0
 11
142.5925227118883925
 21
44.5000000000000924
 31
0.0
  0
CIRCLE
  5
14D61
  8
0
 10
252.5000000000003979
 20
99.9999999999999858
 30
0.0
 40
3.9999999999999711
  0
ARC
  5
14D62
  8
0
 10
252.5000000000003979
 20
100.0
 30
0.0
 40
5.7999999999999998
 50
309.1167437795791102
 51
50.8832562204210177
  0
ARC
  5
14D63
  8
0
 10
252.5000000000003979
 20
100.0
 30
0.0
 40
6.2999999999829059
 50
314.4153085970347092
 51
45.5846914029653405
  0
LINE
  5
14D64
  8
0
 10
257.4074772881122044
 20
104.5000000000000995
 30
0.0
 11
260.0055534994655204
 21
100.0
 31
0.0
  0
LINE
  5
14D65
  8
0
 10
260.0055534994655204
 20
100.0
 30
0.0
 11
257.4074772881122044
 21
95.5000000000000711
 31
0.0
  0
CIRCLE
  5
14D66
  8
0
 10
147.5000000000003979
 20
99.9999999999999858
 30
0.0
 40
3.9999999999999711
  0
ARC
  5
14D67
  8
0
 10
147.5000000000003979
 20
100.0
 30
0.0
 40
5.800000000000006
 50
129.1167437795789965
 51
230.8832562204210035
  0
ARC
  5
14D68
  8
0
 10
147.5000000000003979
 20
100.0
 30
0.0
 40
6.2999999999829059
 50
134.4153085970345956
 51
225.5846914029652908
  0
LINE
  5
14D69
  8
0
 10
142.5925227118883925
 20
95.5000000000000711
 30
0.0
 11
139.9944465005353038
 21
100.0
 31
0.0
  0
LINE
  5
14D6A
  8
0
 10
139.9944465005353038
 20
100.0
 30
0.0
 11
142.5925227118883925
 21
104.5000000000000995
 31
0.0
  0
LINE
  5
14D71
  8
1
 10
200.0
 20
117.0000000000000995
 30
0.0
 11
200.0
 21
22.9999999999999289
 31
0.0
  0
LINE
  5
14D72
  8
1
 10
266.5000000000003979
 20
70.0000000000000284
 30
0.0
 11
133.5000000000003126
 21
70.0000000000000284
 31
0.0
  0
CIRCLE
  5
14D73
  8
1
 10
200.0000000000003126
 20
70.0000000000000284
 30
0.0
 40
27.9999999999999716
  0
INSERT
  5
14D74
  8
1
  2
*U3
 10
-1631.6984106324819095
 20
16.5011945066359402
 30
0.0
  0
LINE
  5
14D75
  8
1
 10
258.5000000000002842
 20
75.0000000000002842
 30
0.0
 11
246.5000000000003979
 21
75.0000000000002842
 31
0.0
  0
LINE
  5
14D76
  8
1
 10
252.5000000000003979
 20
69.0000000000002842
 30
0.0
 11
252.5000000000003979
 21
81.0000000000002842
 31
0.0
  0
LINE
  5
14D77
  8
1
 10
153.5000000000003126
 20
74.9999999999999147
 30
0.0
 11
141.5000000000003979
 21
74.9999999999999147
 31
0.0
  0
LINE
  5
14D78
  8
1
 10
147.5000000000003126
 20
68.9999999999999147
 30
0.0
 11
147.5000000000003126
 21
80.9999999999999005
 31
0.0
  0
CIRCLE
  5
14D79
  8
3
 10
252.5000000000003979
 20
100.0
 30
0.0
 40
3.3234999999999939
  0
LINE
  5
14D7A
  8
1
 10
260.0000000000003979
 20
100.0
 30
0.0
 11
245.0000000000003979
 21
100.0
 31
0.0
  0
LINE
  5
14D7B
  8
1
 10
252.5000000000003979
 20
107.5
 30
0.0
 11
252.5000000000003979
 21
92.5000000000000142
 31
0.0
  0
CIRCLE
  5
14D7C
  8
3
 10
147.5000000000003126
 20
100.0
 30
0.0
 40
3.3234999999999939
  0
LINE
  5
14D7D
  8
1
 10
155.0000000000003979
 20
100.0
 30
0.0
 11
140.0000000000003126
 21
100.0
 31
0.0
  0
LINE
  5
14D7E
  8
1
 10
147.5000000000003126
 20
107.5
 30
0.0
 11
147.5000000000003126
 21
92.5000000000000142
 31
0.0
  0
CIRCLE
  5
14D7F
  8
3
 10
147.5000000000003126
 20
40.0000000000000924
 30
0.0
 40
3.3234999999999939
  0
LINE
  5
14D80
  8
1
 10
155.0000000000003979
 20
40.0000000000000213
 30
0.0
 11
140.0000000000003126
 21
40.0000000000000213
 31
0.0
  0
LINE
  5
14D81
  8
1
 10
147.5000000000003126
 20
47.5000000000000213
 30
0.0
 11
147.5000000000003126
 21
32.5000000000000284
 31
0.0
  0
CIRCLE
  5
14D82
  8
3
 10
252.5000000000003979
 20
40.0000000000000924
 30
0.0
 40
3.3234999999999939
  0
LINE
  5
14D83
  8
1
 10
260.0000000000003979
 20
40.0000000000000213
 30
0.0
 11
245.0000000000003979
 21
40.0000000000000213
 31
0.0
  0
LINE
  5
14D84
  8
1
 10
252.5000000000003979
 20
47.5000000000000213
 30
0.0
 11
252.5000000000003979
 21
32.5000000000000284
 31
0.0
  0
LINE
  5
14DA0
  8
3
 10
23.3234999999999708
 20
137.0
 30
0.0
 11
23.3235000000001911
 21
153.0
 31
0.0
  0
LINE
  5
14DA1
  8
3
 10
16.6765000000000292
 20
137.0
 30
0.0
 11
16.6765000000002601
 21
153.0
 31
0.0
  0
LINE
  5
14DA2
  8
1
 10
20.0
 20
164.0
 30
0.0
 11
20.0
 21
134.0
 31
0.0
  0
LINE
  5
14DA3
  8
3
 10
83.3235000000001946
 20
137.0
 30
0.0
 11
83.3235000000006494
 21
153.0
 31
0.0
  0
LINE
  5
14DA4
  8
3
 10
76.6765000000002601
 20
137.0
 30
0.0
 11
76.6765000000002601
 21
153.0
 31
0.0
  0
LINE
  5
14DA5
  8
1
 10
80.0000000000002274
 20
164.0
 30
0.0
 11
80.0000000000002274
 21
134.0
 31
0.0
  0
LINE
  5
14DA7
  8
1
 10
50.0
 20
173.0
 30
0.0
 11
50.0
 21
140.0
 31
0.0
  0
LINE
  5
14DA8
  8
1
 10
78.000000000000199
 20
171.9999999999814122
 30
0.0
 11
78.000000000000199
 21
149.9999999999814122
 31
0.0
  0
LINE
  5
14DA9
  8
1
 10
54.9999999999997726
 20
136.0
 30
0.0
 11
54.9999999999997726
 21
158.0000000000001137
 31
0.0
  0
LINE
  5
14DAA
  8
1
 10
262.0000000000006253
 20
274.9999999999998863
 30
0.0
 11
243.0000000000005969
 21
274.9999999999998863
 31
0.0
  0
LINE
  5
14DAB
  8
1
 10
252.5000000000005969
 20
284.5
 30
0.0
 11
252.5000000000005969
 21
265.5
 31
0.0
  0
LINE
  5
14DAC
  8
1
 10
157.0000000000005969
 20
274.9999999999998863
 30
0.0
 11
138.0000000000005969
 21
274.9999999999998863
 31
0.0
  0
LINE
  5
14DAD
  8
1
 10
147.5000000000005969
 20
284.5
 30
0.0
 11
147.5000000000005969
 21
265.5
 31
0.0
  0
LINE
  5
14DAE
  8
1
 10
157.0000000000005969
 20
215.0
 30
0.0
 11
138.0000000000005969
 21
215.0
 31
0.0
  0
LINE
  5
14DAF
  8
1
 10
147.5000000000005969
 20
224.5
 30
0.0
 11
147.5000000000005969
 21
205.5
 31
0.0
  0
LINE
  5
14DB0
  8
1
 10
262.0000000000006253
 20
215.0
 30
0.0
 11
243.0000000000005969
 21
215.0
 31
0.0
  0
LINE
  5
14DB1
  8
1
 10
252.5000000000005969
 20
224.5
 30
0.0
 11
252.5000000000005969
 21
205.5
 31
0.0
  0
LINE
  5
14DB2
  8
1
 10
200.0000000000003126
 20
292.0000000000001137
 30
0.0
 11
200.0000000000003126
 21
198.0
 31
0.0
  0
LINE
  5
14DB3
  8
1
 10
252.5000317534565113
 20
244.9999390139113018
 30
0.0
 11
252.5000317534565113
 21
235.0
 31
0.0
  0
LINE
  5
14DB4
  8
1
 10
257.5000317534564829
 20
239.9999695069556935
 30
0.0
 11
247.5000317534565113
 21
239.9999695069556935
 31
0.0
  0
LINE
  5
14DB5
  8
1
 10
147.4999682465447108
 20
244.9999390139111028
 30
0.0
 11
147.4999682465447108
 21
234.9999999999998863
 31
0.0
  0
LINE
  5
14DB6
  8
1
 10
142.4999682465447108
 20
239.9999695069554946
 30
0.0
 11
152.4999682465447108
 21
239.9999695069554946
 31
0.0
  0
CIRCLE
  5
14DB7
  8
1
 10
200.0000000000005969
 20
245.0000000000001137
 30
0.0
 40
27.9999999999999183
  0
LINE
  5
14DB8
  8
1
 10
208.7060480863061116
 20
266.0182593646317741
 30
0.0
 11
212.7242241261398021
 21
275.7189944560000754
 31
0.0
  0
LINE
  5
14DB9
  8
1
 10
191.2939519136944
 20
266.0182593646317173
 30
0.0
 11
187.2757758738613063
 21
275.7189944560000754
 31
0.0
  0
LINE
  5
14DBA
  8
1
 10
178.981740635368709
 20
253.7060480863057137
 30
0.0
 11
169.2810055440006067
 21
257.7242241261392905
 31
0.0
  0
LINE
  5
14DBB
  8
1
 10
178.9817406353689933
 20
236.293951913694201
 30
0.0
 11
169.2810055440002941
 21
232.2757758738609937
 31
0.0
  0
LINE
  5
14DBC
  8
1
 10
191.2939519136949968
 20
223.9817406353681974
 30
0.0
 11
187.2757758738613063
 21
214.2810055439998962
 31
0.0
  0
LINE
  5
14DBD
  8
1
 10
208.7060480863065095
 20
223.9817406353683964
 30
0.0
 11
212.7242241261398021
 21
214.2810055439998962
 31
0.0
  0
LINE
  5
14DBE
  8
1
 10
221.0182593646323994
 20
236.2939519136944
 30
0.0
 11
230.7189944560005017
 21
232.2757758738607947
 31
0.0
  0
LINE
  5
14DBF
  8
1
 10
221.0182593646322005
 20
253.7060480863059979
 30
0.0
 11
230.7189944560008996
 21
257.7242241261391769
 31
0.0
  0
LINE
  5
14DC0
  8
1
 10
266.5000000000006253
 20
245.0000000000001137
 30
0.0
 11
133.5000000000005969
 21
245.0000000000001137
 31
0.0
  0
CIRCLE
  5
14DC1
  8
0
 10
252.5000317534563123
 20
239.9999695069556935
 30
0.0
 40
2.0
  0
CIRCLE
  5
14DC2
  8
0
 10
147.4999682465443982
 20
239.9999695069554946
 30
0.0
 40
2.0
  0
ARC
  5
14DC5
  8
0
 10
169.0458916866888899
 20
282.0000001148416118
 30
0.0
 40
4.9999998851586147
 50
89.9999989902376853
 51
165.0000010097924985
  0
ARC
  5
14DC8
  8
0
 10
147.5000025217250936
 20
274.9999974782750769
 30
0.0
 40
13.9999969115305802
 50
284.9999927024441035
 51
345.0000072975545891
  0
LINE
  5
14DC9
  8
0
 10
164.2162626433643879
 20
283.2940952255124785
 30
0.0
 11
161.0229615680472079
 21
271.3765333685644805
 31
0.0
  0
LINE
  5
14DCA
  8
0
 10
151.1234666314356048
 20
261.4770384319529057
 30
0.0
 11
142.2059053988785138
 21
259.0875851012340831
 31
0.0
  0
ARC
  5
14DCD
  8
0
 10
143.5000074213103005
 20
254.2579501079117108
 30
0.0
 40
5.000007421313204
 50
105.0000578475029016
 51
179.9999347450572884
  0
ARC
  5
14DCE
  8
0
 10
169.0458916866888899
 20
207.9999998851587861
 30
0.0
 40
4.9999998851586147
 50
194.9999989902073025
 51
270.0000010097621725
  0
ARC
  5
14DCF
  8
0
 10
147.5000025217250936
 20
215.0000025217252073
 30
0.0
 40
13.9999969115305802
 50
14.9999927024443398
 51
75.0000072975558254
  0
LINE
  5
14DD0
  8
0
 10
164.2162626433643879
 20
206.7059047744876921
 30
0.0
 11
161.0229615680472079
 21
218.6234666314358037
 31
0.0
  0
LINE
  5
14DD1
  8
0
 10
151.1234666314356048
 20
228.5229615680474922
 30
0.0
 11
142.2059053988785138
 21
230.9124148987662011
 31
0.0
  0
ARC
  5
14DD2
  8
0
 10
143.5000074213103005
 20
235.7420498920886871
 30
0.0
 40
5.000007421313204
 50
180.0000652549425126
 51
254.9999421524969136
  0
ARC
  5
14DD3
  8
0
 10
230.9541083133125881
 20
282.0000001148413276
 30
0.0
 40
4.9999998851586147
 50
14.9999989902068496
 51
90.0000010097590462
  0
ARC
  5
14DD4
  8
0
 10
252.4999974782764127
 20
274.999997478274679
 30
0.0
 40
13.9999969115305802
 50
194.9999927024439046
 51
255.0000072975524859
  0
LINE
  5
14DD5
  8
0
 10
235.78373735663709
 20
283.2940952255124216
 30
0.0
 11
238.9770384319542131
 21
271.3765333685641963
 31
0.0
  0
LINE
  5
14DD6
  8
0
 10
248.8765333685657026
 20
261.4770384319523941
 30
0.0
 11
257.794094601122822
 21
259.0875851012336284
 31
0.0
  0
ARC
  5
14DD7
  8
0
 10
256.4999925786909216
 20
254.2579501079111139
 30
0.0
 40
5.000007421313204
 50
0.0000652549420957
 51
74.9999421524969136
  0
ARC
  5
14DD8
  8
0
 10
230.9541083133119912
 20
207.9999998851583882
 30
0.0
 40
4.9999998851586147
 50
269.9999989902407833
 51
345.0000010097920722
  0
ARC
  5
14DD9
  8
0
 10
252.4999974782757874
 20
215.0000025217246957
 30
0.0
 40
13.9999969115305802
 50
104.9999927024474999
 51
165.0000072975558112
  0
LINE
  5
14DDA
  8
0
 10
235.7837373566364079
 20
206.7059047744874078
 30
0.0
 11
238.9770384319537015
 21
218.6234666314354058
 31
0.0
  0
LINE
  5
14DDB
  8
0
 10
248.8765333685655037
 20
228.522961568047009
 30
0.0
 11
257.7940946011224241
 21
230.9124148987656042
 31
0.0
  0
ARC
  5
14DDC
  8
0
 10
256.4999925786905806
 20
235.7420498920882039
 30
0.0
 40
5.000007421313204
 50
285.0000578475031148
 51
359.9999347450566916
  0
LINE
  5
14DE0
  8
3
 10
150.8234999999993136
 20
136.9999999999996874
 30
0.0
 11
150.8234999999995978
 21
144.9999999999998863
 31
0.0
  0
LINE
  5
14DE1
  8
3
 10
144.1764999999992938
 20
136.9999999999996874
 30
0.0
 11
144.1764999999992938
 21
144.9999999999998863
 31
0.0
  0
LINE
  5
14DE2
  8
1
 10
147.4999999999994031
 20
163.999999999999801
 30
0.0
 11
147.4999999999994031
 21
133.999999999999801
 31
0.0
  0
LINE
  5
14DE3
  8
3
 10
255.8234999999993988
 20
136.9999999999996874
 30
0.0
 11
255.8234999999997115
 21
144.9999999999998863
 31
0.0
  0
LINE
  5
14DE4
  8
3
 10
249.1764999999994927
 20
136.9999999999996874
 30
0.0
 11
249.1764999999996917
 21
144.9999999999998863
 31
0.0
  0
LINE
  5
14DE5
  8
1
 10
252.4999999999994884
 20
163.999999999999801
 30
0.0
 11
252.4999999999994884
 21
133.999999999999801
 31
0.0
  0
LINE
  5
14DE6
  8
1
 10
199.9999999999996021
 20
173.9999999999814122
 30
0.0
 11
200.0000000000007105
 21
139.9999999999998863
 31
0.0
  0
LINE
  5
14DE7
  8
1
 10
174.1313730896831942
 20
170.999999999999801
 30
0.0
 11
174.1313730896831942
 21
150.999999999999801
 31
0.0
  0
LINE
  5
14DE8
  8
1
 10
189.2848638937767021
 20
170.999999999999801
 30
0.0
 11
189.2848638937767021
 21
150.999999999999801
 31
0.0
  0
LINE
  5
14DE9
  8
1
 10
210.7151361062217063
 20
170.999999999999801
 30
0.0
 11
210.7151361062217063
 21
150.999999999999801
 31
0.0
  0
LINE
  5
14DEA
  8
1
 10
225.8686269103156121
 20
170.999999999999801
 30
0.0
 11
225.8686269103156121
 21
150.999999999999801
 31
0.0
  0
CIRCLE
  5
14DEC
  8
3
 10
210.7151361062230137
 20
270.8686269103160953
 30
0.0
 40
1.6209999999999991
  0
CIRCLE
  5
14DED
  8
3
 10
189.2848638937780095
 20
270.8686269103160953
 30
0.0
 40
1.6209999999999991
  0
CIRCLE
  5
14DEE
  8
3
 10
174.1313730896845868
 20
255.7151361062225021
 30
0.0
 40
1.6209999999999991
  0
CIRCLE
  5
14DEF
  8
3
 10
174.1313730896845868
 20
234.2848638937776116
 30
0.0
 40
1.6209999999999991
  0
CIRCLE
  5
14DF0
  8
3
 10
189.2848638937782084
 20
219.1313730896841037
 30
0.0
 40
1.6209999999999991
  0
CIRCLE
  5
14DF1
  8
3
 10
210.7151361062229
 20
219.1313730896841037
 30
0.0
 40
1.6209999999999991
  0
CIRCLE
  5
14DF2
  8
3
 10
225.8686269103164932
 20
234.2848638937776968
 30
0.0
 40
1.6209999999999991
  0
CIRCLE
  5
14DF3
  8
3
 10
225.8686269103164932
 20
255.7151361062227011
 30
0.0
 40
1.6209999999999991
  0
POLYLINE
  5
15776
  8
0
 66
     1
 10
0.0
 20
0.0
 30
0.0
  0
VERTEX
  5
164FB
  8
0
 10
86.4999999999937756
 20
158.299999999980912
 30
0.0
  0
VERTEX
  5
164FC
  8
0
 10
86.4999999999947136
 20
158.2952743913920983
 30
0.0
  0
VERTEX
  5
164FD
  8
0
 10
86.4999999999956231
 20
158.2902389322510999
 30
0.0
  0
VERTEX
  5
164FE
  8
0
 10
86.4999999999965326
 20
158.2845837720057887
 30
0.0
  0
VERTEX
  5
164FF
  8
0
 10
86.4999999999973141
 20
158.2779990601038094
 30
0.0
  0
VERTEX
  5
16500
  8
0
 10
86.4999999999981242
 20
158.2701749459928919
 30
0.0
  0
VERTEX
  5
16501
  8
0
 10
86.4999999999987921
 20
158.2608015791209084
 30
0.0
  0
VERTEX
  5
16502
  8
0
 10
86.4999999999994031
 20
158.2495691089355887
 30
0.0
  0
VERTEX
  5
16503
  8
0
 10
86.4999999999999289
 20
158.2361676848846912
 30
0.0
  0
VERTEX
  5
16504
  8
0
 10
86.5000000000002842
 20
158.2203019903905101
 30
0.0
  0
VERTEX
  5
16505
  8
0
 10
86.5000000000005116
 20
158.201980807027212
 30
0.0
  0
VERTEX
  5
16506
  8
0
 10
86.5000000000006537
 20
158.1815011350832947
 30
0.0
  0
VERTEX
  5
16507
  8
0
 10
86.500000000000739
 20
158.1591713300703077
 30
0.0
  0
VERTEX
  5
16508
  8
0
 10
86.5000000000006537
 20
158.1352997474996869
 30
0.0
  0
VERTEX
  5
16509
  8
0
 10
86.5000000000006253
 20
158.1101947428830101
 30
0.0
  0
VERTEX
  5
1650A
  8
0
 10
86.5000000000004547
 20
158.0841646717319122
 30
0.0
  0
VERTEX
  5
1650B
  8
0
 10
86.5000000000002842
 20
158.0575178895576869
 30
0.0
  0
VERTEX
  5
1650C
  8
0
 10
86.5000000000001137
 20
158.0305627518719973
 30
0.0
  0
SEQEND
  5
1650D
  8
0
  0
POLYLINE
  5
15777
  8
0
 66
     1
 10
0.0
 20
0.0
 30
0.0
  0
VERTEX
  5
1650E
  8
0
 10
73.5000000000001137
 20
158.0305627518719973
 30
0.0
  0
VERTEX
  5
1650F
  8
0
 10
73.4999999999999289
 20
158.0575302959042006
 30
0.0
  0
VERTEX
  5
16510
  8
0
 10
73.4999999999997726
 20
158.0841882100866087
 30
0.0
  0
VERTEX
  5
16511
  8
0
 10
73.4999999999996447
 20
158.110226864569313
 30
0.0
  0
VERTEX
  5
16512
  8
0
 10
73.4999999999995453
 20
158.1353366295024898
 30
0.0
  0
VERTEX
  5
16513
  8
0
 10
73.4999999999994884
 20
158.1592078750362873
 30
0.0
  0
VERTEX
  5
16514
  8
0
 10
73.4999999999995453
 20
158.1815309713211093
 30
0.0
  0
VERTEX
  5
16515
  8
0
 10
73.4999999999997158
 20
158.2019962885069049
 30
0.0
  0
VERTEX
  5
16516
  8
0
 10
73.4999999999999289
 20
158.2202941967437937
 30
0.0
  0
VERTEX
  5
16517
  8
0
 10
73.5000000000002842
 20
158.2361293508652125
 30
0.0
  0
VERTEX
  5
16518
  8
0
 10
73.5000000000007816
 20
158.2495092784479027
 30
0.0
  0
VERTEX
  5
16519
  8
0
 10
73.50000000000135
 20
158.2607307674533104
 30
0.0
  0
VERTEX
  5
1651A
  8
0
 10
73.5000000000021032
 20
158.2701021662495862
 30
0.0
  0
VERTEX
  5
1651B
  8
0
 10
73.5000000000028422
 20
158.2779318232049093
 30
0.0
  0
VERTEX
  5
1651C
  8
0
 10
73.5000000000036948
 20
158.284528086687601
 30
0.0
  0
VERTEX
  5
1651D
  8
0
 10
73.5000000000046043
 20
158.2901993050656131
 30
0.0
  0
VERTEX
  5
1651E
  8
0
 10
73.5000000000054996
 20
158.29525382670721
 30
0.0
  0
VERTEX
  5
1651F
  8
0
 10
73.5000000000063949
 20
158.2999999999807983
 30
0.0
  0
SEQEND
  5
16520
  8
0
  0
POLYLINE
  5
15778
  8
0
 66
     1
 10
0.0
 20
0.0
 30
0.0
  0
VERTEX
  5
16521
  8
0
 10
86.5000000000001137
 20
158.0305627518719973
 30
0.0
  0
VERTEX
  5
16522
  8
0
 10
86.3095155173252664
 20
158.0575302959040869
 30
0.0
  0
VERTEX
  5
16523
  8
0
 10
86.1190117636983956
 20
158.0841882100864098
 30
0.0
  0
VERTEX
  5
16524
  8
0
 10
85.9284694681672931
 20
158.1102268645691993
 30
0.0
  0
VERTEX
  5
16525
  8
0
 10
85.7378693597799497
 20
158.1353366295024045
 30
0.0
  0
VERTEX
  5
16526
  8
0
 10
85.5471921675841855
 20
158.1592078750362873
 30
0.0
  0
VERTEX
  5
16527
  8
0
 10
85.3564186206279913
 20
158.1815309713211093
 30
0.0
  0
VERTEX
  5
16528
  8
0
 10
85.1655294479592726
 20
158.2019962885067912
 30
0.0
  0
VERTEX
  5
16529
  8
0
 10
84.9745053786259064
 20
158.2202941967437084
 30
0.0
  0
VERTEX
  5
1652A
  8
0
 10
84.7833280307355039
 20
158.2361293508652125
 30
0.0
  0
VERTEX
  5
1652B
  8
0
 10
84.5919978727946216
 20
158.2495092784479027
 30
0.0
  0
VERTEX
  5
1652C
  8
0
 10
84.400533376493172
 20
158.2607307674533104
 30
0.0
  0
VERTEX
  5
1652D
  8
0
 10
84.208953733025524
 20
158.2701021662495009
 30
0.0
  0
VERTEX
  5
1652E
  8
0
 10
84.0172781335860037
 20
158.2779318232049093
 30
0.0
  0
VERTEX
  5
1652F
  8
0
 10
83.8255257693689799
 20
158.2845280866874873
 30
0.0
  0
VERTEX
  5
16530
  8
0
 10
83.6337158315688782
 20
158.2901993050656131
 30
0.0
  0
VERTEX
  5
16531
  8
0
 10
83.4418675113800248
 20
158.29525382670721
 30
0.0
  0
VERTEX
  5
16532
  8
0
 10
83.2499999999968594
 20
158.2999999999807983
 30
0.0
  0
SEQEND
  5
16533
  8
0
  0
POLYLINE
  5
15779
  8
0
 66
     1
 10
0.0
 20
0.0
 30
0.0
  0
VERTEX
  5
16534
  8
0
 10
83.2499999999969305
 20
158.299999999980912
 30
0.0
  0
VERTEX
  5
16535
  8
0
 10
83.0581326752279665
 20
158.2952743913920983
 30
0.0
  0
VERTEX
  5
16536
  8
0
 10
82.8662845942968147
 20
158.2902389322510999
 30
0.0
  0
VERTEX
  5
16537
  8
0
 10
82.6744750010414009
 20
158.2845837720057887
 30
0.0
  0
VERTEX
  5
16538
  8
0
 10
82.4827231392995373
 20
158.2779990601038094
 30
0.0
  0
VERTEX
  5
16539
  8
0
 10
82.2910482529090359
 20
158.2701749459928919
 30
0.0
  0
VERTEX
  5
1653A
  8
0
 10
82.0994695857078227
 20
158.2608015791209084
 30
0.0
  0
VERTEX
  5
1653B
  8
0
 10
81.9080063815336672
 20
158.2495691089355887
 30
0.0
  0
VERTEX
  5
1653C
  8
0
 10
81.7166778842244383
 20
158.2361676848846912
 30
0.0
  0
VERTEX
  5
1653D
  8
0
 10
81.5255024349587956
 20
158.2203019903907091
 30
0.0
  0
VERTEX
  5
1653E
  8
0
 10
81.334479488340989
 20
158.201980807027212
 30
0.0
  0
VERTEX
  5
1653F
  8
0
 10
81.1435905986223815
 20
158.1815011350832947
 30
0.0
  0
VERTEX
  5
16540
  8
0
 10
80.9528166148173938
 20
158.1591713300703077
 30
0.0
  0
VERTEX
  5
16541
  8
0
 10
80.7621383859403466
 20
158.1352997474996869
 30
0.0
  0
VERTEX
  5
16542
  8
0
 10
80.5715367610056745
 20
158.1101947428830101
 30
0.0
  0
VERTEX
  5
16543
  8
0
 10
80.3809925890277981
 20
158.0841646717319122
 30
0.0
  0
VERTEX
  5
16544
  8
0
 10
80.1904867190211519
 20
158.0575178895576869
 30
0.0
  0
VERTEX
  5
16545
  8
0
 10
80.0000000000001137
 20
158.0305627518719973
 30
0.0
  0
SEQEND
  5
16546
  8
0
  0
POLYLINE
  5
1577A
  8
0
 66
     1
 10
0.0
 20
0.0
 30
0.0
  0
VERTEX
  5
16547
  8
0
 10
80.0000000000001137
 20
158.0305627518719973
 30
0.0
  0
VERTEX
  5
16548
  8
0
 10
79.8095155173251101
 20
158.0575302959040869
 30
0.0
  0
VERTEX
  5
16549
  8
0
 10
79.6190117636980546
 20
158.0841882100864098
 30
0.0
  0
VERTEX
  5
1654A
  8
0
 10
79.4284694681667816
 20
158.1102268645691993
 30
0.0
  0
VERTEX
  5
1654B
  8
0
 10
79.2378693597793244
 20
158.1353366295024045
 30
0.0
  0
VERTEX
  5
1654C
  8
0
 10
79.0471921675836029
 20
158.1592078750362873
 30
0.0
  0
VERTEX
  5
1654D
  8
0
 10
78.8564186206274371
 20
158.1815309713211093
 30
0.0
  0
VERTEX
  5
1654E
  8
0
 10
78.6655294479588036
 20
158.2019962885067912
 30
0.0
  0
VERTEX
  5
1654F
  8
0
 10
78.4745053786256932
 20
158.2202941967437937
 30
0.0
  0
VERTEX
  5
16550
  8
0
 10
78.2833280307357313
 20
158.2361293508652125
 30
0.0
  0
VERTEX
  5
16551
  8
0
 10
78.0919978727953321
 20
158.2495092784479027
 30
0.0
  0
VERTEX
  5
16552
  8
0
 10
77.9005333764944794
 20
158.2607307674533104
 30
0.0
  0
VERTEX
  5
16553
  8
0
 10
77.7089537330275562
 20
158.2701021662495009
 30
0.0
  0
VERTEX
  5
16554
  8
0
 10
77.5172781335887606
 20
158.2779318232049093
 30
0.0
  0
VERTEX
  5
16555
  8
0
 10
77.3255257693726179
 20
158.2845280866874873
 30
0.0
  0
VERTEX
  5
16556
  8
0
 10
77.1337158315734541
 20
158.2901993050656131
 30
0.0
  0
VERTEX
  5
16557
  8
0
 10
76.941867511385496
 20
158.29525382670721
 30
0.0
  0
VERTEX
  5
16558
  8
0
 10
76.7500000000032969
 20
158.2999999999807983
 30
0.0
  0
SEQEND
  5
16559
  8
0
  0
POLYLINE
  5
1577B
  8
0
 66
     1
 10
0.0
 20
0.0
 30
0.0
  0
VERTEX
  5
1655A
  8
0
 10
76.7500000000032969
 20
158.299999999980912
 30
0.0
  0
VERTEX
  5
1655B
  8
0
 10
76.5581326752333524
 20
158.2952743913920983
 30
0.0
  0
VERTEX
  5
1655C
  8
0
 10
76.3662845943013053
 20
158.2902389322510999
 30
0.0
  0
VERTEX
  5
1655D
  8
0
 10
76.1744750010450247
 20
158.2845837720057887
 30
0.0
  0
VERTEX
  5
1655E
  8
0
 10
75.9827231393022657
 20
158.2779990601038094
 30
0.0
  0
VERTEX
  5
1655F
  8
0
 10
75.7910482529110254
 20
158.2701749459928919
 30
0.0
  0
VERTEX
  5
16560
  8
0
 10
75.5994695857090733
 20
158.2608015791209084
 30
0.0
  0
VERTEX
  5
16561
  8
0
 10
75.4080063815343351
 20
158.2495691089357024
 30
0.0
  0
VERTEX
  5
16562
  8
0
 10
75.2166778842246231
 20
158.2361676848848901
 30
0.0
  0
VERTEX
  5
16563
  8
0
 10
75.0255024349586392
 20
158.2203019903907091
 30
0.0
  0
VERTEX
  5
16564
  8
0
 10
74.8344794883406053
 20
158.201980807027212
 30
0.0
  0
VERTEX
  5
16565
  8
0
 10
74.6435905986218131
 20
158.1815011350832947
 30
0.0
  0
VERTEX
  5
16566
  8
0
 10
74.4528166148167543
 20
158.1591713300703077
 30
0.0
  0
VERTEX
  5
16567
  8
0
 10
74.2621383859397639
 20
158.1352997474998006
 30
0.0
  0
VERTEX
  5
16568
  8
0
 10
74.0715367610051629
 20
158.1101947428830101
 30
0.0
  0
VERTEX
  5
16569
  8
0
 10
73.8809925890274712
 20
158.0841646717319122
 30
0.0
  0
VERTEX
  5
1656A
  8
0
 10
73.6904867190210098
 20
158.0575178895576869
 30
0.0
  0
VERTEX
  5
1656B
  8
0
 10
73.5000000000001137
 20
158.0305627518719973
 30
0.0
  0
SEQEND
  5
1656C
  8
0
  0
POLYLINE
  5
1577C
  8
0
 66
     1
 10
0.0
 20
0.0
 30
0.0
  0
VERTEX
  5
1656D
  8
0
 10
26.4999999999937508
 20
158.2999999999809972
 30
0.0
  0
VERTEX
  5
1656E
  8
0
 10
26.49999999999471
 20
158.2952743913922973
 30
0.0
  0
VERTEX
  5
1656F
  8
0
 10
26.4999999999956195
 20
158.2902389322514125
 30
0.0
  0
VERTEX
  5
16570
  8
0
 10
26.4999999999964793
 20
158.2845837720059876
 30
0.0
  0
VERTEX
  5
16571
  8
0
 10
26.4999999999973284
 20
158.2779990601038946
 30
0.0
  0
VERTEX
  5
16572
  8
0
 10
26.4999999999981206
 20
158.2701749459930909
 30
0.0
  0
VERTEX
  5
16573
  8
0
 10
26.4999999999988098
 20
158.2608015791211074
 30
0.0
  0
VERTEX
  5
16574
  8
0
 10
26.4999999999994316
 20
158.2495691089357877
 30
0.0
  0
VERTEX
  5
16575
  8
0
 10
26.4999999999999503
 20
158.2361676848850038
 30
0.0
  0
VERTEX
  5
16576
  8
0
 10
26.5000000000002913
 20
158.220301990390908
 30
0.0
  0
VERTEX
  5
16577
  8
0
 10
26.5000000000005116
 20
158.2019808070274109
 30
0.0
  0
VERTEX
  5
16578
  8
0
 10
26.5000000000006786
 20
158.1815011350834936
 30
0.0
  0
VERTEX
  5
16579
  8
0
 10
26.500000000000739
 20
158.1591713300705067
 30
0.0
  0
VERTEX
  5
1657A
  8
0
 10
26.5000000000006786
 20
158.1352997474998858
 30
0.0
  0
VERTEX
  5
1657B
  8
0
 10
26.5000000000006217
 20
158.1101947428832091
 30
0.0
  0
VERTEX
  5
1657C
  8
0
 10
26.5000000000004583
 20
158.0841646717321112
 30
0.0
  0
VERTEX
  5
1657D
  8
0
 10
26.5000000000002913
 20
158.0575178895578858
 30
0.0
  0
VERTEX
  5
1657E
  8
0
 10
26.5000000000001101
 20
158.0305627518721963
 30
0.0
  0
SEQEND
  5
1657F
  8
0
  0
POLYLINE
  5
1577D
  8
0
 66
     1
 10
0.0
 20
0.0
 30
0.0
  0
VERTEX
  5
16580
  8
0
 10
13.5000000000001101
 20
158.0305627518721963
 30
0.0
  0
VERTEX
  5
16581
  8
0
 10
13.4999999999999396
 20
158.0575302959043995
 30
0.0
  0
VERTEX
  5
16582
  8
0
 10
13.4999999999997708
 20
158.0841882100868077
 30
0.0
  0
VERTEX
  5
16583
  8
0
 10
13.4999999999996607
 20
158.1102268645693982
 30
0.0
  0
VERTEX
  5
16584
  8
0
 10
13.4999999999995399
 20
158.1353366295026035
 30
0.0
  0
VERTEX
  5
16585
  8
0
 10
13.4999999999995399
 20
158.159207875036401
 30
0.0
  0
VERTEX
  5
16586
  8
0
 10
13.4999999999996003
 20
158.1815309713213082
 30
0.0
  0
VERTEX
  5
16587
  8
0
 10
13.4999999999997105
 20
158.2019962885069901
 30
0.0
  0
VERTEX
  5
16588
  8
0
 10
13.5
 20
158.2202941967439926
 30
0.0
  0
VERTEX
  5
16589
  8
0
 10
13.5000000000002807
 20
158.2361293508654114
 30
0.0
  0
VERTEX
  5
1658A
  8
0
 10
13.5000000000007905
 20
158.2495092784481017
 30
0.0
  0
VERTEX
  5
1658B
  8
0
 10
13.5000000000013607
 20
158.2607307674535093
 30
0.0
  0
VERTEX
  5
1658C
  8
0
 10
13.5000000000020499
 20
158.2701021662498135
 30
0.0
  0
VERTEX
  5
1658D
  8
0
 10
13.5000000000028404
 20
158.2779318232051082
 30
0.0
  0
VERTEX
  5
1658E
  8
0
 10
13.5000000000036895
 20
158.2845280866876863
 30
0.0
  0
VERTEX
  5
1658F
  8
0
 10
13.5000000000045492
 20
158.290199305065812
 30
0.0
  0
VERTEX
  5
16590
  8
0
 10
13.5000000000054605
 20
158.2952538267074942
 30
0.0
  0
VERTEX
  5
16591
  8
0
 10
13.5000000000064198
 20
158.2999999999809972
 30
0.0
  0
SEQEND
  5
16592
  8
0
  0
POLYLINE
  5
1577E
  8
0
 66
     1
 10
0.0
 20
0.0
 30
0.0
  0
VERTEX
  5
16593
  8
0
 10
26.5000000000001101
 20
158.030562751872111
 30
0.0
  0
VERTEX
  5
16594
  8
0
 10
26.3095155173252806
 20
158.0575302959042858
 30
0.0
  0
VERTEX
  5
16595
  8
0
 10
26.1190117636983814
 20
158.084188210086694
 30
0.0
  0
VERTEX
  5
16596
  8
0
 10
25.9284694681673002
 20
158.1102268645693982
 30
0.0
  0
VERTEX
  5
16597
  8
0
 10
25.7378693597799497
 20
158.1353366295026035
 30
0.0
  0
VERTEX
  5
16598
  8
0
 10
25.5471921675841713
 20
158.159207875036401
 30
0.0
  0
VERTEX
  5
16599
  8
0
 10
25.3564186206280091
 20
158.1815309713211946
 30
0.0
  0
VERTEX
  5
1659A
  8
0
 10
25.1655294479592797
 20
158.2019962885069901
 30
0.0
  0
VERTEX
  5
1659B
  8
0
 10
24.9745053786259099
 20
158.2202941967439074
 30
0.0
  0
VERTEX
  5
1659C
  8
0
 10
24.7833280307355608
 20
158.2361293508654114
 30
0.0
  0
VERTEX
  5
1659D
  8
0
 10
24.591997872794721
 20
158.2495092784481017
 30
0.0
  0
VERTEX
  5
1659E
  8
0
 10
24.4005333764932288
 20
158.2607307674533956
 30
0.0
  0
VERTEX
  5
1659F
  8
0
 10
24.2089537330255702
 20
158.2701021662496998
 30
0.0
  0
VERTEX
  5
165A0
  8
0
 10
24.0172781335860499
 20
158.2779318232051082
 30
0.0
  0
VERTEX
  5
165A1
  8
0
 10
23.825525769369051
 20
158.2845280866876863
 30
0.0
  0
VERTEX
  5
165A2
  8
0
 10
23.6337158315689599
 20
158.290199305065812
 30
0.0
  0
VERTEX
  5
165A3
  8
0
 10
23.44186751138011
 20
158.2952538267074942
 30
0.0
  0
VERTEX
  5
165A4
  8
0
 10
23.2499999999969305
 20
158.2999999999809972
 30
0.0
  0
SEQEND
  5
165A5
  8
0
  0
POLYLINE
  5
1577F
  8
0
 66
     1
 10
0.0
 20
0.0
 30
0.0
  0
VERTEX
  5
165A6
  8
0
 10
23.2499999999969305
 20
158.2999999999809972
 30
0.0
  0
VERTEX
  5
165A7
  8
0
 10
23.0581326752279701
 20
158.2952743913922973
 30
0.0
  0
VERTEX
  5
165A8
  8
0
 10
22.8662845942968183
 20
158.2902389322514125
 30
0.0
  0
VERTEX
  5
165A9
  8
0
 10
22.6744750010414009
 20
158.2845837720059876
 30
0.0
  0
VERTEX
  5
165AA
  8
0
 10
22.4827231392995408
 20
158.2779990601038946
 30
0.0
  0
VERTEX
  5
165AB
  8
0
 10
22.2910482529090395
 20
158.2701749459930909
 30
0.0
  0
VERTEX
  5
165AC
  8
0
 10
22.0994695857078192
 20
158.2608015791211074
 30
0.0
  0
VERTEX
  5
165AD
  8
0
 10
21.9080063815336601
 20
158.2495691089357877
 30
0.0
  0
VERTEX
  5
165AE
  8
0
 10
21.716677884224449
 20
158.2361676848850038
 30
0.0
  0
VERTEX
  5
165AF
  8
0
 10
21.5255024349588098
 20
158.220301990390908
 30
0.0
  0
VERTEX
  5
165B0
  8
0
 10
21.3344794883409996
 20
158.2019808070274109
 30
0.0
  0
VERTEX
  5
165B1
  8
0
 10
21.1435905986223815
 20
158.1815011350834936
 30
0.0
  0
VERTEX
  5
165B2
  8
0
 10
20.9528166148173796
 20
158.1591713300705067
 30
0.0
  0
VERTEX
  5
165B3
  8
0
 10
20.7621383859403217
 20
158.1352997474998858
 30
0.0
  0
VERTEX
  5
165B4
  8
0
 10
20.5715367610056887
 20
158.1101947428832091
 30
0.0
  0
VERTEX
  5
165B5
  8
0
 10
20.3809925890278087
 20
158.0841646717321112
 30
0.0
  0
VERTEX
  5
165B6
  8
0
 10
20.1904867190211803
 20
158.0575178895578858
 30
0.0
  0
VERTEX
  5
165B7
  8
0
 10
20.0000000000001101
 20
158.0305627518721963
 30
0.0
  0
SEQEND
  5
165B8
  8
0
  0
POLYLINE
  5
15780
  8
0
 66
     1
 10
0.0
 20
0.0
 30
0.0
  0
VERTEX
  5
165B9
  8
0
 10
20.0000000000001101
 20
158.0305627518721963
 30
0.0
  0
VERTEX
  5
165BA
  8
0
 10
19.8095155173251101
 20
158.0575302959043995
 30
0.0
  0
VERTEX
  5
165BB
  8
0
 10
19.6190117636980403
 20
158.084188210086694
 30
0.0
  0
VERTEX
  5
165BC
  8
0
 10
19.4284694681667816
 20
158.1102268645693982
 30
0.0
  0
VERTEX
  5
165BD
  8
0
 10
19.2378693597793209
 20
158.1353366295026035
 30
0.0
  0
VERTEX
  5
165BE
  8
0
 10
19.0471921675835993
 20
158.159207875036401
 30
0.0
  0
VERTEX
  5
165BF
  8
0
 10
18.8564186206274407
 20
158.1815309713213082
 30
0.0
  0
VERTEX
  5
165C0
  8
0
 10
18.6655294479588214
 20
158.2019962885069901
 30
0.0
  0
VERTEX
  5
165C1
  8
0
 10
18.474505378625679
 20
158.2202941967439926
 30
0.0
  0
VERTEX
  5
165C2
  8
0
 10
18.2833280307357313
 20
158.2361293508654114
 30
0.0
  0
VERTEX
  5
165C3
  8
0
 10
18.0919978727953286
 20
158.2495092784481017
 30
0.0
  0
VERTEX
  5
165C4
  8
0
 10
17.9005333764944794
 20
158.2607307674535093
 30
0.0
  0
VERTEX
  5
165C5
  8
0
 10
17.7089537330275384
 20
158.2701021662498135
 30
0.0
  0
VERTEX
  5
165C6
  8
0
 10
17.5172781335887713
 20
158.2779318232051082
 30
0.0
  0
VERTEX
  5
165C7
  8
0
 10
17.3255257693726286
 20
158.2845280866876863
 30
0.0
  0
VERTEX
  5
165C8
  8
0
 10
17.1337158315734506
 20
158.290199305065812
 30
0.0
  0
VERTEX
  5
165C9
  8
0
 10
16.9418675113855102
 20
158.2952538267074942
 30
0.0
  0
VERTEX
  5
165CA
  8
0
 10
16.7500000000033005
 20
158.2999999999809972
 30
0.0
  0
SEQEND
  5
165CB
  8
0
  0
POLYLINE
  5
15781
  8
0
 66
     1
 10
0.0
 20
0.0
 30
0.0
  0
VERTEX
  5
165CC
  8
0
 10
16.7500000000033005
 20
158.2999999999809972
 30
0.0
  0
VERTEX
  5
165CD
  8
0
 10
16.5581326752333702
 20
158.2952743913922973
 30
0.0
  0
VERTEX
  5
165CE
  8
0
 10
16.3662845943012982
 20
158.2902389322514125
 30
0.0
  0
VERTEX
  5
165CF
  8
0
 10
16.1744750010450318
 20
158.2845837720059876
 30
0.0
  0
VERTEX
  5
165D0
  8
0
 10
15.9827231393022604
 20
158.2779990601038946
 30
0.0
  0
VERTEX
  5
165D1
  8
0
 10
15.7910482529110201
 20
158.2701749459930909
 30
0.0
  0
VERTEX
  5
165D2
  8
0
 10
15.5994695857090697
 20
158.2608015791211074
 30
0.0
  0
VERTEX
  5
165D3
  8
0
 10
15.4080063815343298
 20
158.2495691089357877
 30
0.0
  0
VERTEX
  5
165D4
  8
0
 10
15.2166778842246195
 20
158.2361676848850891
 30
0.0
  0
VERTEX
  5
165D5
  8
0
 10
15.0255024349586392
 20
158.220301990390908
 30
0.0
  0
VERTEX
  5
165D6
  8
0
 10
14.8344794883405999
 20
158.2019808070274109
 30
0.0
  0
VERTEX
  5
165D7
  8
0
 10
14.6435905986218096
 20
158.1815011350836073
 30
0.0
  0
VERTEX
  5
165D8
  8
0
 10
14.4528166148167507
 20
158.1591713300705067
 30
0.0
  0
VERTEX
  5
165D9
  8
0
 10
14.2621383859397497
 20
158.1352997474999995
 30
0.0
  0
VERTEX
  5
165DA
  8
0
 10
14.0715367610051807
 20
158.1101947428832091
 30
0.0
  0
VERTEX
  5
165DB
  8
0
 10
13.8809925890274695
 20
158.0841646717321112
 30
0.0
  0
VERTEX
  5
165DC
  8
0
 10
13.6904867190210098
 20
158.0575178895578858
 30
0.0
  0
VERTEX
  5
165DD
  8
0
 10
13.5000000000001101
 20
158.0305627518721963
 30
0.0
  0
SEQEND
  5
165DE
  8
0
  0
POLYLINE
  5
15782
  8
0
 66
     1
 10
0.0
 20
0.0
 30
0.0
 70
     1
  0
VERTEX
  5
165DF
  8
0
 10
53.0000000000003268
 20
157.9106762352747921
 30
0.0
  0
VERTEX
  5
165E0
  8
0
 10
53.0001443554456273
 20
157.9185005218814126
 30
0.0
  0
VERTEX
  5
165E1
  8
0
 10
53.0005770277422812
 20
157.926304981908487
 30
0.0
  0
VERTEX
  5
165E2
  8
0
 10
53.0012974258317513
 20
157.9340896386900113
 30
0.0
  0
VERTEX
  5
165E3
  8
0
 10
53.0023049586555288
 20
157.9418545155594131
 30
0.0
  0
VERTEX
  5
165E4
  8
0
 10
53.0035990351549984
 20
157.9495996358508876
 30
0.0
  0
VERTEX
  5
165E5
  8
0
 10
53.0051790642715304
 20
157.9573250228976917
 30
0.0
  0
VERTEX
  5
165E6
  8
0
 10
53.0070444549466515
 20
157.9650307000337932
 30
0.0
  0
VERTEX
  5
165E7
  8
0
 10
53.0091946161217606
 20
157.9727166905927902
 30
0.0
  0
VERTEX
  5
165E8
  8
0
 10
53.0116289567382495
 20
157.9803830179085082
 30
0.0
  0
VERTEX
  5
165E9
  8
0
 10
53.0143468857375382
 20
157.9880297053144886
 30
0.0
  0
VERTEX
  5
165EA
  8
0
 10
53.0173478120610611
 20
157.9956567761446991
 30
0.0
  0
VERTEX
  5
165EB
  8
0
 10
53.0206311446502809
 20
158.0032642537327945
 30
0.0
  0
VERTEX
  5
165EC
  8
0
 10
53.0241962924466179
 20
158.0108521614124015
 30
0.0
  0
VERTEX
  5
165ED
  8
0
 10
53.0280426643914211
 20
158.0184205225172036
 30
0.0
  0
VERTEX
  5
165EE
  8
0
 10
53.0321696694262101
 20
158.0259693603811968
 30
0.0
  0
VERTEX
  5
165EF
  8
0
 10
53.036576716492327
 20
158.033498698337695
 30
0.0
  0
VERTEX
  5
165F0
  8
0
 10
53.0412681558664119
 20
158.0410120009100865
 30
0.0
  0
VERTEX
  5
165F1
  8
0
 10
53.0462482768060113
 20
158.0485115829229983
 30
0.0
  0
VERTEX
  5
165F2
  8
0
 10
53.0515163967240184
 20
158.0559957431626117
 30
0.0
  0
VERTEX
  5
165F3
  8
0
 10
53.0570718330333193
 20
158.0634627804149943
 30
0.0
  0
VERTEX
  5
165F4
  8
0
 10
53.0629139031468
 20
158.0709109934662138
 30
0.0
  0
VERTEX
  5
165F5
  8
0
 10
53.0690419244774034
 20
158.0783386811025935
 30
0.0
  0
VERTEX
  5
165F6
  8
0
 10
53.0754552144380227
 20
158.085744142110201
 30
0.0
  0
VERTEX
  5
165F7
  8
0
 10
53.0821530904414729
 20
158.093125675275104
 30
0.0
  0
VERTEX
  5
165F8
  8
0
 10
53.0891348699006969
 20
158.1004815793835974
 30
0.0
  0
VERTEX
  5
165F9
  8
0
 10
53.0963998702286375
 20
158.1078101532216067
 30
0.0
  0
VERTEX
  5
165FA
  8
0
 10
53.1039474088381667
 20
158.1151096955753985
 30
0.0
  0
VERTEX
  5
165FB
  8
0
 10
53.1117768031421633
 20
158.122378505231211
 30
0.0
  0
VERTEX
  5
165FC
  8
0
 10
53.1198873705534993
 20
158.129614880974998
 30
0.0
  0
VERTEX
  5
165FD
  8
0
 10
53.1282784284851317
 20
158.1368171215929976
 30
0.0
  0
VERTEX
  5
165FE
  8
0
 10
53.1369492943499608
 20
158.143983525871306
 30
0.0
  0
VERTEX
  5
165FF
  8
0
 10
53.1458992855608017
 20
158.1511123925961044
 30
0.0
  0
VERTEX
  5
16600
  8
0
 10
53.1551182007851821
 20
158.1581970511093118
 30
0.0
  0
VERTEX
  5
16601
  8
0
 10
53.1645962954576703
 20
158.1652319282040935
 30
0.0
  0
VERTEX
  5
16602
  8
0
 10
53.1743335721416628
 20
158.1722169688441113
 30
0.0
  0
VERTEX
  5
16603
  8
0
 10
53.184330033400613
 20
158.1791521179922881
 30
0.0
  0
VERTEX
  5
16604
  8
0
 10
53.1945856817978893
 20
158.1860373206120016
 30
0.0
  0
VERTEX
  5
16605
  8
0
 10
53.2051005198969307
 20
158.1928725216666862
 30
0.0
  0
VERTEX
  5
16606
  8
0
 10
53.2158745502612192
 20
158.1996576661194069
 30
0.0
  0
VERTEX
  5
16607
  8
0
 10
53.2269077754540874
 20
158.2063926989337119
 30
0.0
  0
VERTEX
  5
16608
  8
0
 10
53.2382001980390669
 20
158.2130775650726946
 30
0.0
  0
VERTEX
  5
16609
  8
0
 10
53.2497518205794904
 20
158.2197122094997042
 30
0.0
  0
VERTEX
  5
1660A
  8
0
 10
53.2615626456387687
 20
158.2262965771780046
 30
0.0
  0
VERTEX
  5
1660B
  8
0
 10
53.2736326757804477
 20
158.2328306130708029
 30
0.0
  0
VERTEX
  5
1660C
  8
0
 10
53.2859619135679026
 20
158.2393142621417894
 30
0.0
  0
VERTEX
  5
1660D
  8
0
 10
53.2985503615644802
 20
158.2457474693538018
 30
0.0
  0
VERTEX
  5
1660E
  8
0
 10
53.3113980223337194
 20
158.2521301796703028
 30
0.0
  0
VERTEX
  5
1660F
  8
0
 10
53.3245048984389811
 20
158.2584623380546134
 30
0.0
  0
VERTEX
  5
16610
  8
0
 10
53.3378838144931819
 20
158.2647472522857015
 30
0.0
  0
VERTEX
  5
16611
  8
0
 10
53.3515442942218527
 20
158.2709866754636039
 30
0.0
  0
VERTEX
  5
16612
  8
0
 10
53.3654813888576882
 20
158.2771782205329885
 30
0.0
  0
VERTEX
  5
16613
  8
0
 10
53.3796901496330065
 20
158.2833195004388074
 30
0.0
  0
VERTEX
  5
16614
  8
0
 10
53.3941656277803531
 20
158.2894081281255865
 30
0.0
  0
VERTEX
  5
16615
  8
0
 10
53.4089028745323091
 20
158.2954417165381926
 30
0.0
  0
VERTEX
  5
16616
  8
0
 10
53.4238969411213205
 20
158.3014178786212085
 30
0.0
  0
VERTEX
  5
16617
  8
0
 10
53.4391428787799327
 20
158.3073342273195863
 30
0.0
  0
VERTEX
  5
16618
  8
0
 10
53.4546357387405919
 20
158.3131883755779938
 30
0.0
  0
VERTEX
  5
16619
  8
0
 10
53.470370572235872
 20
158.3189779363410139
 30
0.0
  0
VERTEX
  5
1661A
  8
0
 10
53.4863424304982686
 20
158.3247005225535133
 30
0.0
  0
VERTEX
  5
1661B
  8
0
 10
53.502546364760228
 20
158.3303537471603022
 30
0.0
  0
VERTEX
  5
1661C
  8
0
 10
53.5189774262543096
 20
158.3359352231059916
 30
0.0
  0
VERTEX
  5
1661D
  8
0
 10
53.5356306662130095
 20
158.3414425633353915
 30
0.0
  0
VERTEX
  5
1661E
  8
0
 10
53.5525011358688516
 20
158.3468733807931983
 30
0.0
  0
VERTEX
  5
1661F
  8
0
 10
53.5695838864543177
 20
158.3522252884241936
 30
0.0
  0
VERTEX
  5
16620
  8
0
 10
53.5868722346435717
 20
158.3574976546574078
 30
0.0
  0
VERTEX
  5
16621
  8
0
 10
53.6043630117806487
 20
158.3626913127480123
 30
0.0
  0
VERTEX
  5
16622
  8
0
 10
53.6220565411027223
 20
158.3678060728807111
 30
0.0
  0
VERTEX
  5
16623
  8
0
 10
53.6399531458470733
 20
158.3728417452396116
 30
0.0
  0
VERTEX
  5
16624
  8
0
 10
53.6580531492508612
 20
158.3777981400089061
 30
0.0
  0
VERTEX
  5
16625
  8
0
 10
53.6763568745513311
 20
158.3826750673729862
 30
0.0
  0
VERTEX
  5
16626
  8
0
 10
53.6948646449857279
 20
158.3874723375164137
 30
0.0
  0
VERTEX
  5
16627
  8
0
 10
53.713576783791197
 20
158.3921897606230971
 30
0.0
  0
VERTEX
  5
16628
  8
0
 10
53.7324936142050475
 20
158.3968271468777118
 30
0.0
  0
VERTEX
  5
16629
  8
0
 10
53.7516154594644604
 20
158.4013843064643936
 30
0.0
  0
VERTEX
  5
1662A
  8
0
 10
53.7709426428066308
 20
158.4058610495675055
 30
0.0
  0
VERTEX
  5
1662B
  8
0
 10
53.7904754874687683
 20
158.4102571863714104
 30
0.0
  0
VERTEX
  5
1662C
  8
0
 10
53.8102143166881888
 20
158.4145725270603009
 30
0.0
  0
VERTEX
  5
1662D
  8
0
 10
53.8301594537020307
 20
158.4188068818185968
 30
0.0
  0
VERTEX
  5
1662E
  8
0
 10
53.8503112217475106
 20
158.4229600608304906
 30
0.0
  0
VERTEX
  5
1662F
  8
0
 10
53.8706699440618877
 20
158.4270318742804875
 30
0.0
  0
VERTEX
  5
16630
  8
0
 10
53.8912454348652403
 20
158.4310218449666934
 30
0.0
  0
VERTEX
  5
16631
  8
0
 10
53.9120412664822766
 20
158.4349285840733899
 30
0.0
  0
VERTEX
  5
16632
  8
0
 10
53.9330483993069691
 20
158.4387505343644023
 30
0.0
  0
VERTEX
  5
16633
  8
0
 10
53.9542577937333974
 20
158.4424861386029875
 30
0.0
  0
VERTEX
  5
16634
  8
0
 10
53.9972472089674511
 20
158.4496920799776092
 30
0.0
  0
VERTEX
  5
16635
  8
0
 10
54.0409371953366602
 20
158.4565339503064081
 30
0.0
  0
VERTEX
  5
16636
  8
0
 10
54.0852554359931901
 20
158.462999291697713
 30
0.0
  0
VERTEX
  5
16637
  8
0
 10
54.1301296140892916
 20
158.4690756462603076
 30
0.0
  0
VERTEX
  5
16638
  8
0
 10
54.1754874127771586
 20
158.4747505561028049
 30
0.0
  0
VERTEX
  5
16639
  8
0
 10
54.2212565152089994
 20
158.4800115633339885
 30
0.0
  0
VERTEX
  5
1663A
  8
0
 10
54.2674957444009891
 20
158.4848600368910922
 30
0.0
  0
VERTEX
  5
1663B
  8
0
 10
54.3142845156415817
 20
158.4893043445553928
 30
0.0
  0
VERTEX
  5
1663C
  8
0
 10
54.3615814004915592
 20
158.4933425267001041
 30
0.0
  0
VERTEX
  5
1663D
  8
0
 10
54.409344970511647
 20
158.4969726236988095
 30
0.0
  0
VERTEX
  5
1663E
  8
0
 10
54.457533797262613
 20
158.5001926759252058
 30
0.0
  0
VERTEX
  5
1663F
  8
0
 10
54.5061064523052892
 20
158.503000723753189
 30
0.0
  0
VERTEX
  5
16640
  8
0
 10
54.5550215072003581
 20
158.5053948075558026
 30
0.0
  0
VERTEX
  5
16641
  8
0
 10
54.6042375335086305
 20
158.5073729677071981
 30
0.0
  0
VERTEX
  5
16642
  8
0
 10
54.6537131027908529
 20
158.5089332445805894
 30
0.0
  0
VERTEX
  5
16643
  8
0
 10
54.7034067866077933
 20
158.5100736785499009
 30
0.0
  0
VERTEX
  5
16644
  8
0
 10
54.7532771565201983
 20
158.5107923099884033
 30
0.0
  0
VERTEX
  5
16645
  8
0
 10
54.8032827840888785
 20
158.5110871792699925
 30
0.0
  0
VERTEX
  5
16646
  8
0
 10
54.8533822408745593
 20
158.5109563267681096
 30
0.0
  0
VERTEX
  5
16647
  8
0
 10
54.9035340984379516
 20
158.510397792856395
 30
0.0
  0
VERTEX
  5
16648
  8
0
 10
54.9536969283399301
 20
158.5094096179086023
 30
0.0
  0
VERTEX
  5
16649
  8
0
 10
55.0038293021411206
 20
158.5079898422980023
 30
0.0
  0
VERTEX
  5
1664A
  8
0
 10
55.0539984153710904
 20
158.5061368755283979
 30
0.0
  0
VERTEX
  5
1664B
  8
0
 10
55.1042536860102814
 20
158.5038534361424922
 30
0.0
  0
VERTEX
  5
1664C
  8
0
 10
55.1545270192961965
 20
158.501144028073611
 30
0.0
  0
VERTEX
  5
1664D
  8
0
 10
55.2047503204664665
 20
158.4980131552549096
 30
0.0
  0
VERTEX
  5
1664E
  8
0
 10
55.2548554947586581
 20
158.4944653216194865
 30
0.0
  0
VERTEX
  5
1664F
  8
0
 10
55.3047744474103027
 20
158.490505031100696
 30
0.0
  0
VERTEX
  5
16650
  8
0
 10
55.3544390836589102
 20
158.4861367876314091
 30
0.0
  0
VERTEX
  5
16651
  8
0
 10
55.4037813087419906
 20
158.4813650951450938
 30
0.0
  0
VERTEX
  5
16652
  8
0
 10
55.452727593604088
 20
158.4762019504545094
 30
0.0
  0
VERTEX
  5
16653
  8
0
 10
55.5012506956443872
 20
158.4706574097301939
 30
0.0
  0
VERTEX
  5
16654
  8
0
 10
55.5493519497825901
 20
158.4647330659406066
 30
0.0
  0
VERTEX
  5
16655
  8
0
 10
55.5970326909385903
 20
158.4584305120544059
 30
0.0
  0
VERTEX
  5
16656
  8
0
 10
55.6442942540322179
 20
158.4517513410403922
 30
0.0
  0
VERTEX
  5
16657
  8
0
 10
55.6911379739833592
 20
158.4446971458673943
 30
0.0
  0
VERTEX
  5
16658
  8
0
 10
55.7375651857117305
 20
158.4372695195039
 30
0.0
  0
VERTEX
  5
16659
  8
0
 10
55.783577224137268
 20
158.4294700549187951
 30
0.0
  0
VERTEX
  5
1665A
  8
0
 10
55.8291455030256927
 20
158.4213000353913969
 30
0.0
  0
VERTEX
  5
1665B
  8
0
 10
55.8742053122513198
 20
158.412769304774514
 30
0.0
  0
VERTEX
  5
1665C
  8
0
 10
55.9187038008968216
 20
158.4038922968966006
 30
0.0
  0
VERTEX
  5
1665D
  8
0
 10
55.9625881180448914
 20
158.394683445586395
 30
0.0
  0
VERTEX
  5
1665E
  8
0
 10
56.005805412778173
 20
158.3851571846720958
 30
0.0
  0
VERTEX
  5
1665F
  8
0
 10
56.0483028341793172
 20
158.375327947982214
 30
0.0
  0
VERTEX
  5
16660
  8
0
 10
56.0900275313309677
 20
158.3652101693454028
 30
0.0
  0
VERTEX
  5
16661
  8
0
 10
56.1105835924016105
 20
158.3600475873682001
 30
0.0
  0
VERTEX
  5
16662
  8
0
 10
56.1309266533158393
 20
158.3548182825900028
 30
0.0
  0
VERTEX
  5
16663
  8
0
 10
56.1710368226653713
 20
158.344148212313911
 30
0.0
  0
VERTEX
  5
16664
  8
0
 10
56.2104201099797365
 20
158.3331896316429095
 30
0.0
  0
VERTEX
  5
16665
  8
0
 10
56.2490618364453709
 20
158.3219475971968109
 30
0.0
  0
VERTEX
  5
16666
  8
0
 10
56.286947323248512
 20
158.3104271655961952
 30
0.0
  0
VERTEX
  5
16667
  8
0
 10
56.3240618915754112
 20
158.2986333934609036
 30
0.0
  0
VERTEX
  5
16668
  8
0
 10
56.3603908626123413
 20
158.2865713374110896
 30
0.0
  0
VERTEX
  5
16669
  8
0
 10
56.3959195575455325
 20
158.2742460540669924
 30
0.0
  0
VERTEX
  5
1666A
  8
0
 10
56.4133792143439905
 20
158.2679862823532915
 30
0.0
  0
VERTEX
  5
1666B
  8
0
 10
56.4306332975613074
 20
158.2616626000485951
 30
0.0
  0
VERTEX
  5
1666C
  8
0
 10
56.447657094338922
 20
158.2552848200591882
 30
0.0
  0
VERTEX
  5
1666D
  8
0
 10
56.4644276986820728
 20
158.2488624722695931
 30
0.0
  0
VERTEX
  5
1666E
  8
0
 10
56.4809459860351879
 20
158.2423957642245114
 30
0.0
  0
VERTEX
  5
1666F
  8
0
 10
56.4972128318426527
 20
158.2358849034685022
 30
0.0
  0
VERTEX
  5
16670
  8
0
 10
56.5132291115488599
 20
158.2293300975466082
 30
0.0
  0
VERTEX
  5
16671
  8
0
 10
56.5289957005982302
 20
158.2227315540031896
 30
0.0
  0
VERTEX
  5
16672
  8
0
 10
56.5445134744350071
 20
158.2160894803830899
 30
0.0
  0
VERTEX
  5
16673
  8
0
 10
56.5597833085037109
 20
158.2094040842312097
 30
0.0
  0
VERTEX
  5
16674
  8
0
 10
56.5748060782486917
 20
158.2026755730919092
 30
0.0
  0
VERTEX
  5
16675
  8
0
 10
56.589582659114221
 20
158.1959041545102025
 30
0.0
  0
VERTEX
  5
16676
  8
0
 10
56.6041139265448692
 20
158.1890900360307057
 30
0.0
  0
VERTEX
  5
16677
  8
0
 10
56.6184007559848865
 20
158.1822334251980919
 30
0.0
  0
VERTEX
  5
16678
  8
0
 10
56.6324440228787083
 20
158.1753345295570909
 30
0.0
  0
VERTEX
  5
16679
  8
0
 10
56.6462446026706701
 20
158.1683935566524895
 30
0.0
  0
VERTEX
  5
1667A
  8
0
 10
56.6598033708052071
 20
158.1614107140289036
 30
0.0
  0
VERTEX
  5
1667B
  8
0
 10
56.6731212027266906
 20
158.1543862092310917
 30
0.0
  0
VERTEX
  5
1667C
  8
0
 10
56.6862028763951074
 20
158.1473157160976939
 30
0.0
  0
VERTEX
  5
1667D
  8
0
 10
56.6990502465050099
 20
158.1401964121232879
 30
0.0
  0
VERTEX
  5
1667E
  8
0
 10
56.7116598036031974
 20
158.1330307603361121
 30
0.0
  0
VERTEX
  5
1667F
  8
0
 10
56.7240280382362627
 20
158.1258212237646887
 30
0.0
  0
VERTEX
  5
16680
  8
0
 10
56.7361514409508416
 20
158.1185702654375973
 30
0.0
  0
VERTEX
  5
16681
  8
0
 10
56.7480265022935626
 20
158.1112803483829055
 30
0.0
  0
VERTEX
  5
16682
  8
0
 10
56.7596497128110329
 20
158.1039539356291925
 30
0.0
  0
VERTEX
  5
16683
  8
0
 10
56.7710175630500089
 20
158.0965934902046115
 30
0.0
  0
VERTEX
  5
16684
  8
0
 10
56.7821265435569984
 20
158.0892014751381112
 30
0.0
  0
VERTEX
  5
16685
  8
0
 10
56.792973144878772
 20
158.0817803534575035
 30
0.0
  0
VERTEX
  5
16686
  8
0
 10
56.8035538575618304
 20
158.0743325881915098
 30
0.0
  0
VERTEX
  5
16687
  8
0
 10
56.8138651721528731
 20
158.0668606423683968
 30
0.0
  0
VERTEX
  5
16688
  8
0
 10
56.823903579198543
 20
158.0593669790166018
 30
0.0
  0
VERTEX
  5
16689
  8
0
 10
56.8336655692454471
 20
158.0518540611645903
 30
0.0
  0
VERTEX
  5
1668A
  8
0
 10
56.8431476328402709
 20
158.0443243518406007
 30
0.0
  0
VERTEX
  5
1668B
  8
0
 10
56.8523462605295293
 20
158.0367803140732974
 30
0.0
  0
VERTEX
  5
1668C
  8
0
 10
56.8612663700869803
 20
158.0292203515126914
 30
0.0
  0
VERTEX
  5
1668D
  8
0
 10
56.869914809119912
 20
158.0216417270596025
 30
0.0
  0
VERTEX
  5
1668E
  8
0
 10
56.8782909629261297
 20
158.0140451926179992
 30
0.0
  0
VERTEX
  5
1668F
  8
0
 10
56.8863942168032395
 20
158.0064315000919066
 30
0.0
  0
VERTEX
  5
16690
  8
0
 10
56.8942239560488474
 20
157.998801401385208
 30
0.0
  0
VERTEX
  5
16691
  8
0
 10
56.901779565960787
 20
157.9911556484020991
 30
0.0
  0
VERTEX
  5
16692
  8
0
 10
56.9090604318365507
 20
157.9834949930464916
 30
0.0
  0
VERTEX
  5
16693
  8
0
 10
56.9160659389739294
 20
157.9758201872224106
 30
0.0
  0
VERTEX
  5
16694
  8
0
 10
56.9227954726705434
 20
157.9681319828339099
 30
0.0
  0
VERTEX
  5
16695
  8
0
 10
56.9292484182240628
 20
157.960431131784901
 30
0.0
  0
VERTEX
  5
16696
  8
0
 10
56.9354241609320795
 20
157.9527183859794093
 30
0.0
  0
VERTEX
  5
16697
  8
0
 10
56.9413220860924412
 20
157.9449944973214031
 30
0.0
  0
VERTEX
  5
16698
  8
0
 10
56.9469415790026119
 20
157.9372602177151066
 30
0.0
  0
VERTEX
  5
16699
  8
0
 10
56.9522820249604322
 20
157.9295162990642041
 30
0.0
  0
VERTEX
  5
1669A
  8
0
 10
56.9573428092634231
 20
157.921763493273005
 30
0.0
  0
VERTEX
  5
1669B
  8
0
 10
56.9621233172093611
 20
157.9140025522453072
 30
0.0
  0
VERTEX
  5
1669C
  8
0
 10
56.9666229340958807
 20
157.9062342278851077
 30
0.0
  0
VERTEX
  5
1669D
  8
0
 10
56.9708410452205811
 20
157.898459272096602
 30
0.0
  0
VERTEX
  5
1669E
  8
0
 10
56.9747770358812318
 20
157.890678436783702
 30
0.0
  0
VERTEX
  5
1669F
  8
0
 10
56.9784302913754388
 20
157.8828924738502053
 30
0.0
  0
VERTEX
  5
166A0
  8
0
 10
56.9818001970008865
 20
157.8751021352005068
 30
0.0
  0
VERTEX
  5
166A1
  8
0
 10
56.9848861380552876
 20
157.8673081727384044
 30
0.0
  0
VERTEX
  5
166A2
  8
0
 10
56.9876874998362268
 20
157.859511338367895
 30
0.0
  0
VERTEX
  5
166A3
  8
0
 10
56.9902036676413672
 20
157.8517123839930036
 30
0.0
  0
VERTEX
  5
166A4
  8
0
 10
56.9924340267684215
 20
157.8439120615176989
 30
0.0
  0
VERTEX
  5
166A5
  8
0
 10
56.9943779625151024
 20
157.8361111228460913
 30
0.0
  0
VERTEX
  5
166A6
  8
0
 10
56.9960348601789519
 20
157.8283103198820072
 30
0.0
  0
VERTEX
  5
166A7
  8
0
 10
56.9974041050577327
 20
157.8205104045296991
 30
0.0
  0
VERTEX
  5
166A8
  8
0
 10
56.9984850824491218
 20
157.8127121286929935
 30
0.0
  0
VERTEX
  5
166A9
  8
0
 10
56.9992771776507396
 20
157.804916244275887
 30
0.0
  0
VERTEX
  5
166AA
  8
0
 10
56.999779775960242
 20
157.7971235031826041
 30
0.0
  0
VERTEX
  5
166AB
  8
0
 10
56.9999922626753204
 20
157.789334657316914
 30
0.0
  0
VERTEX
  5
166AC
  8
0
 10
56.9999146880370517
 20
157.7815605474098959
 30
0.0
  0
VERTEX
  5
166AD
  8
0
 10
56.9995478808744522
 20
157.7738115341051071
 30
0.0
  0
VERTEX
  5
166AE
  8
0
 10
56.9988923943670898
 20
157.7660876491746933
 30
0.0
  0
VERTEX
  5
166AF
  8
0
 10
56.9979487816945607
 20
157.7583889243911131
 30
0.0
  0
VERTEX
  5
166B0
  8
0
 10
56.9967175960363903
 20
157.7507153915265974
 30
0.0
  0
VERTEX
  5
166B1
  8
0
 10
56.995199390572111
 20
157.7430670823534058
 30
0.0
  0
VERTEX
  5
166B2
  8
0
 10
56.9933947184814116
 20
157.7354440286441104
 30
0.0
  0
VERTEX
  5
166B3
  8
0
 10
56.9913041329436894
 20
157.7278462621708002
 30
0.0
  0
VERTEX
  5
166B4
  8
0
 10
56.9889281871386402
 20
157.7202738147059904
 30
0.0
  0
VERTEX
  5
166B5
  8
0
 10
56.9862674342457893
 20
157.7127267180219121
 30
0.0
  0
VERTEX
  5
166B6
  8
0
 10
56.9833224274446977
 20
157.7052050038907964
 30
0.0
  0
VERTEX
  5
166B7
  8
0
 10
56.9800937199149686
 20
157.697708704085187
 30
0.0
  0
VERTEX
  5
166B8
  8
0
 10
56.9765818648361275
 20
157.6902378503772013
 30
0.0
  0
VERTEX
  5
166B9
  8
0
 10
56.9727874153877565
 20
157.6827924745392977
 30
0.0
  0
VERTEX
  5
166BA
  8
0
 10
56.9687109247494305
 20
157.6753726083439915
 30
0.0
  0
VERTEX
  5
166BB
  8
0
 10
56.9643529461006821
 20
157.6679782835632864
 30
0.0
  0
VERTEX
  5
166BC
  8
0
 10
56.9597091348884774
 20
157.6606059206258124
 30
0.0
  0
VERTEX
  5
166BD
  8
0
 10
56.9547751913005982
 20
157.6532529773413103
 30
0.0
  0
VERTEX
  5
166BE
  8
0
 10
56.9495517356275087
 20
157.6459210415536063
 30
0.0
  0
VERTEX
  5
166BF
  8
0
 10
56.9440393881599221
 20
157.638611701106413
 30
0.0
  0
VERTEX
  5
166C0
  8
0
 10
56.9382387691883807
 20
157.6313265438434996
 30
0.0
  0
VERTEX
  5
166C1
  8
0
 10
56.9321504990035123
 20
157.6240671576088062
 30
0.0
  0
VERTEX
  5
166C2
  8
0
 10
56.9257751978959021
 20
157.6168351302461019
 30
0.0
  0
VERTEX
  5
166C3
  8
0
 10
56.9191134861561494
 20
157.6096320495990994
 30
0.0
  0
VERTEX
  5
166C4
  8
0
 10
56.9121659840749317
 20
157.6024595035117954
 30
0.0
  0
VERTEX
  5
166C5
  8
0
 10
56.9049333119427203
 20
157.5953190798279024
 30
0.0
  0
VERTEX
  5
166C6
  8
0
 10
56.8974160900502284
 20
157.5882123663911898
 30
0.0
  0
VERTEX
  5
166C7
  8
0
 10
56.8896149386880623
 20
157.5811409510455121
 30
0.0
  0
VERTEX
  5
166C8
  8
0
 10
56.8815304781467219
 20
157.5741064216346956
 30
0.0
  0
VERTEX
  5
166C9
  8
0
 10
56.8731633287168776
 20
157.5671103660025949
 30
0.0
  0
VERTEX
  5
166CA
  8
0
 10
56.8645141106891927
 20
157.5601543719928941
 30
0.0
  0
VERTEX
  5
166CB
  8
0
 10
56.855583444354167
 20
157.5532400274495899
 30
0.0
  0
VERTEX
  5
166CC
  8
0
 10
56.8463817023391016
 20
157.5463738578131085
 30
0.0
  0
VERTEX
  5
166CD
  8
0
 10
56.8369188461639965
 20
157.539561293551003
 30
0.0
  0
VERTEX
  5
166CE
  8
0
 10
56.8271948794584887
 20
157.5328022800474059
 30
0.0
  0
VERTEX
  5
166CF
  8
0
 10
56.8172098058523218
 20
157.5260967626863078
 30
0.0
  0
VERTEX
  5
166D0
  8
0
 10
56.8069636289750974
 20
157.5194446868518128
 30
0.0
  0
VERTEX
  5
166D1
  8
0
 10
56.7964563524566302
 20
157.5128459979281104
 30
0.0
  0
VERTEX
  5
166D2
  8
0
 10
56.7856879799265286
 20
157.5063006412991058
 30
0.0
  0
VERTEX
  5
166D3
  8
0
 10
56.7746585150144796
 20
157.4998085623489885
 30
0.0
  0
VERTEX
  5
166D4
  8
0
 10
56.7633679613502409
 20
157.4933697064618912
 30
0.0
  0
VERTEX
  5
166D5
  8
0
 10
56.7518163225633927
 20
157.4869840190218895
 30
0.0
  0
VERTEX
  5
166D6
  8
0
 10
56.7400036022836503
 20
157.4806514454130024
 30
0.0
  0
VERTEX
  5
166D7
  8
0
 10
56.7279298041407927
 20
157.474371931019391
 30
0.0
  0
VERTEX
  5
166D8
  8
0
 10
56.7155949317644215
 20
157.4681454212249889
 30
0.0
  0
VERTEX
  5
166D9
  8
0
 10
56.7029989887841879
 20
157.4619718614140993
 30
0.0
  0
VERTEX
  5
166DA
  8
0
 10
56.6901419788298924
 20
157.4558511969707126
 30
0.0
  0
VERTEX
  5
166DB
  8
0
 10
56.6770239055312004
 20
157.449783373278791
 30
0.0
  0
VERTEX
  5
166DC
  8
0
 10
56.6636318784926374
 20
157.4437651883795013
 30
0.0
  0
VERTEX
  5
166DD
  8
0
 10
56.649956387205691
 20
157.4377949297021075
 30
0.0
  0
VERTEX
  5
166DE
  8
0
 10
56.6360025051300795
 20
157.4318747767136131
 30
0.0
  0
VERTEX
  5
166DF
  8
0
 10
56.6217753057256274
 20
157.4260069088807938
 30
0.0
  0
VERTEX
  5
166E0
  8
0
 10
56.607279862452117
 20
157.4201935056703974
 30
0.0
  0
VERTEX
  5
166E1
  8
0
 10
56.5925212487692804
 20
157.4144367465493133
 30
0.0
  0
VERTEX
  5
166E2
  8
0
 10
56.5775045381369566
 20
157.4087388109842038
 30
0.0
  0
VERTEX
  5
166E3
  8
0
 10
56.5622348040149703
 20
157.4031018784421008
 30
0.0
  0
VERTEX
  5
166E4
  8
0
 10
56.5467171198630467
 20
157.3975281283896948
 30
0.0
  0
VERTEX
  5
166E5
  8
0
 10
56.5309565591409608
 20
157.3920197402939039
 30
0.0
  0
VERTEX
  5
166E6
  8
0
 10
56.5149581953086226
 20
157.3865788936213903
 30
0.0
  0
VERTEX
  5
166E7
  8
0
 10
56.4987271018256791
 20
157.3812077678391859
 30
0.0
  0
VERTEX
  5
166E8
  8
0
 10
56.4822683521519409
 20
157.3759085424138107
 30
0.0
  0
VERTEX
  5
166E9
  8
0
 10
56.465587019747332
 20
157.3706833968124954
 30
0.0
  0
VERTEX
  5
166EA
  8
0
 10
56.4486881780714498
 20
157.3655345105017034
 30
0.0
  0
VERTEX
  5
166EB
  8
0
 10
56.4315769005842185
 20
157.3604640629484095
 30
0.0
  0
VERTEX
  5
166EC
  8
0
 10
56.4142594984075529
 20
157.3554723202209118
 30
0.0
  0
VERTEX
  5
166ED
  8
0
 10
56.3967387024911773
 20
157.3505581337333012
 30
0.0
  0
VERTEX
  5
166EE
  8
0
 10
56.3790142160358982
 20
157.3457215609712136
 30
0.0
  0
VERTEX
  5
166EF
  8
0
 10
56.3610857422427216
 20
157.3409626594198016
 30
0.0
  0
VERTEX
  5
166F0
  8
0
 10
56.3429529843125394
 20
157.3362814865647863
 30
0.0
  0
VERTEX
  5
166F1
  8
0
 10
56.3246156454464426
 20
157.3316780998914908
 30
0.0
  0
VERTEX
  5
166F2
  8
0
 10
56.306073428845238
 20
157.3271525568854088
 30
0.0
  0
VERTEX
  5
166F3
  8
0
 10
56.2873260377099811
 20
157.3227049150318066
 30
0.0
  0
VERTEX
  5
166F4
  8
0
 10
56.2683731752415923
 20
157.3183352318164054
 30
0.0
  0
VERTEX
  5
166F5
  8
0
 10
56.2492145446409992
 20
157.3140435647244999
 30
0.0
  0
VERTEX
  5
166F6
  8
0
 10
56.2298498491092502
 20
157.3098299712414132
 30
0.0
  0
VERTEX
  5
166F7
  8
0
 10
56.2102787918472018
 20
157.3056945088530085
 30
0.0
  0
VERTEX
  5
166F8
  8
0
 10
56.1905010760558383
 20
157.3016372350442964
 30
0.0
  0
VERTEX
  5
166F9
  8
0
 10
56.1705164049361727
 20
157.2976582073009126
 30
0.0
  0
VERTEX
  5
166FA
  8
0
 10
56.150324481689097
 20
157.2937574831082088
 30
0.0
  0
VERTEX
  5
166FB
  8
0
 10
56.1299250095156523
 20
157.2899351199517923
 30
0.0
  0
VERTEX
  5
166FC
  8
0
 10
56.1093097534414298
 20
157.2861917030851941
 30
0.0
  0
VERTEX
  5
166FD
  8
0
 10
56.0884766125477014
 20
157.2825286492609109
 30
0.0
  0
VERTEX
  5
166FE
  8
0
 10
56.0674344911182487
 20
157.2789472632130128
 30
0.0
  0
VERTEX
  5
166FF
  8
0
 10
56.0461922934370023
 20
157.275448849675314
 30
0.0
  0
VERTEX
  5
16700
  8
0
 10
56.0031432864545309
 20
157.2687061590661131
 30
0.0
  0
VERTEX
  5
16701
  8
0
 10
55.9594008258712776
 20
157.2623110153047037
 30
0.0
  0
VERTEX
  5
16702
  8
0
 10
55.915036145958311
 20
157.2562738562619984
 30
0.0
  0
VERTEX
  5
16703
  8
0
 10
55.8701204809866567
 20
157.2506051198095065
 30
0.0
  0
VERTEX
  5
16704
  8
0
 10
55.8247250652273124
 20
157.2453152438181974
 30
0.0
  0
VERTEX
  5
16705
  8
0
 10
55.7789211329513819
 20
157.2404146661594098
 30
0.0
  0
VERTEX
  5
16706
  8
0
 10
55.7326495468644794
 20
157.2359006936817991
 30
0.0
  0
VERTEX
  5
16707
  8
0
 10
55.6858311444374792
 20
157.2317647072736122
 30
0.0
  0
VERTEX
  5
16708
  8
0
 10
55.6385071220887397
 20
157.2280082558652907
 30
0.0
  0
VERTEX
  5
16709
  8
0
 10
55.590718676236861
 20
157.224632888387589
 30
0.0
  0
VERTEX
  5
1670A
  8
0
 10
55.5425070033002228
 20
157.2216401537710055
 30
0.0
  0
VERTEX
  5
1670B
  8
0
 10
55.4939132996972191
 20
157.2190316009462094
 30
0.0
  0
VERTEX
  5
1670C
  8
0
 10
55.4449787618464711
 20
157.2168087788436992
 30
0.0
  0
VERTEX
  5
1670D
  8
0
 10
55.3957445861663018
 20
157.2149732363940871
 30
0.0
  0
VERTEX
  5
1670E
  8
0
 10
55.3462519690752401
 20
157.2135265225280989
 30
0.0
  0
VERTEX
  5
1670F
  8
0
 10
55.2965421069917511
 20
157.2124701861760059
 30
0.0
  0
VERTEX
  5
16710
  8
0
 10
55.2466561963342428
 20
157.2118057762687897
 30
0.0
  0
VERTEX
  5
16711
  8
0
 10
55.196635433521287
 20
157.2115348417368068
 30
0.0
  0
VERTEX
  5
16712
  8
0
 10
55.1465210149711922
 20
157.2116589315106125
 30
0.0
  0
VERTEX
  5
16713
  8
0
 10
55.0963541371026011
 20
157.2121795945207907
 30
0.0
  0
VERTEX
  5
16714
  8
0
 10
55.0461759963338295
 20
157.2130983796982093
 30
0.0
  0
VERTEX
  5
16715
  8
0
 10
54.9960277890834774
 20
157.2144168359731964
 30
0.0
  0
VERTEX
  5
16716
  8
0
 10
54.945838860871099
 20
157.2161370797549012
 30
0.0
  0
VERTEX
  5
16717
  8
0
 10
54.8955577361698417
 20
157.2182576305283987
 30
0.0
  0
VERTEX
  5
16718
  8
0
 10
54.8452543798279066
 20
157.2207746418382897
 30
0.0
  0
VERTEX
  5
16719
  8
0
 10
54.7949987566936514
 20
157.2236842672294017
 30
0.0
  0
VERTEX
  5
1671A
  8
0
 10
54.744860831615263
 20
157.226982660246108
 30
0.0
  0
VERTEX
  5
1671B
  8
0
 10
54.6949105694411131
 20
157.230665974433208
 30
0.0
  0
VERTEX
  5
1671C
  8
0
 10
54.6452179350194385
 20
157.2347303633351032
 30
0.0
  0
VERTEX
  5
1671D
  8
0
 10
54.5958528931985825
 20
157.2391719804965931
 30
0.0
  0
VERTEX
  5
1671E
  8
0
 10
54.5468830629219426
 20
157.2439806766637957
 30
0.0
  0
VERTEX
  5
1671F
  8
0
 10
54.4983287462270596
 20
157.2491485027815941
 30
0.0
  0
VERTEX
  5
16720
  8
0
 10
54.4501889326027211
 20
157.2546749126927921
 30
0.0
  0
VERTEX
  5
16721
  8
0
 10
54.4024626115377572
 20
157.2605593602405918
 30
0.0
  0
VERTEX
  5
16722
  8
0
 10
54.3551487725210905
 20
157.266801299267712
 30
0.0
  0
VERTEX
  5
16723
  8
0
 10
54.3082464050416291
 20
157.2734001836170137
 30
0.0
  0
VERTEX
  5
16724
  8
0
 10
54.2617544985881679
 20
157.2803554671313009
 30
0.0
  0
VERTEX
  5
16725
  8
0
 10
54.2156720426496577
 20
157.287666603653804
 30
0.0
  0
VERTEX
  5
16726
  8
0
 10
54.1700298660861108
 20
157.2953331970547026
 30
0.0
  0
VERTEX
  5
16727
  8
0
 10
54.124894934715428
 20
157.3033468257085019
 30
0.0
  0
VERTEX
  5
16728
  8
0
 10
54.0803204434634495
 20
157.311694905212903
 30
0.0
  0
VERTEX
  5
16729
  8
0
 10
54.0363595872557809
 20
157.3203648511664881
 30
0.0
  0
VERTEX
  5
1672A
  8
0
 10
53.9930655610182271
 20
157.329344079167214
 30
0.0
  0
VERTEX
  5
1672B
  8
0
 10
53.9504915596764434
 20
157.3386200048134071
 30
0.0
  0
VERTEX
  5
1672C
  8
0
 10
53.9086907781561493
 20
157.3481800437033939
 30
0.0
  0
VERTEX
  5
1672D
  8
0
 10
53.8880969682432891
 20
157.3530626729890116
 30
0.0
  0
VERTEX
  5
1672E
  8
0
 10
53.8677164113830074
 20
157.3580116114351029
 30
0.0
  0
VERTEX
  5
1672F
  8
0
 10
53.8275315215103092
 20
157.3681197275031138
 30
0.0
  0
VERTEX
  5
16730
  8
0
 10
53.7880739624955524
 20
157.3785152394414126
 30
0.0
  0
VERTEX
  5
16731
  8
0
 10
53.7493591169712204
 20
157.3891943049081021
 30
0.0
  0
VERTEX
  5
16732
  8
0
 10
53.7114023675697467
 20
157.4001530815606884
 30
0.0
  0
VERTEX
  5
16733
  8
0
 10
53.6742190969236503
 20
157.4113877270573028
 30
0.0
  0
VERTEX
  5
16734
  8
0
 10
53.6378246876652724
 20
157.4228943990555081
 30
0.0
  0
VERTEX
  5
16735
  8
0
 10
53.6022345224271888
 20
157.4346692552132936
 30
0.0
  0
VERTEX
  5
16736
  8
0
 10
53.5847458383884074
 20
157.4406560516202092
 30
0.0
  0
VERTEX
  5
16737
  8
0
 10
53.5674639838417832
 20
157.4467084531885064
 30
0.0
  0
VERTEX
  5
16738
  8
0
 10
53.5504139542408026
 20
157.4528171069104019
 30
0.0
  0
VERTEX
  5
16739
  8
0
 10
53.5336188833459872
 20
157.4589729078332141
 30
0.0
  0
VERTEX
  5
1673A
  8
0
 10
53.5170779014471094
 20
157.4651757477475087
 30
0.0
  0
VERTEX
  5
1673B
  8
0
 10
53.5007901388339135
 20
157.4714255184437945
 30
0.0
  0
VERTEX
  5
1673C
  8
0
 10
53.4847547257961509
 20
157.47772211171241
 30
0.0
  0
VERTEX
  5
1673D
  8
0
 10
53.4689707926236224
 20
157.484065419343807
 30
0.0
  0
VERTEX
  5
1673E
  8
0
 10
53.453437469606051
 20
157.4904553331286081
 30
0.0
  0
VERTEX
  5
1673F
  8
0
 10
53.438153887033252
 20
157.4968917448574075
 30
0.0
  0
VERTEX
  5
16740
  8
0
 10
53.4231191751949126
 20
157.5033745463204014
 30
0.0
  0
VERTEX
  5
16741
  8
0
 10
53.4083324643808623
 20
157.5099036293082122
 30
0.0
  0
VERTEX
  5
16742
  8
0
 10
53.393792884880888
 20
157.5164788856114058
 30
0.0
  0
VERTEX
  5
16743
  8
0
 10
53.3794995669846273
 20
157.5231002070202067
 30
0.0
  0
VERTEX
  5
16744
  8
0
 10
53.3654516409820303
 20
157.5297674853252943
 30
0.0
  0
VERTEX
  5
16745
  8
0
 10
53.3516482371626921
 20
157.5364806123172059
 30
0.0
  0
VERTEX
  5
16746
  8
0
 10
53.3380884858164706
 20
157.5432394797861946
 30
0.0
  0
VERTEX
  5
16747
  8
0
 10
53.3247715172331027
 20
157.5500439795229113
 30
0.0
  0
VERTEX
  5
16748
  8
0
 10
53.3116926404019296
 20
157.5568984719917012
 30
0.0
  0
VERTEX
  5
16749
  8
0
 10
53.2988500955498097
 20
157.5638058123849987
 30
0.0
  0
VERTEX
  5
1674A
  8
0
 10
53.2862474098230905
 20
157.5707636345850915
 30
0.0
  0
VERTEX
  5
1674B
  8
0
 10
53.2738881103677926
 20
157.5777695724746081
 30
0.0
  0
VERTEX
  5
1674C
  8
0
 10
53.2617757243302776
 20
157.5848212599356941
 30
0.0
  0
VERTEX
  5
1674D
  8
0
 10
53.2499137788565733
 20
157.5919163308510065
 30
0.0
  0
VERTEX
  5
1674E
  8
0
 10
53.2383058010929133
 20
157.5990524191028896
 30
0.0
  0
VERTEX
  5
1674F
  8
0
 10
53.2269553181855599
 20
157.6062271585738017
 30
0.0
  0
VERTEX
  5
16750
  8
0
 10
53.2158658572806118
 20
157.6134381831460871
 30
0.0
  0
VERTEX
  5
16751
  8
0
 10
53.2050409455243312
 20
157.6206831267022892
 30
0.0
  0
VERTEX
  5
16752
  8
0
 10
53.194484110062831
 20
157.6279596231248092
 30
0.0
  0
VERTEX
  5
16753
  8
0
 10
53.184198878042352
 20
157.6352653062959064
 30
0.0
  0
VERTEX
  5
16754
  8
0
 10
53.1741887766091068
 20
157.6425978100982093
 30
0.0
  0
VERTEX
  5
16755
  8
0
 10
53.164457332909187
 20
157.6499547684140907
 30
0.0
  0
VERTEX
  5
16756
  8
0
 10
53.1550080740888689
 20
157.6573338151258952
 30
0.0
  0
VERTEX
  5
16757
  8
0
 10
53.1458445272942868
 20
157.6647325841161091
 30
0.0
  0
VERTEX
  5
16758
  8
0
 10
53.1369643226331618
 20
157.6721498939193111
 30
0.0
  0
VERTEX
  5
16759
  8
0
 10
53.1283625873594474
 20
157.6795861467693101
 30
0.0
  0
VERTEX
  5
1675A
  8
0
 10
53.120039094338722
 20
157.6870413520973955
 30
0.0
  0
VERTEX
  5
1675B
  8
0
 10
53.1119936164365072
 20
157.6945155193351127
 30
0.0
  0
VERTEX
  5
1675C
  8
0
 10
53.1042259265184384
 20
157.7020086579136091
 30
0.0
  0
VERTEX
  5
1675D
  8
0
 10
53.0967357974500871
 20
157.7095207772646006
 30
0.0
  0
VERTEX
  5
1675E
  8
0
 10
53.0895230020970388
 20
157.7170518868192062
 30
0.0
  0
VERTEX
  5
1675F
  8
0
 10
53.0825873133249004
 20
157.7246019960088006
 30
0.0
  0
VERTEX
  5
16760
  8
0
 10
53.0759285039991866
 20
157.7321711142649008
 30
0.0
  0
VERTEX
  5
16761
  8
0
 10
53.0695463469854829
 20
157.7397592510187962
 30
0.0
  0
VERTEX
  5
16762
  8
0
 10
53.0634406151494318
 20
157.7473664157018902
 30
0.0
  0
VERTEX
  5
16763
  8
0
 10
53.0576110813565904
 20
157.7549926177455859
 30
0.0
  0
VERTEX
  5
16764
  8
0
 10
53.0520575184725089
 20
157.7626378665812865
 30
0.0
  0
VERTEX
  5
16765
  8
0
 10
53.04677969936278
 20
157.7703021716401963
 30
0.0
  0
VERTEX
  5
16766
  8
0
 10
53.0417773968930035
 20
157.7779855423538891
 30
0.0
  0
VERTEX
  5
16767
  8
0
 10
53.0370503839287721
 20
157.7856879881537111
 30
0.0
  0
VERTEX
  5
16768
  8
0
 10
53.0326005998019312
 20
157.7934107422742045
 30
0.0
  0
VERTEX
  5
16769
  8
0
 10
53.0284307892372908
 20
157.8011538232761097
 30
0.0
  0
VERTEX
  5
1676A
  8
0
 10
53.0245419331894681
 20
157.8089154185798009
 30
0.0
  0
VERTEX
  5
1676B
  8
0
 10
53.020935012613208
 20
157.8166937156055951
 30
0.0
  0
VERTEX
  5
1676C
  8
0
 10
53.0176110084633407
 20
157.8244869017740939
 30
0.0
  0
VERTEX
  5
1676D
  8
0
 10
53.0145709016943982
 20
157.832293164505586
 30
0.0
  0
VERTEX
  5
1676E
  8
0
 10
53.0118156732613102
 20
157.8401106912205023
 30
0.0
  0
VERTEX
  5
1676F
  8
0
 10
53.0093463041185871
 20
157.8479376693391885
 30
0.0
  0
VERTEX
  5
16770
  8
0
 10
53.0071637752211018
 20
157.855772286282189
 30
0.0
  0
VERTEX
  5
16771
  8
0
 10
53.0052690675234928
 20
157.8636127294697076
 30
0.0
  0
VERTEX
  5
16772
  8
0
 10
53.0036631619805121
 20
157.8714571863222886
 30
0.0
  0
VERTEX
  5
16773
  8
0
 10
53.0023470395469189
 20
157.8793038442603915
 30
0.0
  0
VERTEX
  5
16774
  8
0
 10
53.0013216811773304
 20
157.8871508907041914
 30
0.0
  0
VERTEX
  5
16775
  8
0
 10
53.0005880678265697
 20
157.8949965130742896
 30
0.0
  0
VERTEX
  5
16776
  8
0
 10
53.0001471804493391
 20
157.9028388987910034
 30
0.0
  0
VERTEX
  5
16777
  8
0
 10
53.0000000000003268
 20
157.9106762352747921
 30
0.0
  0
SEQEND
  5
16778
  8
0
  0
POLYLINE
  5
15783
  8
0
 66
     1
 10
0.0
 20
0.0
 30
0.0
  0
VERTEX
  5
16779
  8
0
 10
88.2940946446676236
 20
157.9674196848197028
 30
0.0
  0
VERTEX
  5
1677A
  8
0
 10
88.4902118523937844
 20
157.933362106064493
 30
0.0
  0
VERTEX
  5
1677B
  8
0
 10
88.6831921571501312
 20
157.9015476973611101
 30
0.0
  0
VERTEX
  5
1677C
  8
0
 10
88.8730197592354756
 20
157.8719758693638084
 30
0.0
  0
VERTEX
  5
1677D
  8
0
 10
89.0596788589487147
 20
157.8446460327268142
 30
0.0
  0
VERTEX
  5
1677E
  8
0
 10
89.2431536565886745
 20
157.8195575981044101
 30
0.0
  0
VERTEX
  5
1677F
  8
0
 10
89.423428352454394
 20
157.7967099761507939
 30
0.0
  0
VERTEX
  5
16780
  8
0
 10
89.600487146844614
 20
157.7761025775203052
 30
0.0
  0
VERTEX
  5
16781
  8
0
 10
89.7743142400582741
 20
157.7577348128671133
 30
0.0
  0
VERTEX
  5
16782
  8
0
 10
89.943667453019998
 20
157.7417281898237036
 30
0.0
  0
VERTEX
  5
16783
  8
0
 10
90.1073100778114622
 20
157.7282046736972916
 30
0.0
  0
VERTEX
  5
16784
  8
0
 10
90.2652345214676046
 20
157.7171643616545111
 30
0.0
  0
VERTEX
  5
16785
  8
0
 10
90.4174331910234628
 20
157.7086073508617972
 30
0.0
  0
VERTEX
  5
16786
  8
0
 10
90.5638984935138751
 20
157.702533738485414
 30
0.0
  0
VERTEX
  5
16787
  8
0
 10
90.7046228359736801
 20
157.6989436216921092
 30
0.0
  0
VERTEX
  5
16788
  8
0
 10
90.8395986254379153
 20
157.6978370976480051
 30
0.0
  0
VERTEX
  5
16789
  8
0
 10
90.9688182689413622
 20
157.6992142635197922
 30
0.0
  0
VERTEX
  5
1678A
  8
0
 10
91.0310422837301587
 20
157.7008306260813129
 30
0.0
  0
VERTEX
  5
1678B
  8
0
 10
91.0913756121737634
 20
157.7030604482085892
 30
0.0
  0
VERTEX
  5
1678C
  8
0
 10
91.149818739690474
 20
157.705903396393694
 30
0.0
  0
VERTEX
  5
1678D
  8
0
 10
91.2063721516988011
 20
157.7093591371287005
 30
0.0
  0
VERTEX
  5
1678E
  8
0
 10
91.261036333616957
 20
157.7134273369057098
 30
0.0
  0
VERTEX
  5
1678F
  8
0
 10
91.3138117708632819
 20
157.7181076622165961
 30
0.0
  0
VERTEX
  5
16790
  8
0
 10
91.3646989488561729
 20
157.7233997795536879
 30
0.0
  0
VERTEX
  5
16791
  8
0
 10
91.413698353013956
 20
157.7293033554090016
 30
0.0
  0
VERTEX
  5
16792
  8
0
 10
91.4608104687549144
 20
157.735818056274411
 30
0.0
  0
VERTEX
  5
16793
  8
0
 10
91.5060357814973884
 20
157.742943548642188
 30
0.0
  0
VERTEX
  5
16794
  8
0
 10
91.5493747766598034
 20
157.750679499004292
 30
0.0
  0
VERTEX
  5
16795
  8
0
 10
91.5908279396604144
 20
157.7590255738527958
 30
0.0
  0
VERTEX
  5
16796
  8
0
 10
91.6303957559175615
 20
157.7679814396796871
 30
0.0
  0
VERTEX
  5
16797
  8
0
 10
91.6680787108495565
 20
157.7775467629772095
 30
0.0
  0
VERTEX
  5
16798
  8
0
 10
91.7038772898747965
 20
157.7877212102372937
 30
0.0
  0
VERTEX
  5
16799
  8
0
 10
91.7377919784115363
 20
157.7985044479520127
 30
0.0
  0
VERTEX
  5
1679A
  8
0
 10
91.7697167897759414
 20
157.8098586777472008
 30
0.0
  0
VERTEX
  5
1679B
  8
0
 10
91.7995484902715191
 20
157.8217464803294092
 30
0.0
  0
VERTEX
  5
1679C
  8
0
 10
91.8272916947985465
 20
157.8341680908121134
 30
0.0
  0
VERTEX
  5
1679D
  8
0
 10
91.8529510182567748
 20
157.8471237443083055
 30
0.0
  0
VERTEX
  5
1679E
  8
0
 10
91.8765310755464242
 20
157.860613675931404
 30
0.0
  0
VERTEX
  5
1679F
  8
0
 10
91.898036481567317
 20
157.8746381207947138
 30
0.0
  0
VERTEX
  5
167A0
  8
0
 10
91.9174718512195881
 20
157.8891973140115113
 30
0.0
  0
VERTEX
  5
167A1
  8
0
 10
91.9348417994031735
 20
157.9042914906951012
 30
0.0
  0
VERTEX
  5
167A2
  8
0
 10
91.9501509410180802
 20
157.9199208859587031
 30
0.0
  0
VERTEX
  5
167A3
  8
0
 10
91.9634038909643436
 20
157.9360857349155935
 30
0.0
  0
VERTEX
  5
167A4
  8
0
 10
91.9746052641419283
 20
157.9527862726791909
 30
0.0
  0
VERTEX
  5
167A5
  8
0
 10
91.9837596754507985
 20
157.9700227343626011
 30
0.0
  0
VERTEX
  5
167A6
  8
0
 10
91.990871739791146
 20
157.9877953550791858
 30
0.0
  0
VERTEX
  5
167A7
  8
0
 10
91.995946072062722
 20
158.0061043699423067
 30
0.0
  0
VERTEX
  5
167A8
  8
0
 10
91.9989872871657468
 20
158.0249500140652117
 30
0.0
  0
VERTEX
  5
167A9
  8
0
 10
92.0000000000001279
 20
158.0443325225610067
 30
0.0
  0
SEQEND
  5
167AA
  8
0
  0
POLYLINE
  5
15784
  8
0
 66
     1
 10
0.0
 20
0.0
 30
0.0
  0
VERTEX
  5
167AB
  8
0
 10
11.7059047744876299
 20
157.9674195814523046
 30
0.0
  0
VERTEX
  5
167AC
  8
0
 10
11.5097875939537104
 20
157.9333620119267891
 30
0.0
  0
VERTEX
  5
167AD
  8
0
 10
11.31680733634715
 20
157.9015476147513937
 30
0.0
  0
VERTEX
  5
167AE
  8
0
 10
11.1269797945540105
 20
157.8719757996254032
 30
0.0
  0
VERTEX
  5
167AF
  8
0
 10
10.9403207614603204
 20
157.8446459762486995
 30
0.0
  0
VERTEX
  5
167B0
  8
0
 10
10.7568460299520403
 20
157.8195575543205109
 30
0.0
  0
VERTEX
  5
167B1
  8
0
 10
10.5765713929151293
 20
157.7967099435406055
 30
0.0
  0
VERTEX
  5
167B2
  8
0
 10
10.3995126432356493
 20
157.7761025536082968
 30
0.0
  0
VERTEX
  5
167B3
  8
0
 10
10.2256855737995807
 20
157.7577347942232961
 30
0.0
  0
VERTEX
  5
167B4
  8
0
 10
10.0563323721114504
 20
157.7417281743616115
 30
0.0
  0
VERTEX
  5
167B5
  8
0
 10
9.8926897590188201
 20
157.7282046612926081
 30
0.0
  0
VERTEX
  5
167B6
  8
0
 10
9.7347653274220516
 20
157.7171643521558053
 30
0.0
  0
VERTEX
  5
167B7
  8
0
 10
9.5825666702216932
 20
157.7086073440906091
 30
0.0
  0
VERTEX
  5
167B8
  8
0
 10
9.4361013803181208
 20
157.7025337342367948
 30
0.0
  0
VERTEX
  5
167B9
  8
0
 10
9.2953770506118154
 20
157.6989436197335976
 30
0.0
  0
VERTEX
  5
167BA
  8
0
 10
9.1604012740032772
 20
157.6978370977205941
 30
0.0
  0
VERTEX
  5
167BB
  8
0
 10
9.0311816433928662
 20
157.699214265337389
 30
0.0
  0
VERTEX
  5
167BC
  8
0
 10
8.9689576348907831
 20
157.7008306286543871
 30
0.0
  0
VERTEX
  5
167BD
  8
0
 10
8.9086243124216935
 20
157.7030604514579011
 30
0.0
  0
VERTEX
  5
167BE
  8
0
 10
8.8501811905747445
 20
157.7059034002444093
 30
0.0
  0
VERTEX
  5
167BF
  8
0
 10
8.7936277839389145
 20
157.7093591415105891
 30
0.0
  0
VERTEX
  5
167C0
  8
0
 10
8.7389636071033561
 20
157.7134273417524923
 30
0.0
  0
VERTEX
  5
167C1
  8
0
 10
8.6861881746571612
 20
157.7181076674669953
 30
0.0
  0
VERTEX
  5
167C2
  8
0
 10
8.6353010011893616
 20
157.7233997851500931
 30
0.0
  0
VERTEX
  5
167C3
  8
0
 10
8.586301601289108
 20
157.7293033612984914
 30
0.0
  0
VERTEX
  5
167C4
  8
0
 10
8.5391894895454357
 20
157.7358180624086117
 30
0.0
  0
VERTEX
  5
167C5
  8
0
 10
8.4939641805473798
 20
157.7429435549767049
 30
0.0
  0
VERTEX
  5
167C6
  8
0
 10
8.4506251888841462
 20
157.7506795054993916
 30
0.0
  0
VERTEX
  5
167C7
  8
0
 10
8.4091720291446563
 20
157.7590255804730077
 30
0.0
  0
VERTEX
  5
167C8
  8
0
 10
8.3696042159181712
 20
157.7679814463940886
 30
0.0
  0
VERTEX
  5
167C9
  8
0
 10
8.3319212637936175
 20
157.7775467697589988
 30
0.0
  0
VERTEX
  5
167CA
  8
0
 10
8.296122687360139
 20
157.787721217064103
 30
0.0
  0
VERTEX
  5
167CB
  8
0
 10
8.2622080012067691
 20
157.7985044548059932
 30
0.0
  0
VERTEX
  5
167CC
  8
0
 10
8.2302831920769126
 20
157.8098586845970885
 30
0.0
  0
VERTEX
  5
167CD
  8
0
 10
8.2004514937166846
 20
157.8217464871266884
 30
0.0
  0
VERTEX
  5
167CE
  8
0
 10
8.1727082912199176
 20
157.834168097506506
 30
0.0
  0
VERTEX
  5
167CF
  8
0
 10
8.1470489696803838
 20
157.8471237508479135
 30
0.0
  0
VERTEX
  5
167D0
  8
0
 10
8.1234689141918466
 20
157.8606136822625103
 30
0.0
  0
VERTEX
  5
167D1
  8
0
 10
8.1019635098480762
 20
157.8746381268620098
 30
0.0
  0
VERTEX
  5
167D2
  8
0
 10
8.0825281417428414
 20
157.8891973197576988
 30
0.0
  0
VERTEX
  5
167D3
  8
0
 10
8.0651581949698539
 20
157.9042914960612904
 30
0.0
  0
VERTEX
  5
167D4
  8
0
 10
8.0498490546229391
 20
157.9199208908844128
 30
0.0
  0
VERTEX
  5
167D5
  8
0
 10
8.0365961057958657
 20
157.9360857393384094
 30
0.0
  0
VERTEX
  5
167D6
  8
0
 10
8.0253947335823455
 20
157.9527862765351074
 30
0.0
  0
VERTEX
  5
167D7
  8
0
 10
8.0162403230761452
 20
157.9700227375857935
 30
0.0
  0
VERTEX
  5
167D8
  8
0
 10
8.0091282593710922
 20
157.9877953576022094
 30
0.0
  0
VERTEX
  5
167D9
  8
0
 10
8.0040539275609017
 20
158.0061043716958125
 30
0.0
  0
VERTEX
  5
167DA
  8
0
 10
8.0010127127393371
 20
158.0249500149782875
 30
0.0
  0
VERTEX
  5
167DB
  8
0
 10
8.0000000000001137
 20
158.0443325225610067
 30
0.0
  0
SEQEND
  5
167DC
  8
0
  0
POLYLINE
  5
15785
  8
0
 66
     1
 10
0.0
 20
0.0
 30
0.0
  0
VERTEX
  5
167DD
  8
0
 10
13.7482126371049809
 20
158.2999999999829015
 30
0.0
  0
VERTEX
  5
167DE
  8
0
 10
14.3270103613862698
 20
158.3980841496351104
 30
0.0
  0
VERTEX
  5
167DF
  8
0
 10
14.9058770846790392
 20
158.4956611282408119
 30
0.0
  0
VERTEX
  5
167E0
  8
0
 10
15.48488180599497
 20
158.5922237647538964
 30
0.0
  0
VERTEX
  5
167E1
  8
0
 10
16.0640935243454699
 20
158.6872648881276859
 30
0.0
  0
VERTEX
  5
167E2
  8
0
 10
16.6435812387422288
 20
158.7802773273159005
 30
0.0
  0
VERTEX
  5
167E3
  8
0
 10
17.2234139481966508
 20
158.8707539112722031
 30
0.0
  0
VERTEX
  5
167E4
  8
0
 10
17.8036602863606888
 20
158.9581901544933942
 30
0.0
  0
VERTEX
  5
167E5
  8
0
 10
18.3843515566151687
 20
159.0423559642865996
 30
0.0
  0
VERTEX
  5
167E6
  8
0
 10
18.9654499945285089
 20
159.123528924719011
 30
0.0
  0
VERTEX
  5
167E7
  8
0
 10
19.54691035924969
 20
159.2020415746088133
 30
0.0
  0
VERTEX
  5
167E8
  8
0
 10
20.1286874099278101
 20
159.2782264527735094
 30
0.0
  0
VERTEX
  5
167E9
  8
0
 10
20.7107359057117684
 20
159.352416098031199
 30
0.0
  0
VERTEX
  5
167EA
  8
0
 10
21.2930106057506308
 20
159.4249430491996122
 30
0.0
  0
VERTEX
  5
167EB
  8
0
 10
21.8754662691934492
 20
159.4961398450965078
 30
0.0
  0
VERTEX
  5
167EC
  8
0
 10
22.4580576551891795
 20
159.5663390245400137
 30
0.0
  0
VERTEX
  5
167ED
  8
0
 10
23.0407395228869483
 20
159.6358731263476898
 30
0.0
  0
VERTEX
  5
167EE
  8
0
 10
23.6234666314356296
 20
159.7050746893374935
 30
0.0
  0
SEQEND
  5
167EF
  8
0
  0
POLYLINE
  5
15786
  8
0
 66
     1
 10
0.0
 20
0.0
 30
0.0
  0
VERTEX
  5
167F0
  8
0
 10
23.62346663143569
 20
159.7050746893376072
 30
0.0
  0
VERTEX
  5
167F1
  8
0
 10
23.7574133492403803
 20
159.7195594941366892
 30
0.0
  0
VERTEX
  5
167F2
  8
0
 10
23.8908262055725196
 20
159.7334869975796039
 30
0.0
  0
VERTEX
  5
167F3
  8
0
 10
24.0237053415655701
 20
159.7468565103118863
 30
0.0
  0
VERTEX
  5
167F4
  8
0
 10
24.1560508983528202
 20
159.7596673429792986
 30
0.0
  0
VERTEX
  5
167F5
  8
0
 10
24.2878630170676502
 20
159.7719188062276885
 30
0.0
  0
VERTEX
  5
167F6
  8
0
 10
24.4191418388434194
 20
159.7836102107027898
 30
0.0
  0
VERTEX
  5
167F7
  8
0
 10
24.5498875048135083
 20
159.7947408670503933
 30
0.0
  0
VERTEX
  5
167F8
  8
0
 10
24.6801001561112798
 20
159.8053100859162043
 30
0.0
  0
VERTEX
  5
167F9
  8
0
 10
24.8097799338701215
 20
159.8153171779460138
 30
0.0
  0
VERTEX
  5
167FA
  8
0
 10
24.9389269792233108
 20
159.8247614537854986
 30
0.0
  0
VERTEX
  5
167FB
  8
0
 10
25.0675414333043101
 20
159.8336422240803927
 30
0.0
  0
VERTEX
  5
167FC
  8
0
 10
25.1956234372464714
 20
159.8419587994767994
 30
0.0
  0
VERTEX
  5
167FD
  8
0
 10
25.3231731321830615
 20
159.8497104906201116
 30
0.0
  0
VERTEX
  5
167FE
  8
0
 10
25.4501906592475997
 20
159.8568966081560916
 30
0.0
  0
VERTEX
  5
167FF
  8
0
 10
25.5766761595733207
 20
159.8635164627305869
 30
0.0
  0
VERTEX
  5
16800
  8
0
 10
25.7026297742936514
 20
159.869569364989502
 30
0.0
  0
VERTEX
  5
16801
  8
0
 10
25.8280516445419686
 20
159.8750546255782012
 30
0.0
  0
VERTEX
  5
16802
  8
0
 10
25.9529419114516102
 20
159.879971555142987
 30
0.0
  0
VERTEX
  5
16803
  8
0
 10
26.0773007161558894
 20
159.8843194643291099
 30
0.0
  0
VERTEX
  5
16804
  8
0
 10
26.2011281997882897
 20
159.8880976637825881
 30
0.0
  0
VERTEX
  5
16805
  8
0
 10
26.3244245034820814
 20
159.8913054641490987
 30
0.0
  0
VERTEX
  5
16806
  8
0
 10
26.4471897683706594
 20
159.8939421760746029
 30
0.0
  0
VERTEX
  5
16807
  8
0
 10
26.5694241355873793
 20
159.8960071102044083
 30
0.0
  0
VERTEX
  5
16808
  8
0
 10
26.6911277462656393
 20
159.8974995771847887
 30
0.0
  0
VERTEX
  5
16809
  8
0
 10
26.8123007415387704
 20
159.8984188876611086
 30
0.0
  0
VERTEX
  5
1680A
  8
0
 10
26.9329432625401104
 20
159.8987643522793007
 30
0.0
  0
VERTEX
  5
1680B
  8
0
 10
27.0530591957961484
 20
159.8985349125971993
 30
0.0
  0
VERTEX
  5
1680C
  8
0
 10
27.1727111146902907
 20
159.8977221135893103
 30
0.0
  0
VERTEX
  5
1680D
  8
0
 10
27.2918633858341195
 20
159.8963231769446054
 30
0.0
  0
VERTEX
  5
1680E
  8
0
 10
27.4104394793994892
 20
159.8943387736786974
 30
0.0
  0
VERTEX
  5
1680F
  8
0
 10
27.5283628655581687
 20
159.8917695748064887
 30
0.0
  0
VERTEX
  5
16810
  8
0
 10
27.6455570144820015
 20
159.8886162513433931
 30
0.0
  0
VERTEX
  5
16811
  8
0
 10
27.7619453963426892
 20
159.8848794743043129
 30
0.0
  0
VERTEX
  5
16812
  8
0
 10
27.8774446407344385
 20
159.880561262211188
 30
0.0
  0
VERTEX
  5
16813
  8
0
 10
27.9919787637446689
 20
159.8756696192550066
 30
0.0
  0
VERTEX
  5
16814
  8
0
 10
28.1055451504461793
 20
159.8702083591030032
 30
0.0
  0
VERTEX
  5
16815
  8
0
 10
28.2181478960621384
 20
159.8641805569594965
 30
0.0
  0
VERTEX
  5
16816
  8
0
 10
28.3297910958157715
 20
159.8575892880292884
 30
0.0
  0
VERTEX
  5
16817
  8
0
 10
28.4404788449302188
 20
159.8504376275172092
 30
0.0
  0
VERTEX
  5
16818
  8
0
 10
28.5502152386287094
 20
159.8427286506278904
 30
0.0
  0
VERTEX
  5
16819
  8
0
 10
28.6590051882178614
 20
159.8344657622033935
 30
0.0
  0
VERTEX
  5
1681A
  8
0
 10
28.7668524072724985
 20
159.8256518771225956
 30
0.0
  0
VERTEX
  5
1681B
  8
0
 10
28.8737581467116193
 20
159.8162889112020082
 30
0.0
  0
VERTEX
  5
1681C
  8
0
 10
28.9797236333298009
 20
159.8063787704863898
 30
0.0
  0
VERTEX
  5
1681D
  8
0
 10
29.0847500939213397
 20
159.7959233610203
 30
0.0
  0
VERTEX
  5
1681E
  8
0
 10
29.1888387552806989
 20
159.784924588848213
 30
0.0
  0
VERTEX
  5
1681F
  8
0
 10
29.2919908442023704
 20
159.7733843600148873
 30
0.0
  0
VERTEX
  5
16820
  8
0
 10
29.3942075874807109
 20
159.7613045805649108
 30
0.0
  0
VERTEX
  5
16821
  8
0
 10
29.4954902119101803
 20
159.7486871565427009
 30
0.0
  0
VERTEX
  5
16822
  8
0
 10
29.5958399442852702
 20
159.7355339939931014
 30
0.0
  0
VERTEX
  5
16823
  8
0
 10
29.6952580114003091
 20
159.7218469989607001
 30
0.0
  0
VERTEX
  5
16824
  8
0
 10
29.7937456400497389
 20
159.7076280774898862
 30
0.0
  0
VERTEX
  5
16825
  8
0
 10
29.8913040570280906
 20
159.6928791356255886
 30
0.0
  0
VERTEX
  5
16826
  8
0
 10
29.9879340551175986
 20
159.6776019033426053
 30
0.0
  0
VERTEX
  5
16827
  8
0
 10
30.0836332360069001
 20
159.6617968154646121
 30
0.0
  0
VERTEX
  5
16828
  8
0
 10
30.1783997831705584
 20
159.6454645419125029
 30
0.0
  0
VERTEX
  5
16829
  8
0
 10
30.2722322006469611
 20
159.62860588258701
 30
0.0
  0
VERTEX
  5
1682A
  8
0
 10
30.3651289924744709
 20
159.6112216373890931
 30
0.0
  0
VERTEX
  5
1682B
  8
0
 10
30.4570886626915502
 20
159.5933126062199108
 30
0.0
  0
VERTEX
  5
1682C
  8
0
 10
30.5481097153365795
 20
159.5748795889803091
 30
0.0
  0
VERTEX
  5
1682D
  8
0
 10
30.6382033922363917
 20
159.5559184898253022
 30
0.0
  0
VERTEX
  5
1682E
  8
0
 10
30.7273592020320585
 20
159.5364299874854055
 30
0.0
  0
VERTEX
  5
1682F
  8
0
 10
30.8155142857167483
 20
159.5164319691066908
 30
0.0
  0
VERTEX
  5
16830
  8
0
 10
30.9026047402733184
 20
159.495942684802003
 30
0.0
  0
VERTEX
  5
16831
  8
0
 10
30.9885666626848888
 20
159.4749803846850114
 30
0.0
  0
VERTEX
  5
16832
  8
0
 10
31.0733361499343985
 20
159.4535633188689019
 30
0.0
  0
VERTEX
  5
16833
  8
0
 10
31.1568500699184483
 20
159.4317096234267126
 30
0.0
  0
VERTEX
  5
16834
  8
0
 10
31.2391190355409698
 20
159.4094255249677019
 30
0.0
  0
VERTEX
  5
16835
  8
0
 10
31.3201764106467415
 20
159.386710747308797
 30
0.0
  0
VERTEX
  5
16836
  8
0
 10
31.4000264861398399
 20
159.3635687097620064
 30
0.0
  0
VERTEX
  5
16837
  8
0
 10
31.478673552924139
 20
159.3400028316393104
 30
0.0
  0
VERTEX
  5
16838
  8
0
 10
31.5561219019036301
 20
159.3160165322530872
 30
0.0
  0
VERTEX
  5
16839
  8
0
 10
31.6323758239821515
 20
159.2916132309152886
 30
0.0
  0
VERTEX
  5
1683A
  8
0
 10
31.7074396100637692
 20
159.2667963469382073
 30
0.0
  0
VERTEX
  5
1683B
  8
0
 10
31.7813175510523287
 20
159.2415692996339089
 30
0.0
  0
VERTEX
  5
1683C
  8
0
 10
31.8540139378518496
 20
159.2159355083144021
 30
0.0
  0
VERTEX
  5
1683D
  8
0
 10
31.9255330613662593
 20
159.1898983922920081
 30
0.0
  0
VERTEX
  5
1683E
  8
0
 10
31.9958792124994709
 20
159.1634613708785935
 30
0.0
  0
VERTEX
  5
1683F
  8
0
 10
32.0650566821554506
 20
159.1366278633865932
 30
0.0
  0
VERTEX
  5
16840
  8
0
 10
32.1330697612381684
 20
159.1094012891279021
 30
0.0
  0
VERTEX
  5
16841
  8
0
 10
32.1999222969204126
 20
159.0817848952810039
 30
0.0
  0
VERTEX
  5
16842
  8
0
 10
32.2656151076747122
 20
159.0537808605793089
 30
0.0
  0
VERTEX
  5
16843
  8
0
 10
32.330147805779923
 20
159.0253909957872906
 30
0.0
  0
VERTEX
  5
16844
  8
0
 10
32.3935200040888915
 20
158.9966171140644917
 30
0.0
  0
VERTEX
  5
16845
  8
0
 10
32.4557313154542229
 20
158.9674610285705114
 30
0.0
  0
VERTEX
  5
16846
  8
0
 10
32.5167813527286285
 20
158.937924552464807
 30
0.0
  0
VERTEX
  5
16847
  8
0
 10
32.5766697287648412
 20
158.9080094989070915
 30
0.0
  0
VERTEX
  5
16848
  8
0
 10
32.6353960564155727
 20
158.8777176810569927
 30
0.0
  0
VERTEX
  5
16849
  8
0
 10
32.6929599485334279
 20
158.8470509120739109
 30
0.0
  0
VERTEX
  5
1684A
  8
0
 10
32.7493610179712391
 20
158.8160110051173888
 30
0.0
  0
VERTEX
  5
1684B
  8
0
 10
32.8045988775816113
 20
158.7845997733471961
 30
0.0
  0
VERTEX
  5
1684C
  8
0
 10
32.8586731402172703
 20
158.7528190299227902
 30
0.0
  0
VERTEX
  5
1684D
  8
0
 10
32.9115834187309204
 20
158.7206705880037134
 30
0.0
  0
VERTEX
  5
1684E
  8
0
 10
32.9633245999613109
 20
158.688158828917409
 30
0.0
  0
VERTEX
  5
1684F
  8
0
 10
33.0138461893776594
 20
158.6553135603591045
 30
0.0
  0
VERTEX
  5
16850
  8
0
 10
33.0631324563218101
 20
158.6221472049141141
 30
0.0
  0
VERTEX
  5
16851
  8
0
 10
33.1111806436555298
 20
158.5886652934034942
 30
0.0
  0
VERTEX
  5
16852
  8
0
 10
33.1579879942408979
 20
158.5548733566483008
 30
0.0
  0
VERTEX
  5
16853
  8
0
 10
33.2035517509397735
 20
158.5207769254697041
 30
0.0
  0
VERTEX
  5
16854
  8
0
 10
33.2478691566140512
 20
158.4863815306889023
 30
0.0
  0
VERTEX
  5
16855
  8
0
 10
33.2909374541256966
 20
158.4516927031270086
 30
0.0
  0
VERTEX
  5
16856
  8
0
 10
33.3327538863366115
 20
158.4167159736049939
 30
0.0
  0
VERTEX
  5
16857
  8
0
 10
33.3733156961087118
 20
158.3814568729443124
 30
0.0
  0
VERTEX
  5
16858
  8
0
 10
33.4126201263039206
 20
158.3459209319657077
 30
0.0
  0
VERTEX
  5
16859
  8
0
 10
33.4506644197841183
 20
158.3101136814904919
 30
0.0
  0
VERTEX
  5
1685A
  8
0
 10
33.4874458194113274
 20
158.2740406523400054
 30
0.0
  0
VERTEX
  5
1685B
  8
0
 10
33.5229615680473714
 20
158.2377073753351056
 30
0.0
  0
SEQEND
  5
1685C
  8
0
  0
POLYLINE
  5
15787
  8
0
 66
     1
 10
0.0
 20
0.0
 30
0.0
  0
VERTEX
  5
1685D
  8
0
 10
33.5229615680473216
 20
158.2377073753351908
 30
0.0
  0
VERTEX
  5
1685E
  8
0
 10
33.7405756656426092
 20
158.0095747912984052
 30
0.0
  0
VERTEX
  5
1685F
  8
0
 10
33.9581027274089209
 20
157.7802338118522982
 30
0.0
  0
VERTEX
  5
16860
  8
0
 10
34.1755456941206077
 20
157.5497252663681991
 30
0.0
  0
VERTEX
  5
16861
  8
0
 10
34.3929075065519712
 20
157.3180899842176075
 30
0.0
  0
VERTEX
  5
16862
  8
0
 10
34.6101911054773765
 20
157.0853687947721085
 30
0.0
  0
VERTEX
  5
16863
  8
0
 10
34.8273994316710969
 20
156.8516025274030028
 30
0.0
  0
VERTEX
  5
16864
  8
0
 10
35.0445354259074406
 20
156.6168320114819892
 30
0.0
  0
VERTEX
  5
16865
  8
0
 10
35.2616020289608514
 20
156.3810980763805105
 30
0.0
  0
VERTEX
  5
16866
  8
0
 10
35.4786021816055381
 20
156.1444415514698107
 30
0.0
  0
VERTEX
  5
16867
  8
0
 10
35.6955388246158165
 20
155.9069032661215886
 30
0.0
  0
VERTEX
  5
16868
  8
0
 10
35.9124148987660874
 20
155.6685240497072016
 30
0.0
  0
SEQEND
  5
16869
  8
0
  0
POLYLINE
  5
15788
  8
0
 66
     1
 10
0.0
 20
0.0
 30
0.0
  0
VERTEX
  5
1686A
  8
0
 10
35.9124148987660874
 20
155.6685240497072016
 30
0.0
  0
VERTEX
  5
1686B
  8
0
 10
35.9330345264748416
 20
155.6465299149085979
 30
0.0
  0
VERTEX
  5
1686C
  8
0
 10
35.9547510657815721
 20
155.6247524242195936
 30
0.0
  0
VERTEX
  5
1686D
  8
0
 10
35.9775663686240819
 20
155.6031913011676124
 30
0.0
  0
VERTEX
  5
1686E
  8
0
 10
36.0014822869400817
 20
155.5818462692799073
 30
0.0
  0
VERTEX
  5
1686F
  8
0
 10
36.0265006726672823
 20
155.5607170520839873
 30
0.0
  0
VERTEX
  5
16870
  8
0
 10
36.0526233777436005
 20
155.5398033731071905
 30
0.0
  0
VERTEX
  5
16871
  8
0
 10
36.0798522541066973
 20
155.5191049558769123
 30
0.0
  0
VERTEX
  5
16872
  8
0
 10
36.1081891536942976
 20
155.4986215239204057
 30
0.0
  0
VERTEX
  5
16873
  8
0
 10
36.1376359284442401
 20
155.4783528007650943
 30
0.0
  0
VERTEX
  5
16874
  8
0
 10
36.1681944302942497
 20
155.4582985099384871
 30
0.0
  0
VERTEX
  5
16875
  8
0
 10
36.1998665111821083
 20
155.4384583749678086
 30
0.0
  0
VERTEX
  5
16876
  8
0
 10
36.2326540230455407
 20
155.4188321193805962
 30
0.0
  0
VERTEX
  5
16877
  8
0
 10
36.2665588178223999
 20
155.3994194667041029
 30
0.0
  0
VERTEX
  5
16878
  8
0
 10
36.3015827474502615
 20
155.3802201404656103
 30
0.0
  0
VERTEX
  5
16879
  8
0
 10
36.3377276638670992
 20
155.3612338641927124
 30
0.0
  0
VERTEX
  5
1687A
  8
0
 10
36.3749954190105314
 20
155.3424603614126056
 30
0.0
  0
VERTEX
  5
1687B
  8
0
 10
36.4133878648183966
 20
155.3238993556527987
 30
0.0
  0
VERTEX
  5
1687C
  8
0
 10
36.4529068532284128
 20
155.3055505704406016
 30
0.0
  0
VERTEX
  5
1687D
  8
0
 10
36.4935542361783405
 20
155.2874137293034096
 30
0.0
  0
VERTEX
  5
1687E
  8
0
 10
36.53533186560594
 20
155.2694885557685893
 30
0.0
  0
VERTEX
  5
1687F
  8
0
 10
36.5782382238740027
 20
155.2517767779405915
 30
0.0
  0
VERTEX
  5
16880
  8
0
 10
36.6221964314661435
 20
155.2343232881949007
 30
0.0
  0
VERTEX
  5
16881
  8
0
 10
36.6671620033445222
 20
155.2171495684220872
 30
0.0
  0
VERTEX
  5
16882
  8
0
 10
36.7131191243565311
 20
155.2002594438540086
 30
0.0
  0
VERTEX
  5
16883
  8
0
 10
36.7600519793494414
 20
155.1836567397220961
 30
0.0
  0
VERTEX
  5
16884
  8
0
 10
36.8079447531706023
 20
155.1673452812580933
 30
0.0
  0
VERTEX
  5
16885
  8
0
 10
36.8567816306672285
 20
155.1513288936936021
 30
0.0
  0
VERTEX
  5
16886
  8
0
 10
36.9065467966867118
 20
155.1356114022605936
 30
0.0
  0
VERTEX
  5
16887
  8
0
 10
36.9572244360763165
 20
155.1201966321903001
 30
0.0
  0
VERTEX
  5
16888
  8
0
 10
37.0087987336832995
 20
155.1050884087142947
 30
0.0
  0
VERTEX
  5
16889
  8
0
 10
37.0612538743550815
 20
155.0902905570648045
 30
0.0
  0
VERTEX
  5
1688A
  8
0
 10
37.1145922924247316
 20
155.075799806458889
 30
0.0
  0
VERTEX
  5
1688B
  8
0
 10
37.1688389585103778
 20
155.0616069045840959
 30
0.0
  0
VERTEX
  5
1688C
  8
0
 10
37.2239984064438474
 20
155.0477124987540094
 30
0.0
  0
VERTEX
  5
1688D
  8
0
 10
37.2800748497766108
 20
155.0341173731792992
 30
0.0
  0
VERTEX
  5
1688E
  8
0
 10
37.3370725020602094
 20
155.0208223120708908
 30
0.0
  0
VERTEX
  5
1688F
  8
0
 10
37.3949955768460924
 20
155.0078280996393119
 30
0.0
  0
VERTEX
  5
16890
  8
0
 10
37.4538482876856165
 20
154.9951355200954026
 30
0.0
  0
VERTEX
  5
16891
  8
0
 10
37.5136348481303727
 20
154.9827453576500034
 30
0.0
  0
VERTEX
  5
16892
  8
0
 10
37.5743594717317819
 20
154.9706583965136133
 30
0.0
  0
VERTEX
  5
16893
  8
0
 10
37.6360263720412718
 20
154.9588754208973
 30
0.0
  0
VERTEX
  5
16894
  8
0
 10
37.698629329441701
 20
154.9474002797209948
 30
0.0
  0
VERTEX
  5
16895
  8
0
 10
37.7620938794905712
 20
154.9362536334334095
 30
0.0
  0
VERTEX
  5
16896
  8
0
 10
37.8263727118390989
 20
154.9254431335737934
 30
0.0
  0
VERTEX
  5
16897
  8
0
 10
37.8914271627534305
 20
154.9149735323034918
 30
0.0
  0
VERTEX
  5
16898
  8
0
 10
37.9572185684998118
 20
154.9048495817837932
 30
0.0
  0
VERTEX
  5
16899
  8
0
 10
38.0237082653444602
 20
154.8950760341757018
 30
0.0
  0
VERTEX
  5
1689A
  8
0
 10
38.0908575895536003
 20
154.8856576416407052
 30
0.0
  0
VERTEX
  5
1689B
  8
0
 10
38.1586278773934424
 20
154.8765991563398075
 30
0.0
  0
VERTEX
  5
1689C
  8
0
 10
38.2269804651302323
 20
154.8679053304346098
 30
0.0
  0
VERTEX
  5
1689D
  8
0
 10
38.2958766890302016
 20
154.8595809160860028
 30
0.0
  0
VERTEX
  5
1689E
  8
0
 10
38.3652787272092723
 20
154.8516305020401091
 30
0.0
  0
VERTEX
  5
1689F
  8
0
 10
38.4352221268909489
 20
154.8440452680306976
 30
0.0
  0
VERTEX
  5
168A0
  8
0
 10
38.5057448223525398
 20
154.8368185425262027
 30
0.0
  0
VERTEX
  5
168A1
  8
0
 10
38.5768486674479618
 20
154.8299511616349093
 30
0.0
  0
VERTEX
  5
168A2
  8
0
 10
38.648535516030897
 20
154.8234439614651023
 30
0.0
  0
VERTEX
  5
168A3
  8
0
 10
38.7208072219552903
 20
154.8172977781250097
 30
0.0
  0
VERTEX
  5
168A4
  8
0
 10
38.7936656390747885
 20
154.8115134477230015
 30
0.0
  0
VERTEX
  5
168A5
  8
0
 10
38.8671126212434004
 20
154.8060918063673057
 30
0.0
  0
VERTEX
  5
168A6
  8
0
 10
38.9411500223147229
 20
154.8010336901662072
 30
0.0
  0
VERTEX
  5
168A7
  8
0
 10
39.0157796961427223
 20
154.7963399352279907
 30
0.0
  0
VERTEX
  5
168A8
  8
0
 10
39.0910034965811093
 20
154.7920113776609128
 30
0.0
  0
VERTEX
  5
168A9
  8
0
 10
39.1668051520321185
 20
154.7880521169005874
 30
0.0
  0
VERTEX
  5
168AA
  8
0
 10
39.2431167834703274
 20
154.7844709768467055
 30
0.0
  0
VERTEX
  5
168AB
  8
0
 10
39.3198889350785521
 20
154.7812691770807874
 30
0.0
  0
VERTEX
  5
168AC
  8
0
 10
39.3970736460763078
 20
154.7784475748123896
 30
0.0
  0
VERTEX
  5
168AD
  8
0
 10
39.4746229556829533
 20
154.7760070272503867
 30
0.0
  0
VERTEX
  5
168AE
  8
0
 10
39.5524889031179328
 20
154.773948391604506
 30
0.0
  0
VERTEX
  5
168AF
  8
0
 10
39.6306235276007968
 20
154.7722725250837073
 30
0.0
  0
VERTEX
  5
168B0
  8
0
 10
39.7089788683508829
 20
154.7709802848974903
 30
0.0
  0
VERTEX
  5
168B1
  8
0
 10
39.787506964587692
 20
154.7700725282550991
 30
0.0
  0
VERTEX
  5
168B2
  8
0
 10
39.8661598555306611
 20
154.7695501123658062
 30
0.0
  0
VERTEX
  5
168B3
  8
0
 10
39.9448993588474082
 20
154.7694132903592106
 30
0.0
  0
VERTEX
  5
168B4
  8
0
 10
40.0237949216127973
 20
154.7696567211864078
 30
0.0
  0
VERTEX
  5
168B5
  8
0
 10
40.1028710725549331
 20
154.7702799134387135
 30
0.0
  0
VERTEX
  5
168B6
  8
0
 10
40.1821283345325426
 20
154.7712840766438092
 30
0.0
  0
VERTEX
  5
168B7
  8
0
 10
40.2615672304045091
 20
154.7726704203294048
 30
0.0
  0
VERTEX
  5
168B8
  8
0
 10
40.3411882830298509
 20
154.7744401540232104
 30
0.0
  0
VERTEX
  5
168B9
  8
0
 10
40.4209920152672879
 20
154.7765944872529928
 30
0.0
  0
VERTEX
  5
168BA
  8
0
 10
40.5009789499758313
 20
154.7791346295464052
 30
0.0
  0
VERTEX
  5
168BB
  8
0
 10
40.581149610014279
 20
154.782061790431186
 30
0.0
  0
VERTEX
  5
168BC
  8
0
 10
40.6615045182414931
 20
154.7853771794349882
 30
0.0
  0
VERTEX
  5
168BD
  8
0
 10
40.7420441975163996
 20
154.7890820060856072
 30
0.0
  0
SEQEND
  5
168BE
  8
0
  0
POLYLINE
  5
15789
  8
0
 66
     1
 10
0.0
 20
0.0
 30
0.0
  0
VERTEX
  5
168BF
  8
0
 10
40.7420441975163996
 20
154.7890820060856072
 30
0.0
  0
VERTEX
  5
168C0
  8
0
 10
41.8312154611764413
 20
154.838711242448511
 30
0.0
  0
VERTEX
  5
168C1
  8
0
 10
42.9203867248384725
 20
154.8822224731586061
 30
0.0
  0
VERTEX
  5
168C2
  8
0
 10
44.009557988502408
 20
154.9195911906469121
 30
0.0
  0
VERTEX
  5
168C3
  8
0
 10
45.0987292521684182
 20
154.9507928873441074
 30
0.0
  0
VERTEX
  5
168C4
  8
0
 10
46.1879005158363611
 20
154.975803055680899
 30
0.0
  0
VERTEX
  5
168C5
  8
0
 10
47.2770717795062865
 20
154.9945971880883917
 30
0.0
  0
VERTEX
  5
168C6
  8
0
 10
48.3662430431782013
 20
155.0071507769972072
 30
0.0
  0
VERTEX
  5
168C7
  8
0
 10
49.4554143068520986
 20
155.0134393148381946
 30
0.0
  0
VERTEX
  5
168C8
  8
0
 10
50.5445855705280565
 20
155.013439315190908
 30
0.0
  0
VERTEX
  5
168C9
  8
0
 10
51.6337568342059967
 20
155.0071507780550064
 30
0.0
  0
VERTEX
  5
168CA
  8
0
 10
52.7229280978859904
 20
154.9945971898501966
 30
0.0
  0
VERTEX
  5
168CB
  8
0
 10
53.8120993615679026
 20
154.9758030581450043
 30
0.0
  0
VERTEX
  5
168CC
  8
0
 10
54.9012706252518683
 20
154.9507928905078131
 30
0.0
  0
VERTEX
  5
168CD
  8
0
 10
55.9904418889377666
 20
154.9195911945072055
 30
0.0
  0
VERTEX
  5
168CE
  8
0
 10
57.0796131526256474
 20
154.8822224777115935
 30
0.0
  0
VERTEX
  5
168CF
  8
0
 10
58.1687844163154821
 20
154.8387112476895027
 30
0.0
  0
VERTEX
  5
168D0
  8
0
 10
59.2579556800072922
 20
154.789082012009402
 30
0.0
  0
SEQEND
  5
168D1
  8
0
  0
POLYLINE
  5
1578A
  8
0
 66
     1
 10
0.0
 20
0.0
 30
0.0
  0
VERTEX
  5
168D2
  8
0
 10
59.2579555575302308
 20
154.7890820179333105
 30
0.0
  0
VERTEX
  5
168D3
  8
0
 10
59.3520725956591875
 20
154.7847861039346924
 30
0.0
  0
VERTEX
  5
168D4
  8
0
 10
59.4459276288196676
 20
154.781015157663802
 30
0.0
  0
VERTEX
  5
168D5
  8
0
 10
59.5395163111668779
 20
154.7777690618090958
 30
0.0
  0
VERTEX
  5
168D6
  8
0
 10
59.6328342968561671
 20
154.7750476990586037
 30
0.0
  0
VERTEX
  5
168D7
  8
0
 10
59.7258772400426707
 20
154.7728509521006117
 30
0.0
  0
VERTEX
  5
168D8
  8
0
 10
59.8186407948817802
 20
154.7711787036232067
 30
0.0
  0
VERTEX
  5
168D9
  8
0
 10
59.911120615528759
 20
154.7700308363149873
 30
0.0
  0
VERTEX
  5
168DA
  8
0
 10
60.0033123561387924
 20
154.7694072328638129
 30
0.0
  0
VERTEX
  5
168DB
  8
0
 10
60.0952116708672222
 20
154.7693077759579978
 30
0.0
  0
VERTEX
  5
168DC
  8
0
 10
60.1868142138692832
 20
154.7697323482857996
 30
0.0
  0
VERTEX
  5
168DD
  8
0
 10
60.2781156393002107
 20
154.7706808325355041
 30
0.0
  0
VERTEX
  5
168DE
  8
0
 10
60.3691116013153533
 20
154.7721531113951983
 30
0.0
  0
VERTEX
  5
168DF
  8
0
 10
60.4597977540699389
 20
154.77414906755331
 30
0.0
  0
VERTEX
  5
168E0
  8
0
 10
60.5501697517192312
 20
154.7766685836978979
 30
0.0
  0
VERTEX
  5
168E1
  8
0
 10
60.640223248418522
 20
154.779711542517191
 30
0.0
  0
VERTEX
  5
168E2
  8
0
 10
60.7299538983230605
 20
154.7832778266995035
 30
0.0
  0
VERTEX
  5
168E3
  8
0
 10
60.8193573555880675
 20
154.787367318933093
 30
0.0
  0
VERTEX
  5
168E4
  8
0
 10
60.9084123491142009
 20
154.7919792821930969
 30
0.0
  0
VERTEX
  5
168E5
  8
0
 10
60.9967445309777005
 20
154.7970994203056989
 30
0.0
  0
VERTEX
  5
168E6
  8
0
 10
61.0842054183070786
 20
154.8027201413241869
 30
0.0
  0
VERTEX
  5
168E7
  8
0
 10
61.1707997027918822
 20
154.8088392344540125
 30
0.0
  0
VERTEX
  5
168E8
  8
0
 10
61.2565320761217365
 20
154.8154544889009117
 30
0.0
  0
VERTEX
  5
168E9
  8
0
 10
61.3414072299863165
 20
154.8225636938705065
 30
0.0
  0
VERTEX
  5
168EA
  8
0
 10
61.4254298560751906
 20
154.830164638568391
 30
0.0
  0
VERTEX
  5
168EB
  8
0
 10
61.5086046460780835
 20
154.8382551122001018
 30
0.0
  0
VERTEX
  5
168EC
  8
0
 10
61.5909362916844927
 20
154.8468329039716025
 30
0.0
  0
VERTEX
  5
168ED
  8
0
 10
61.672434210028932
 20
154.8558967495351908
 30
0.0
  0
VERTEX
  5
168EE
  8
0
 10
61.7531419421472378
 20
154.8654543537855943
 30
0.0
  0
VERTEX
  5
168EF
  8
0
 10
61.833046137347587
 20
154.8755062256639974
 30
0.0
  0
VERTEX
  5
168F0
  8
0
 10
61.9121181481860319
 20
154.8860502514093014
 30
0.0
  0
VERTEX
  5
168F1
  8
0
 10
61.9903293272185891
 20
154.8970843172604077
 30
0.0
  0
VERTEX
  5
168F2
  8
0
 10
62.0676510270012685
 20
154.9086063094561894
 30
0.0
  0
VERTEX
  5
168F3
  8
0
 10
62.1440546000900369
 20
154.9206141142358035
 30
0.0
  0
VERTEX
  5
168F4
  8
0
 10
62.2195113990410391
 20
154.9331056178378105
 30
0.0
  0
VERTEX
  5
168F5
  8
0
 10
62.2939927764101569
 20
154.946078706501595
 30
0.0
  0
VERTEX
  5
168F6
  8
0
 10
62.3674331287759216
 20
154.9595236299317946
 30
0.0
  0
VERTEX
  5
168F7
  8
0
 10
62.4395956760674409
 20
154.973392687514206
 30
0.0
  0
VERTEX
  5
168F8
  8
0
 10
62.5104495786969707
 20
154.9876767227391099
 30
0.0
  0
VERTEX
  5
168F9
  8
0
 10
62.5800024645255277
 20
155.0023742414466881
 30
0.0
  0
VERTEX
  5
168FA
  8
0
 10
62.6482619614141001
 20
155.0174837494776057
 30
0.0
  0
VERTEX
  5
168FB
  8
0
 10
62.7152356972235268
 20
155.0330037526724141
 30
0.0
  0
VERTEX
  5
168FC
  8
0
 10
62.7809312998148101
 20
155.0489327568716078
 30
0.0
  0
VERTEX
  5
168FD
  8
0
 10
62.8453563970489313
 20
155.0652692679157951
 30
0.0
  0
VERTEX
  5
168FE
  8
0
 10
62.90851861678685
 20
155.082011791645499
 30
0.0
  0
VERTEX
  5
168FF
  8
0
 10
62.9704355845422583
 20
155.0991634436911966
 30
0.0
  0
VERTEX
  5
16900
  8
0
 10
63.0311381357458274
 20
155.1167378259494001
 30
0.0
  0
VERTEX
  5
16901
  8
0
 10
63.0906055811309869
 20
155.1347301405731116
 30
0.0
  0
VERTEX
  5
16902
  8
0
 10
63.1488128662854109
 20
155.1531338110737011
 30
0.0
  0
VERTEX
  5
16903
  8
0
 10
63.2057349367967021
 20
155.1719422609629078
 30
0.0
  0
VERTEX
  5
16904
  8
0
 10
63.2613467382525982
 20
155.1911489137521016
 30
0.0
  0
VERTEX
  5
16905
  8
0
 10
63.315623216240617
 20
155.2107471929527094
 30
0.0
  0
VERTEX
  5
16906
  8
0
 10
63.3685393163484676
 20
155.2307305220764135
 30
0.0
  0
VERTEX
  5
16907
  8
0
 10
63.4200699841637601
 20
155.2510923246344987
 30
0.0
  0
VERTEX
  5
16908
  8
0
 10
63.4701553013223929
 20
155.27180357230921
 30
0.0
  0
VERTEX
  5
16909
  8
0
 10
63.51869926299333
 20
155.2928063930671101
 30
0.0
  0
VERTEX
  5
1690A
  8
0
 10
63.5657006123100174
 20
155.314098669586798
 30
0.0
  0
VERTEX
  5
1690B
  8
0
 10
63.6111622574553621
 20
155.3356808523928123
 30
0.0
  0
VERTEX
  5
1690C
  8
0
 10
63.6550871066123065
 20
155.3575533920098906
 30
0.0
  0
VERTEX
  5
1690D
  8
0
 10
63.6974780679636723
 20
155.3797167389622871
 30
0.0
  0
VERTEX
  5
1690E
  8
0
 10
63.7383380496925085
 20
155.402171343774512
 30
0.0
  0
VERTEX
  5
1690F
  8
0
 10
63.7776699599816084
 20
155.4249176569713029
 30
0.0
  0
VERTEX
  5
16910
  8
0
 10
63.8154767070139428
 20
155.4479561290769141
 30
0.0
  0
VERTEX
  5
16911
  8
0
 10
63.8517611989723903
 20
155.4712872106161115
 30
0.0
  0
VERTEX
  5
16912
  8
0
 10
63.8865263440398365
 20
155.4949113521132062
 30
0.0
  0
VERTEX
  5
16913
  8
0
 10
63.9197750503992665
 20
155.5188290040927939
 30
0.0
  0
VERTEX
  5
16914
  8
0
 10
63.9515102262335517
 20
155.5430406170792992
 30
0.0
  0
VERTEX
  5
16915
  8
0
 10
63.9817347797256204
 20
155.5675466415974029
 30
0.0
  0
VERTEX
  5
16916
  8
0
 10
64.0104516190583581
 20
155.5923475281715014
 30
0.0
  0
VERTEX
  5
16917
  8
0
 10
64.0376636524146079
 20
155.6174437273261901
 30
0.0
  0
VERTEX
  5
16918
  8
0
 10
64.0633737879774117
 20
155.642835689585894
 30
0.0
  0
VERTEX
  5
16919
  8
0
 10
64.0875849339296195
 20
155.6685238654750094
 30
0.0
  0
SEQEND
  5
1691A
  8
0
  0
POLYLINE
  5
1578B
  8
0
 66
     1
 10
0.0
 20
0.0
 30
0.0
  0
VERTEX
  5
1691B
  8
0
 10
64.0875849339296195
 20
155.6685238654752084
 30
0.0
  0
VERTEX
  5
1691C
  8
0
 10
64.3044610232465743
 20
155.9069030992247917
 30
0.0
  0
VERTEX
  5
1691D
  8
0
 10
64.5213976814304147
 20
156.1444414018147882
 30
0.0
  0
VERTEX
  5
1691E
  8
0
 10
64.7383978492560459
 20
156.3810979438653135
 30
0.0
  0
VERTEX
  5
1691F
  8
0
 10
64.9554644674983592
 20
156.6168318959973078
 30
0.0
  0
VERTEX
  5
16920
  8
0
 10
65.1726004769323026
 20
156.8516024288311996
 30
0.0
  0
VERTEX
  5
16921
  8
0
 10
65.3898088183327104
 20
157.0853687129879006
 30
0.0
  0
VERTEX
  5
16922
  8
0
 10
65.6070924324745164
 20
157.3180899190878108
 30
0.0
  0
VERTEX
  5
16923
  8
0
 10
65.8244542601325975
 20
157.5497252177520124
 30
0.0
  0
VERTEX
  5
16924
  8
0
 10
66.0418972420818022
 20
157.7802337796007919
 30
0.0
  0
VERTEX
  5
16925
  8
0
 10
66.2594243190970928
 20
158.0095747752548903
 30
0.0
  0
VERTEX
  5
16926
  8
0
 10
66.4770384319533605
 20
158.2377073753349919
 30
0.0
  0
SEQEND
  5
16927
  8
0
  0
POLYLINE
  5
1578C
  8
0
 66
     1
 10
0.0
 20
0.0
 30
0.0
  0
VERTEX
  5
16928
  8
0
 10
66.4770384319533605
 20
158.2377073753349919
 30
0.0
  0
VERTEX
  5
16929
  8
0
 10
66.5171211903174253
 20
158.2786194892885021
 30
0.0
  0
VERTEX
  5
1692A
  8
0
 10
66.5587242784892936
 20
158.3191463887453097
 30
0.0
  0
VERTEX
  5
1692B
  8
0
 10
66.6018490958976486
 20
158.3592850593265098
 30
0.0
  0
VERTEX
  5
1692C
  8
0
 10
66.6464970419713154
 20
158.3990324866529136
 30
0.0
  0
VERTEX
  5
1692D
  8
0
 10
66.6926695161389631
 20
158.4383856563457869
 30
0.0
  0
VERTEX
  5
1692E
  8
0
 10
66.7403679178293601
 20
158.4773415540257133
 30
0.0
  0
VERTEX
  5
1692F
  8
0
 10
66.7895936464712889
 20
158.5158971653139872
 30
0.0
  0
VERTEX
  5
16930
  8
0
 10
66.8403481014934755
 20
158.5540494758313912
 30
0.0
  0
VERTEX
  5
16931
  8
0
 10
66.8926326823246882
 20
158.5917954711989069
 30
0.0
  0
VERTEX
  5
16932
  8
0
 10
66.9464487883936386
 20
158.6291321370376011
 30
0.0
  0
VERTEX
  5
16933
  8
0
 10
67.0017978191291377
 20
158.6660564589683133
 30
0.0
  0
VERTEX
  5
16934
  8
0
 10
67.0586811739598829
 20
158.7025654226119968
 30
0.0
  0
VERTEX
  5
16935
  8
0
 10
67.1171002523146427
 20
158.73865601358969
 30
0.0
  0
VERTEX
  5
16936
  8
0
 10
67.1770564536221286
 20
158.7743252175224882
 30
0.0
  0
VERTEX
  5
16937
  8
0
 10
67.2385511773111233
 20
158.8095700200310887
 30
0.0
  0
VERTEX
  5
16938
  8
0
 10
67.3015858228104094
 20
158.8443874067367005
 30
0.0
  0
VERTEX
  5
16939
  8
0
 10
67.3661617895486984
 20
158.8787743632601064
 30
0.0
  0
VERTEX
  5
1693A
  8
0
 10
67.4322804769547588
 20
158.9127278752224015
 30
0.0
  0
VERTEX
  5
1693B
  8
0
 10
67.499943284457288
 20
158.9462449282445107
 30
0.0
  0
VERTEX
  5
1693C
  8
0
 10
67.569151611485097
 20
158.9793225079473018
 30
0.0
  0
VERTEX
  5
1693D
  8
0
 10
67.6399068574668831
 20
159.0119575999518133
 30
0.0
  0
VERTEX
  5
1693E
  8
0
 10
67.7122104218314433
 20
159.0441471898791974
 30
0.0
  0
VERTEX
  5
1693F
  8
0
 10
67.7860637040075034
 20
159.0758882633500093
 30
0.0
  0
VERTEX
  5
16940
  8
0
 10
67.8614724494639603
 20
159.1071783142546963
 30
0.0
  0
VERTEX
  5
16941
  8
0
 10
67.9385233017848122
 20
159.1380216404336068
 30
0.0
  0
VERTEX
  5
16942
  8
0
 10
68.017220691586374
 20
159.1684063353798138
 30
0.0
  0
VERTEX
  5
16943
  8
0
 10
68.0975262023814594
 20
159.198314525074494
 30
0.0
  0
VERTEX
  5
16944
  8
0
 10
68.1794014176827829
 20
159.2277283354985116
 30
0.0
  0
VERTEX
  5
16945
  8
0
 10
68.2628079210033434
 20
159.2566298926327875
 30
0.0
  0
VERTEX
  5
16946
  8
0
 10
68.3477072958558551
 20
159.2850013224586121
 30
0.0
  0
VERTEX
  5
16947
  8
0
 10
68.4340611257530753
 20
159.3128247509567075
 30
0.0
  0
VERTEX
  5
16948
  8
0
 10
68.52183099420796
 20
159.3400823041079946
 30
0.0
  0
VERTEX
  5
16949
  8
0
 10
68.6109784847332804
 20
159.3667561078937922
 30
0.0
  0
VERTEX
  5
1694A
  8
0
 10
68.7014651808417511
 20
159.392828288294794
 30
0.0
  0
VERTEX
  5
1694B
  8
0
 10
68.7932526660463282
 20
159.4182809712920061
 30
0.0
  0
VERTEX
  5
1694C
  8
0
 10
68.8863057749600074
 20
159.4430986943166033
 30
0.0
  0
VERTEX
  5
1694D
  8
0
 10
68.9806322514680801
 20
159.467293583595989
 30
0.0
  0
VERTEX
  5
1694E
  8
0
 10
69.0762389197753492
 20
159.4908687464150887
 30
0.0
  0
VERTEX
  5
1694F
  8
0
 10
69.173126094830593
 20
159.513821586212913
 30
0.0
  0
VERTEX
  5
16950
  8
0
 10
69.2712940915826039
 20
159.5361495064281883
 30
0.0
  0
VERTEX
  5
16951
  8
0
 10
69.3707432249801741
 20
159.5578499105000105
 30
0.0
  0
VERTEX
  5
16952
  8
0
 10
69.4714738099719966
 20
159.5789202018671915
 30
0.0
  0
VERTEX
  5
16953
  8
0
 10
69.573486161506878
 20
159.5993577839685997
 30
0.0
  0
VERTEX
  5
16954
  8
0
 10
69.6767805945335112
 20
159.6191600602431038
 30
0.0
  0
VERTEX
  5
16955
  8
0
 10
69.7813574240007597
 20
159.6383244341296006
 30
0.0
  0
VERTEX
  5
16956
  8
0
 10
69.8872169648573163
 20
159.6568483090671009
 30
0.0
  0
VERTEX
  5
16957
  8
0
 10
69.9943595320519307
 20
159.674729088494388
 30
0.0
  0
VERTEX
  5
16958
  8
0
 10
70.1027854886416861
 20
159.691964159900806
 30
0.0
  0
VERTEX
  5
16959
  8
0
 10
70.2124976326077217
 20
159.7085499764750125
 30
0.0
  0
VERTEX
  5
1695A
  8
0
 10
70.3235019348734909
 20
159.7244817418475975
 30
0.0
  0
VERTEX
  5
1695B
  8
0
 10
70.4358045620746225
 20
159.7397545806485937
 30
0.0
  0
VERTEX
  5
1695C
  8
0
 10
70.5494116808465606
 20
159.7543636175078063
 30
0.0
  0
VERTEX
  5
1695D
  8
0
 10
70.6643294578249197
 20
159.7683039770552114
 30
0.0
  0
VERTEX
  5
1695E
  8
0
 10
70.7805640596452577
 20
159.7815707839206141
 30
0.0
  0
VERTEX
  5
1695F
  8
0
 10
70.8981216529430753
 20
159.7941591627339903
 30
0.0
  0
VERTEX
  5
16960
  8
0
 10
71.0170084043539305
 20
159.8060642381252876
 30
0.0
  0
VERTEX
  5
16961
  8
0
 10
71.137230480513324
 20
159.8172811347243965
 30
0.0
  0
VERTEX
  5
16962
  8
0
 10
71.2587940480569273
 20
159.8278049771610938
 30
0.0
  0
VERTEX
  5
16963
  8
0
 10
71.3817052736201276
 20
159.8376308900654124
 30
0.0
  0
VERTEX
  5
16964
  8
0
 10
71.5059319609552517
 20
159.8467497696640862
 30
0.0
  0
VERTEX
  5
16965
  8
0
 10
71.6312951957130934
 20
159.8551412913309093
 30
0.0
  0
VERTEX
  5
16966
  8
0
 10
71.7576967202605829
 20
159.8628000549703927
 30
0.0
  0
VERTEX
  5
16967
  8
0
 10
71.8850499128753739
 20
159.8697222066521988
 30
0.0
  0
VERTEX
  5
16968
  8
0
 10
72.0132681518350637
 20
159.8759038924457911
 30
0.0
  0
VERTEX
  5
16969
  8
0
 10
72.1422648154173629
 20
159.8813412584208891
 30
0.0
  0
VERTEX
  5
1696A
  8
0
 10
72.2719920065046182
 20
159.8860334380659936
 30
0.0
  0
VERTEX
  5
1696B
  8
0
 10
72.4025203379908362
 20
159.8899881816433037
 30
0.0
  0
VERTEX
  5
1696C
  8
0
 10
72.5338543058950904
 20
159.8932075748834905
 30
0.0
  0
VERTEX
  5
1696D
  8
0
 10
72.665991780479871
 20
159.8956931743431085
 30
0.0
  0
VERTEX
  5
1696E
  8
0
 10
72.7989306320079663
 20
159.8974465365789115
 30
0.0
  0
VERTEX
  5
1696F
  8
0
 10
72.9326687307419093
 20
159.8984692181473122
 30
0.0
  0
VERTEX
  5
16970
  8
0
 10
73.0672034085591235
 20
159.8987630739725887
 30
0.0
  0
VERTEX
  5
16971
  8
0
 10
73.2025325786484018
 20
159.8983296330191024
 30
0.0
  0
VERTEX
  5
16972
  8
0
 10
73.3386566862070737
 20
159.8971690174697073
 30
0.0
  0
VERTEX
  5
16973
  8
0
 10
73.4755762639871364
 20
159.8952813009072997
 30
0.0
  0
VERTEX
  5
16974
  8
0
 10
73.6132918447407008
 20
159.8926665569152021
 30
0.0
  0
VERTEX
  5
16975
  8
0
 10
73.7518039612200909
 20
159.8893248590765097
 30
0.0
  0
VERTEX
  5
16976
  8
0
 10
73.891113146177247
 20
159.8852562809742892
 30
0.0
  0
VERTEX
  5
16977
  8
0
 10
74.0312199323643085
 20
159.8804608961916927
 30
0.0
  0
VERTEX
  5
16978
  8
0
 10
74.1721248525335
 20
159.8749387783117868
 30
0.0
  0
VERTEX
  5
16979
  8
0
 10
74.3138284394368043
 20
159.8686900009178089
 30
0.0
  0
VERTEX
  5
1697A
  8
0
 10
74.4563312258264602
 20
159.8617146375927973
 30
0.0
  0
VERTEX
  5
1697B
  8
0
 10
74.5996337444545929
 20
159.8540127619199041
 30
0.0
  0
VERTEX
  5
1697C
  8
0
 10
74.7437727774719036
 20
159.8455787724097945
 30
0.0
  0
VERTEX
  5
1697D
  8
0
 10
74.8887794084889862
 20
159.836406362553987
 30
0.0
  0
VERTEX
  5
1697E
  8
0
 10
75.0346086908507033
 20
159.8265000072996997
 30
0.0
  0
VERTEX
  5
1697F
  8
0
 10
75.1812148174415569
 20
159.8158643092058924
 30
0.0
  0
VERTEX
  5
16980
  8
0
 10
75.3285519811461768
 20
159.8045038708318089
 30
0.0
  0
VERTEX
  5
16981
  8
0
 10
75.476574374849065
 20
159.7924232947366079
 30
0.0
  0
VERTEX
  5
16982
  8
0
 10
75.6252361914347802
 20
159.7796271834797892
 30
0.0
  0
VERTEX
  5
16983
  8
0
 10
75.774491623787867
 20
159.7661201396201136
 30
0.0
  0
VERTEX
  5
16984
  8
0
 10
75.9242948647928841
 20
159.7519067657167966
 30
0.0
  0
VERTEX
  5
16985
  8
0
 10
76.0746001073343905
 20
159.7369916643291958
 30
0.0
  0
VERTEX
  5
16986
  8
0
 10
76.2253615442969021
 20
159.7213794380162994
 30
0.0
  0
VERTEX
  5
16987
  8
0
 10
76.3765333685649921
 20
159.7050746893374082
 30
0.0
  0
SEQEND
  5
16988
  8
0
  0
POLYLINE
  5
1578D
  8
0
 66
     1
 10
0.0
 20
0.0
 30
0.0
  0
VERTEX
  5
16989
  8
0
 10
76.3765333685649921
 20
159.7050746893374082
 30
0.0
  0
VERTEX
  5
1698A
  8
0
 10
76.9592488443950629
 20
159.6358795721567105
 30
0.0
  0
VERTEX
  5
1698B
  8
0
 10
77.5419190369510147
 20
159.5663515641267907
 30
0.0
  0
VERTEX
  5
1698C
  8
0
 10
78.1244986629586009
 20
159.4961577743987107
 30
0.0
  0
VERTEX
  5
1698D
  8
0
 10
78.7069424391438019
 20
159.4249653121231916
 30
0.0
  0
VERTEX
  5
1698E
  8
0
 10
79.2892050822323284
 20
159.352441286451409
 30
0.0
  0
VERTEX
  5
1698F
  8
0
 10
79.8712413089501752
 20
159.2782528065341126
 30
0.0
  0
VERTEX
  5
16990
  8
0
 10
80.4530058360231237
 20
159.2020669815221083
 30
0.0
  0
VERTEX
  5
16991
  8
0
 10
81.0344533801770126
 20
159.1235509205664016
 30
0.0
  0
VERTEX
  5
16992
  8
0
 10
81.6155386581377229
 20
159.0423717328177986
 30
0.0
  0
VERTEX
  5
16993
  8
0
 10
82.1962163866310647
 20
158.9581965274271909
 30
0.0
  0
VERTEX
  5
16994
  8
0
 10
82.7764490778669
 20
158.8707497204727019
 30
0.0
  0
VERTEX
  5
16995
  8
0
 10
83.3562687715209023
 20
158.7802668451620889
 30
0.0
  0
VERTEX
  5
16996
  8
0
 10
83.9357440304160605
 20
158.6872519272490933
 30
0.0
  0
VERTEX
  5
16997
  8
0
 10
84.5149437415041547
 20
158.5922113752542089
 30
0.0
  0
VERTEX
  5
16998
  8
0
 10
85.0939367917369651
 20
158.4956515976977016
 30
0.0
  0
VERTEX
  5
16999
  8
0
 10
85.6727920680662862
 20
158.3980790031004062
 30
0.0
  0
VERTEX
  5
1699A
  8
0
 10
86.2515784574437987
 20
158.2999999999825889
 30
0.0
  0
SEQEND
  5
1699B
  8
0
  0
POLYLINE
  5
1578E
  8
0
 66
     1
 10
0.0
 20
0.0
 30
0.0
  0
VERTEX
  5
1699C
  8
0
 10
153.1291651245936123
 20
211.7500000000034106
 30
0.0
  0
VERTEX
  5
1699D
  8
0
 10
153.0183904729900917
 20
211.558132675233395
 30
0.0
  0
VERTEX
  5
1699E
  8
0
 10
152.9076269318215964
 20
211.3662845943013906
 30
0.0
  0
VERTEX
  5
1699F
  8
0
 10
152.7968856115228107
 20
211.1744750010450105
 30
0.0
  0
VERTEX
  5
169A0
  8
0
 10
152.686177622529101
 20
210.9827231393022942
 30
0.0
  0
VERTEX
  5
169A1
  8
0
 10
152.5755140752750094
 20
210.7910482529109117
 30
0.0
  0
VERTEX
  5
169A2
  8
0
 10
152.4649060801959024
 20
210.5994695857091017
 30
0.0
  0
VERTEX
  5
169A3
  8
0
 10
152.3543647477264074
 20
210.4080063815343067
 30
0.0
  0
VERTEX
  5
169A4
  8
0
 10
152.2439011883016065
 20
210.2166778842245947
 30
0.0
  0
VERTEX
  5
169A5
  8
0
 10
152.1335259912058859
 20
210.0255024349586108
 30
0.0
  0
VERTEX
  5
169A6
  8
0
 10
152.0232388415547859
 20
209.8344794883404916
 30
0.0
  0
VERTEX
  5
169A7
  8
0
 10
151.9130290896906104
 20
209.6435905986218131
 30
0.0
  0
VERTEX
  5
169A8
  8
0
 10
151.8028856787863958
 20
209.4528166148166974
 30
0.0
  0
VERTEX
  5
169A9
  8
0
 10
151.6927975520156053
 20
209.2621383859396929
 30
0.0
  0
VERTEX
  5
169AA
  8
0
 10
151.5827536525515882
 20
209.0715367610052056
 30
0.0
  0
VERTEX
  5
169AB
  8
0
 10
151.4727429235676084
 20
208.8809925890274997
 30
0.0
  0
VERTEX
  5
169AC
  8
0
 10
151.3627543082369868
 20
208.6904867190210098
 30
0.0
  0
VERTEX
  5
169AD
  8
0
 10
151.2527767497329876
 20
208.5
 30
0.0
  0
SEQEND
  5
169AE
  8
0
  0
POLYLINE
  5
1578F
  8
0
 66
     1
 10
0.0
 20
0.0
 30
0.0
  0
VERTEX
  5
169AF
  8
0
 10
151.2527767497329876
 20
208.5000000000001137
 30
0.0
  0
VERTEX
  5
169B0
  8
0
 10
151.0328242150351912
 20
208.5
 30
0.0
  0
VERTEX
  5
169B1
  8
0
 10
150.8128494281590122
 20
208.499999999999801
 30
0.0
  0
VERTEX
  5
169B2
  8
0
 10
150.5928301369251017
 20
208.4999999999996874
 30
0.0
  0
VERTEX
  5
169B3
  8
0
 10
150.3727440891549918
 20
208.4999999999996021
 30
0.0
  0
VERTEX
  5
169B4
  8
0
 10
150.1525690326699021
 20
208.4999999999994884
 30
0.0
  0
VERTEX
  5
169B5
  8
0
 10
149.9322827152911941
 20
208.4999999999996021
 30
0.0
  0
VERTEX
  5
169B6
  8
0
 10
149.7118628848398885
 20
208.4999999999996874
 30
0.0
  0
VERTEX
  5
169B7
  8
0
 10
149.4912872891374036
 20
208.5
 30
0.0
  0
VERTEX
  5
169B8
  8
0
 10
149.2705347026027027
 20
208.5000000000003979
 30
0.0
  0
VERTEX
  5
169B9
  8
0
 10
149.0496056662204865
 20
208.5000000000009095
 30
0.0
  0
VERTEX
  5
169BA
  8
0
 10
148.8285215092610088
 20
208.5000000000015064
 30
0.0
  0
VERTEX
  5
169BB
  8
0
 10
148.6073043918067071
 20
208.5000000000021885
 30
0.0
  0
VERTEX
  5
169BC
  8
0
 10
148.3859764739401896
 20
208.500000000002899
 30
0.0
  0
VERTEX
  5
169BD
  8
0
 10
148.1645599157440074
 20
208.5000000000038085
 30
0.0
  0
VERTEX
  5
169BE
  8
0
 10
147.9430768773002001
 20
208.5000000000046896
 30
0.0
  0
VERTEX
  5
169BF
  8
0
 10
147.7215495186914893
 20
208.5000000000055991
 30
0.0
  0
VERTEX
  5
169C0
  8
0
 10
147.5000000000003979
 20
208.5000000000063949
 30
0.0
  0
SEQEND
  5
169C1
  8
0
  0
POLYLINE
  5
15790
  8
0
 66
     1
 10
0.0
 20
0.0
 30
0.0
  0
VERTEX
  5
169C2
  8
0
 10
147.5000000000003126
 20
208.5000000000063949
 30
0.0
  0
VERTEX
  5
169C3
  8
0
 10
147.2784506967915945
 20
208.5000000000055138
 30
0.0
  0
VERTEX
  5
169C4
  8
0
 10
147.0569236144530123
 20
208.5000000000046043
 30
0.0
  0
VERTEX
  5
169C5
  8
0
 10
146.8354409738541051
 20
208.5000000000036948
 30
0.0
  0
VERTEX
  5
169C6
  8
0
 10
146.6140249958648951
 20
208.500000000002899
 30
0.0
  0
VERTEX
  5
169C7
  8
0
 10
146.3926979013556036
 20
208.5000000000021032
 30
0.0
  0
VERTEX
  5
169C8
  8
0
 10
146.1714819111961106
 20
208.5000000000013074
 30
0.0
  0
VERTEX
  5
169C9
  8
0
 10
145.950399246256012
 20
208.5000000000007958
 30
0.0
  0
VERTEX
  5
169CA
  8
0
 10
145.729472127405387
 20
208.5000000000003126
 30
0.0
  0
VERTEX
  5
169CB
  8
0
 10
145.508721733213406
 20
208.4999999999998863
 30
0.0
  0
VERTEX
  5
169CC
  8
0
 10
145.2881474339108934
 20
208.4999999999996874
 30
0.0
  0
VERTEX
  5
169CD
  8
0
 10
145.0677279301820022
 20
208.4999999999996021
 30
0.0
  0
VERTEX
  5
169CE
  8
0
 10
144.8474411083736868
 20
208.4999999999994884
 30
0.0
  0
VERTEX
  5
169CF
  8
0
 10
144.6272648548321058
 20
208.4999999999996021
 30
0.0
  0
VERTEX
  5
169D0
  8
0
 10
144.4071770559042136
 20
208.4999999999996874
 30
0.0
  0
VERTEX
  5
169D1
  8
0
 10
144.1871555979363961
 20
208.499999999999801
 30
0.0
  0
VERTEX
  5
169D2
  8
0
 10
143.9671783672752952
 20
208.5
 30
0.0
  0
VERTEX
  5
169D3
  8
0
 10
143.7472232502678082
 20
208.5000000000001137
 30
0.0
  0
SEQEND
  5
169D4
  8
0
  0
POLYLINE
  5
15791
  8
0
 66
     1
 10
0.0
 20
0.0
 30
0.0
  0
VERTEX
  5
169D5
  8
0
 10
143.7472232502678082
 20
208.5000000000001137
 30
0.0
  0
VERTEX
  5
169D6
  8
0
 10
143.6372469829186116
 20
208.6904844826750036
 30
0.0
  0
VERTEX
  5
169D7
  8
0
 10
143.5272595894805079
 20
208.8809882363019028
 30
0.0
  0
VERTEX
  5
169D8
  8
0
 10
143.4172499438633963
 20
209.0715305318329911
 30
0.0
  0
VERTEX
  5
169D9
  8
0
 10
143.307206919978313
 20
209.2621306402203061
 30
0.0
  0
VERTEX
  5
169DA
  8
0
 10
143.1971193917358107
 20
209.4528078324159992
 30
0.0
  0
VERTEX
  5
169DB
  8
0
 10
143.0869762330463004
 20
209.6435813793721934
 30
0.0
  0
VERTEX
  5
169DC
  8
0
 10
142.9767663178209034
 20
209.8344705520410116
 30
0.0
  0
VERTEX
  5
169DD
  8
0
 10
142.8664785199698031
 20
210.0254946213744063
 30
0.0
  0
VERTEX
  5
169DE
  8
0
 10
142.7561022267028079
 20
210.216671969264695
 30
0.0
  0
VERTEX
  5
169DF
  8
0
 10
142.6456377085121119
 20
210.4080021272056058
 30
0.0
  0
VERTEX
  5
169E0
  8
0
 10
142.535095630032913
 20
210.5994666235069133
 30
0.0
  0
VERTEX
  5
169E1
  8
0
 10
142.424487071306487
 20
210.7910462669746892
 30
0.0
  0
VERTEX
  5
169E2
  8
0
 10
142.3138231123739104
 20
210.9827218664142094
 30
0.0
  0
VERTEX
  5
169E3
  8
0
 10
142.2031148332764019
 20
211.1744742306312048
 30
0.0
  0
VERTEX
  5
169E4
  8
0
 10
142.0923733140554077
 20
211.3662841684312923
 30
0.0
  0
VERTEX
  5
169E5
  8
0
 10
141.9816096347518055
 20
211.5581324886200889
 30
0.0
  0
VERTEX
  5
169E6
  8
0
 10
141.8708348754070983
 20
211.7500000000034106
 30
0.0
  0
SEQEND
  5
169E7
  8
0
  0
POLYLINE
  5
15792
  8
0
 66
     1
 10
0.0
 20
0.0
 30
0.0
  0
VERTEX
  5
169E8
  8
0
 10
153.1291651245936123
 20
218.249999999996902
 30
0.0
  0
VERTEX
  5
169E9
  8
0
 10
153.2399397761988098
 20
218.0581326752279949
 30
0.0
  0
VERTEX
  5
169EA
  8
0
 10
153.3507033173688967
 20
217.8662845942969
 30
0.0
  0
VERTEX
  5
169EB
  8
0
 10
153.4614446376693024
 20
217.6744750010414009
 30
0.0
  0
VERTEX
  5
169EC
  8
0
 10
153.5721526266644048
 20
217.4827231392995941
 30
0.0
  0
VERTEX
  5
169ED
  8
0
 10
153.6828161739198038
 20
217.2910482529090928
 30
0.0
  0
VERTEX
  5
169EE
  8
0
 10
153.7934241690003034
 20
217.0994695857077943
 30
0.0
  0
VERTEX
  5
169EF
  8
0
 10
153.9039655014709069
 20
216.9080063815337098
 30
0.0
  0
VERTEX
  5
169F0
  8
0
 10
154.0144290608965036
 20
216.7166778842245094
 30
0.0
  0
VERTEX
  5
169F1
  8
0
 10
154.1248042579929916
 20
216.525502434958895
 30
0.0
  0
VERTEX
  5
169F2
  8
0
 10
154.2350914076444042
 20
216.3344794883410884
 30
0.0
  0
VERTEX
  5
169F3
  8
0
 10
154.3453011595088071
 20
216.14359059862241
 30
0.0
  0
VERTEX
  5
169F4
  8
0
 10
154.4554445704131922
 20
215.952816614817408
 30
0.0
  0
VERTEX
  5
169F5
  8
0
 10
154.5655326971838122
 20
215.7621383859404034
 30
0.0
  0
VERTEX
  5
169F6
  8
0
 10
154.6755765966478009
 20
215.5715367610056887
 30
0.0
  0
VERTEX
  5
169F7
  8
0
 10
154.7855873256316102
 20
215.3809925890278123
 30
0.0
  0
VERTEX
  5
169F8
  8
0
 10
154.8955759409618906
 20
215.1904867190212087
 30
0.0
  0
VERTEX
  5
169F9
  8
0
 10
155.0055534994656057
 20
215.000000000000199
 30
0.0
  0
SEQEND
  5
169FA
  8
0
  0
POLYLINE
  5
15793
  8
0
 66
     1
 10
0.0
 20
0.0
 30
0.0
  0
VERTEX
  5
169FB
  8
0
 10
155.0055534994656057
 20
215.000000000000199
 30
0.0
  0
VERTEX
  5
169FC
  8
0
 10
154.895577232116807
 20
214.8095155173251953
 30
0.0
  0
VERTEX
  5
169FD
  8
0
 10
154.7855898386789022
 20
214.6190117636980972
 30
0.0
  0
VERTEX
  5
169FE
  8
0
 10
154.6755801930619896
 20
214.4284694681668952
 30
0.0
  0
VERTEX
  5
169FF
  8
0
 10
154.5655371691769915
 20
214.2378693597794097
 30
0.0
  0
VERTEX
  5
16A00
  8
0
 10
154.4554496409346029
 20
214.0471921675836029
 30
0.0
  0
VERTEX
  5
16A01
  8
0
 10
154.3453064822450926
 20
213.8564186206274087
 30
0.0
  0
VERTEX
  5
16A02
  8
0
 10
154.2350965670192977
 20
213.6655294479587894
 30
0.0
  0
VERTEX
  5
16A03
  8
0
 10
154.1248087691679132
 20
213.4745053786255937
 30
0.0
  0
VERTEX
  5
16A04
  8
0
 10
154.0144324759002927
 20
213.2833280307357029
 30
0.0
  0
VERTEX
  5
16A05
  8
0
 10
153.9039679577088009
 20
213.091997872795389
 30
0.0
  0
VERTEX
  5
16A06
  8
0
 10
153.7934258792284083
 20
212.9005333764945931
 30
0.0
  0
VERTEX
  5
16A07
  8
0
 10
153.6828173205007033
 20
212.708953733027613
 30
0.0
  0
VERTEX
  5
16A08
  8
0
 10
153.5721533615667056
 20
212.5172781335888033
 30
0.0
  0
VERTEX
  5
16A09
  8
0
 10
153.4614450824678045
 20
212.3255257693728026
 30
0.0
  0
VERTEX
  5
16A0A
  8
0
 10
153.3507035632451903
 20
212.133715831573511
 30
0.0
  0
VERTEX
  5
16A0B
  8
0
 10
153.2399398839401101
 20
211.9418675113855954
 30
0.0
  0
VERTEX
  5
16A0C
  8
0
 10
153.1291651245936123
 20
211.7500000000034106
 30
0.0
  0
SEQEND
  5
16A0D
  8
0
  0
POLYLINE
  5
15794
  8
0
 66
     1
 10
0.0
 20
0.0
 30
0.0
  0
VERTEX
  5
16A0E
  8
0
 10
151.2527767497329876
 20
221.5000000000001137
 30
0.0
  0
VERTEX
  5
16A0F
  8
0
 10
151.3627530170820137
 20
221.309515517325309
 30
0.0
  0
VERTEX
  5
16A10
  8
0
 10
151.4727404105202027
 20
221.1190117636984098
 30
0.0
  0
VERTEX
  5
16A11
  8
0
 10
151.5827500561372005
 20
220.9284694681672931
 30
0.0
  0
VERTEX
  5
16A12
  8
0
 10
151.6927930800225113
 20
220.7378693597800066
 30
0.0
  0
VERTEX
  5
16A13
  8
0
 10
151.8028806082650135
 20
220.5471921675841998
 30
0.0
  0
VERTEX
  5
16A14
  8
0
 10
151.9130237669544101
 20
220.3564186206280056
 30
0.0
  0
VERTEX
  5
16A15
  8
0
 10
152.0232336821798071
 20
220.165529447959301
 30
0.0
  0
VERTEX
  5
16A16
  8
0
 10
152.1335214800309075
 20
219.9745053786259064
 30
0.0
  0
VERTEX
  5
16A17
  8
0
 10
152.2438977732979026
 20
219.7833280307355892
 30
0.0
  0
VERTEX
  5
16A18
  8
0
 10
152.3543622914885987
 20
219.5919978727947068
 30
0.0
  0
VERTEX
  5
16A19
  8
0
 10
152.4649043699677975
 20
219.4005333764933141
 30
0.0
  0
VERTEX
  5
16A1A
  8
0
 10
152.5755129286941951
 20
219.2089537330255951
 30
0.0
  0
VERTEX
  5
16A1B
  8
0
 10
152.6861768876268002
 20
219.0172781335861032
 30
0.0
  0
VERTEX
  5
16A1C
  8
0
 10
152.7968851667243086
 20
218.8255257693691078
 30
0.0
  0
VERTEX
  5
16A1D
  8
0
 10
152.9076266859453028
 20
218.6337158315689067
 30
0.0
  0
VERTEX
  5
16A1E
  8
0
 10
153.018390365248905
 20
218.4418675113801953
 30
0.0
  0
VERTEX
  5
16A1F
  8
0
 10
153.1291651245936123
 20
218.249999999996902
 30
0.0
  0
SEQEND
  5
16A20
  8
0
  0
POLYLINE
  5
15795
  8
0
 66
     1
 10
0.0
 20
0.0
 30
0.0
  0
VERTEX
  5
16A21
  8
0
 10
147.5000000000003979
 20
221.4999999999938041
 30
0.0
  0
VERTEX
  5
16A22
  8
0
 10
147.7215493032090876
 20
221.4999999999947136
 30
0.0
  0
VERTEX
  5
16A23
  8
0
 10
147.9430763855478119
 20
221.4999999999957083
 30
0.0
  0
VERTEX
  5
16A24
  8
0
 10
148.1645590261464918
 20
221.4999999999965041
 30
0.0
  0
VERTEX
  5
16A25
  8
0
 10
148.3859750041357017
 20
221.4999999999974136
 30
0.0
  0
VERTEX
  5
16A26
  8
0
 10
148.6073020986449933
 20
221.4999999999980957
 30
0.0
  0
VERTEX
  5
16A27
  8
0
 10
148.8285180888047137
 20
221.4999999999988916
 30
0.0
  0
VERTEX
  5
16A28
  8
0
 10
149.0496007537448122
 20
221.4999999999994884
 30
0.0
  0
VERTEX
  5
16A29
  8
0
 10
149.2705278725954088
 20
221.5
 30
0.0
  0
VERTEX
  5
16A2A
  8
0
 10
149.4912782667873898
 20
221.5000000000003126
 30
0.0
  0
VERTEX
  5
16A2B
  8
0
 10
149.7118525660899024
 20
221.5000000000005969
 30
0.0
  0
VERTEX
  5
16A2C
  8
0
 10
149.9322720698185947
 20
221.5000000000007105
 30
0.0
  0
VERTEX
  5
16A2D
  8
0
 10
150.152558891627109
 20
221.5000000000007958
 30
0.0
  0
VERTEX
  5
16A2E
  8
0
 10
150.37273514516869
 20
221.5000000000007105
 30
0.0
  0
VERTEX
  5
16A2F
  8
0
 10
150.5928229440966106
 20
221.5000000000007105
 30
0.0
  0
VERTEX
  5
16A30
  8
0
 10
150.812844402064286
 20
221.5000000000005116
 30
0.0
  0
VERTEX
  5
16A31
  8
0
 10
151.0328216327253017
 20
221.5000000000003979
 30
0.0
  0
VERTEX
  5
16A32
  8
0
 10
151.2527767497329876
 20
221.500000000000199
 30
0.0
  0
SEQEND
  5
16A33
  8
0
  0
POLYLINE
  5
15796
  8
0
 66
     1
 10
0.0
 20
0.0
 30
0.0
  0
VERTEX
  5
16A34
  8
0
 10
141.8708348754070983
 20
211.7500000000034106
 30
0.0
  0
VERTEX
  5
16A35
  8
0
 10
141.7600602238019007
 20
211.9418673247722893
 30
0.0
  0
VERTEX
  5
16A36
  8
0
 10
141.6492966826317002
 20
212.1337154057034127
 30
0.0
  0
VERTEX
  5
16A37
  8
0
 10
141.5385553623314934
 20
212.3255249989587981
 30
0.0
  0
VERTEX
  5
16A38
  8
0
 10
141.427847373336192
 20
212.5172768607006049
 30
0.0
  0
VERTEX
  5
16A39
  8
0
 10
141.3171838260809068
 20
212.7089517470911915
 30
0.0
  0
VERTEX
  5
16A3A
  8
0
 10
141.2065758310004071
 20
212.9005304142924899
 30
0.0
  0
VERTEX
  5
16A3B
  8
0
 10
141.0960344985298889
 20
213.0919936184666028
 30
0.0
  0
VERTEX
  5
16A3C
  8
0
 10
140.9855709391042069
 20
213.2833221157758032
 30
0.0
  0
VERTEX
  5
16A3D
  8
0
 10
140.8751957420078043
 20
213.4744975650413892
 30
0.0
  0
VERTEX
  5
16A3E
  8
0
 10
140.7649085923563064
 20
213.6655205116593095
 30
0.0
  0
VERTEX
  5
16A3F
  8
0
 10
140.6546988404917897
 20
213.8564094013779879
 30
0.0
  0
VERTEX
  5
16A40
  8
0
 10
140.5445554295876036
 20
214.0471833851829047
 30
0.0
  0
VERTEX
  5
16A41
  8
0
 10
140.4344673028168984
 20
214.2378616140599092
 30
0.0
  0
VERTEX
  5
16A42
  8
0
 10
140.3244234033529096
 20
214.4284632389945955
 30
0.0
  0
VERTEX
  5
16A43
  8
0
 10
140.2144126743692141
 20
214.6190074109723867
 30
0.0
  0
VERTEX
  5
16A44
  8
0
 10
140.1044240590389052
 20
214.8095132809791892
 30
0.0
  0
VERTEX
  5
16A45
  8
0
 10
139.9944465005353038
 20
215.000000000000199
 30
0.0
  0
SEQEND
  5
16A46
  8
0
  0
POLYLINE
  5
15797
  8
0
 66
     1
 10
0.0
 20
0.0
 30
0.0
  0
VERTEX
  5
16A47
  8
0
 10
139.9944465005353038
 20
215.000000000000199
 30
0.0
  0
VERTEX
  5
16A48
  8
0
 10
140.1044227678839889
 20
215.1904844826752026
 30
0.0
  0
VERTEX
  5
16A49
  8
0
 10
140.2144101613220073
 20
215.3809882363023007
 30
0.0
  0
VERTEX
  5
16A4A
  8
0
 10
140.3244198069386073
 20
215.5715305318335879
 30
0.0
  0
VERTEX
  5
16A4B
  8
0
 10
140.4344628308236906
 20
215.7621306402209882
 30
0.0
  0
VERTEX
  5
16A4C
  8
0
 10
140.5445503590661929
 20
215.952807832416795
 30
0.0
  0
VERTEX
  5
16A4D
  8
0
 10
140.6546935177557032
 20
216.1435813793727903
 30
0.0
  0
VERTEX
  5
16A4E
  8
0
 10
140.7649034329814128
 20
216.3344705520414948
 30
0.0
  0
VERTEX
  5
16A4F
  8
0
 10
140.8751912308329111
 20
216.5254946213746052
 30
0.0
  0
VERTEX
  5
16A50
  8
0
 10
140.9855675241005883
 20
216.7166719692644961
 30
0.0
  0
VERTEX
  5
16A51
  8
0
 10
141.0960320422921086
 20
216.9080021272048953
 30
0.0
  0
VERTEX
  5
16A52
  8
0
 10
141.2065741207723875
 20
217.0994666235056911
 30
0.0
  0
VERTEX
  5
16A53
  8
0
 10
141.3171826795000925
 20
217.2910462669726996
 30
0.0
  0
VERTEX
  5
16A54
  8
0
 10
141.4278466384340049
 20
217.4827218664113104
 30
0.0
  0
VERTEX
  5
16A55
  8
0
 10
141.5385549175329913
 20
217.67447423062751
 30
0.0
  0
VERTEX
  5
16A56
  8
0
 10
141.6492964367556056
 20
217.8662841684268017
 30
0.0
  0
VERTEX
  5
16A57
  8
0
 10
141.7600601160606004
 20
218.0581324886146888
 30
0.0
  0
VERTEX
  5
16A58
  8
0
 10
141.8708348754070983
 20
218.249999999996902
 30
0.0
  0
SEQEND
  5
16A59
  8
0
  0
POLYLINE
  5
15798
  8
0
 66
     1
 10
0.0
 20
0.0
 30
0.0
  0
VERTEX
  5
16A5A
  8
0
 10
141.8708348754070983
 20
218.249999999996902
 30
0.0
  0
VERTEX
  5
16A5B
  8
0
 10
141.9816095270105905
 20
218.4418673247668892
 30
0.0
  0
VERTEX
  5
16A5C
  8
0
 10
142.0923730681791994
 20
218.6337154056988936
 30
0.0
  0
VERTEX
  5
16A5D
  8
0
 10
142.2031143884777862
 20
218.8255249989551885
 30
0.0
  0
VERTEX
  5
16A5E
  8
0
 10
142.3138223774716096
 20
219.0172768606979901
 30
0.0
  0
VERTEX
  5
16A5F
  8
0
 10
142.4244859247257011
 20
219.2089517470892019
 30
0.0
  0
VERTEX
  5
16A60
  8
0
 10
142.5350939198048081
 20
219.4005304142912109
 30
0.0
  0
VERTEX
  5
16A61
  8
0
 10
142.6456352522743032
 20
219.5919936184658923
 30
0.0
  0
VERTEX
  5
16A62
  8
0
 10
142.7560988116991894
 20
219.7833221157756896
 30
0.0
  0
VERTEX
  5
16A63
  8
0
 10
142.8664740087947962
 20
219.9744975650417018
 30
0.0
  0
VERTEX
  5
16A64
  8
0
 10
142.9767611584458109
 20
220.1655205116597074
 30
0.0
  0
VERTEX
  5
16A65
  8
0
 10
143.0869709103101002
 20
220.3564094013784995
 30
0.0
  0
VERTEX
  5
16A66
  8
0
 10
143.1971143212144
 20
220.5471833851835868
 30
0.0
  0
VERTEX
  5
16A67
  8
0
 10
143.3072024479851052
 20
220.7378616140605061
 30
0.0
  0
VERTEX
  5
16A68
  8
0
 10
143.4172463474490939
 20
220.9284632389951923
 30
0.0
  0
VERTEX
  5
16A69
  8
0
 10
143.5272570764331022
 20
221.1190074109728982
 30
0.0
  0
VERTEX
  5
16A6A
  8
0
 10
143.6372456917636953
 20
221.3095132809791892
 30
0.0
  0
VERTEX
  5
16A6B
  8
0
 10
143.7472232502678082
 20
221.500000000000199
 30
0.0
  0
SEQEND
  5
16A6C
  8
0
  0
POLYLINE
  5
15799
  8
0
 66
     1
 10
0.0
 20
0.0
 30
0.0
  0
VERTEX
  5
16A6D
  8
0
 10
143.7472232502678082
 20
221.500000000000199
 30
0.0
  0
VERTEX
  5
16A6E
  8
0
 10
143.9671757849654057
 20
221.5000000000003979
 30
0.0
  0
VERTEX
  5
16A6F
  8
0
 10
144.1871505718418121
 20
221.5000000000005116
 30
0.0
  0
VERTEX
  5
16A70
  8
0
 10
144.4071698630756089
 20
221.5000000000007105
 30
0.0
  0
VERTEX
  5
16A71
  8
0
 10
144.6272559108456903
 20
221.5000000000007958
 30
0.0
  0
VERTEX
  5
16A72
  8
0
 10
144.8474309673308085
 20
221.5000000000007958
 30
0.0
  0
VERTEX
  5
16A73
  8
0
 10
145.0677172847096017
 20
221.5000000000007105
 30
0.0
  0
VERTEX
  5
16A74
  8
0
 10
145.2881371151609073
 20
221.5000000000005969
 30
0.0
  0
VERTEX
  5
16A75
  8
0
 10
145.5087127108633922
 20
221.5000000000003126
 30
0.0
  0
VERTEX
  5
16A76
  8
0
 10
145.7294652973980078
 20
221.5
 30
0.0
  0
VERTEX
  5
16A77
  8
0
 10
145.9503943337803094
 20
221.4999999999994031
 30
0.0
  0
VERTEX
  5
16A78
  8
0
 10
146.171478490739787
 20
221.4999999999988916
 30
0.0
  0
VERTEX
  5
16A79
  8
0
 10
146.3926956081940034
 20
221.4999999999980957
 30
0.0
  0
VERTEX
  5
16A7A
  8
0
 10
146.6140235260604072
 20
221.4999999999972999
 30
0.0
  0
VERTEX
  5
16A7B
  8
0
 10
146.8354400842569021
 20
221.4999999999965041
 30
0.0
  0
VERTEX
  5
16A7C
  8
0
 10
147.0569231227005957
 20
221.4999999999955946
 30
0.0
  0
VERTEX
  5
16A7D
  8
0
 10
147.2784504813091928
 20
221.4999999999947136
 30
0.0
  0
VERTEX
  5
16A7E
  8
0
 10
147.5000000000003979
 20
221.4999999999938041
 30
0.0
  0
SEQEND
  5
16A7F
  8
0
  0
POLYLINE
  5
1579A
  8
0
 66
     1
 10
0.0
 20
0.0
 30
0.0
  0
VERTEX
  5
16A80
  8
0
 10
258.129165124593726
 20
211.7500000000034106
 30
0.0
  0
VERTEX
  5
16A81
  8
0
 10
258.0183904729901769
 20
211.558132675233395
 30
0.0
  0
VERTEX
  5
16A82
  8
0
 10
257.9076269318215964
 20
211.3662845943013906
 30
0.0
  0
VERTEX
  5
16A83
  8
0
 10
257.7968856115230096
 20
211.1744750010450105
 30
0.0
  0
VERTEX
  5
16A84
  8
0
 10
257.6861776225292147
 20
210.9827231393022942
 30
0.0
  0
VERTEX
  5
16A85
  8
0
 10
257.5755140752751799
 20
210.7910482529109117
 30
0.0
  0
VERTEX
  5
16A86
  8
0
 10
257.464906080195874
 20
210.5994695857091017
 30
0.0
  0
VERTEX
  5
16A87
  8
0
 10
257.3543647477264926
 20
210.4080063815343067
 30
0.0
  0
VERTEX
  5
16A88
  8
0
 10
257.2439011883016065
 20
210.2166778842245947
 30
0.0
  0
VERTEX
  5
16A89
  8
0
 10
257.1335259912057722
 20
210.0255024349586108
 30
0.0
  0
VERTEX
  5
16A8A
  8
0
 10
257.0232388415548144
 20
209.8344794883404916
 30
0.0
  0
VERTEX
  5
16A8B
  8
0
 10
256.9130290896906104
 20
209.6435905986218131
 30
0.0
  0
VERTEX
  5
16A8C
  8
0
 10
256.8028856787863106
 20
209.4528166148166974
 30
0.0
  0
VERTEX
  5
16A8D
  8
0
 10
256.6927975520155769
 20
209.2621383859396929
 30
0.0
  0
VERTEX
  5
16A8E
  8
0
 10
256.5827536525516166
 20
209.0715367610052056
 30
0.0
  0
VERTEX
  5
16A8F
  8
0
 10
256.47274292356758
 20
208.8809925890274997
 30
0.0
  0
VERTEX
  5
16A90
  8
0
 10
256.3627543082370153
 20
208.6904867190210098
 30
0.0
  0
VERTEX
  5
16A91
  8
0
 10
256.252776749733016
 20
208.5
 30
0.0
  0
SEQEND
  5
16A92
  8
0
  0
POLYLINE
  5
1579B
  8
0
 66
     1
 10
0.0
 20
0.0
 30
0.0
  0
VERTEX
  5
16A93
  8
0
 10
256.252776749733016
 20
208.5000000000001137
 30
0.0
  0
VERTEX
  5
16A94
  8
0
 10
256.0328242150354185
 20
208.5
 30
0.0
  0
VERTEX
  5
16A95
  8
0
 10
255.8128494281590122
 20
208.499999999999801
 30
0.0
  0
VERTEX
  5
16A96
  8
0
 10
255.5928301369251017
 20
208.4999999999996874
 30
0.0
  0
VERTEX
  5
16A97
  8
0
 10
255.3727440891551907
 20
208.4999999999996021
 30
0.0
  0
VERTEX
  5
16A98
  8
0
 10
255.1525690326699021
 20
208.4999999999994884
 30
0.0
  0
VERTEX
  5
16A99
  8
0
 10
254.9322827152911941
 20
208.4999999999996021
 30
0.0
  0
VERTEX
  5
16A9A
  8
0
 10
254.7118628848398885
 20
208.4999999999996874
 30
0.0
  0
VERTEX
  5
16A9B
  8
0
 10
254.4912872891374036
 20
208.5
 30
0.0
  0
VERTEX
  5
16A9C
  8
0
 10
254.2705347026027027
 20
208.5000000000003979
 30
0.0
  0
VERTEX
  5
16A9D
  8
0
 10
254.0496056662204865
 20
208.5000000000009095
 30
0.0
  0
VERTEX
  5
16A9E
  8
0
 10
253.8285215092610088
 20
208.5000000000015064
 30
0.0
  0
VERTEX
  5
16A9F
  8
0
 10
253.6073043918067924
 20
208.5000000000021885
 30
0.0
  0
VERTEX
  5
16AA0
  8
0
 10
253.3859764739403033
 20
208.500000000002899
 30
0.0
  0
VERTEX
  5
16AA1
  8
0
 10
253.1645599157438085
 20
208.5000000000038085
 30
0.0
  0
VERTEX
  5
16AA2
  8
0
 10
252.9430768773002001
 20
208.5000000000046896
 30
0.0
  0
VERTEX
  5
16AA3
  8
0
 10
252.7215495186914893
 20
208.5000000000055991
 30
0.0
  0
VERTEX
  5
16AA4
  8
0
 10
252.5000000000003126
 20
208.5000000000063949
 30
0.0
  0
SEQEND
  5
16AA5
  8
0
  0
POLYLINE
  5
1579C
  8
0
 66
     1
 10
0.0
 20
0.0
 30
0.0
  0
VERTEX
  5
16AA6
  8
0
 10
252.5000000000003126
 20
208.5000000000063949
 30
0.0
  0
VERTEX
  5
16AA7
  8
0
 10
252.2784506967917082
 20
208.5000000000055138
 30
0.0
  0
VERTEX
  5
16AA8
  8
0
 10
252.0569236144530123
 20
208.5000000000046043
 30
0.0
  0
VERTEX
  5
16AA9
  8
0
 10
251.8354409738541051
 20
208.5000000000036948
 30
0.0
  0
VERTEX
  5
16AAA
  8
0
 10
251.6140249958650941
 20
208.500000000002899
 30
0.0
  0
VERTEX
  5
16AAB
  8
0
 10
251.3926979013556036
 20
208.5000000000021032
 30
0.0
  0
VERTEX
  5
16AAC
  8
0
 10
251.1714819111961106
 20
208.5000000000013074
 30
0.0
  0
VERTEX
  5
16AAD
  8
0
 10
250.950399246256012
 20
208.5000000000007958
 30
0.0
  0
VERTEX
  5
16AAE
  8
0
 10
250.729472127405387
 20
208.5000000000003126
 30
0.0
  0
VERTEX
  5
16AAF
  8
0
 10
250.5087217332134912
 20
208.4999999999998863
 30
0.0
  0
VERTEX
  5
16AB0
  8
0
 10
250.2881474339108934
 20
208.4999999999996874
 30
0.0
  0
VERTEX
  5
16AB1
  8
0
 10
250.0677279301820874
 20
208.4999999999996021
 30
0.0
  0
VERTEX
  5
16AB2
  8
0
 10
249.8474411083736868
 20
208.4999999999994884
 30
0.0
  0
VERTEX
  5
16AB3
  8
0
 10
249.6272648548321058
 20
208.4999999999996021
 30
0.0
  0
VERTEX
  5
16AB4
  8
0
 10
249.4071770559042136
 20
208.4999999999996874
 30
0.0
  0
VERTEX
  5
16AB5
  8
0
 10
249.1871555979363961
 20
208.499999999999801
 30
0.0
  0
VERTEX
  5
16AB6
  8
0
 10
248.9671783672754088
 20
208.5
 30
0.0
  0
VERTEX
  5
16AB7
  8
0
 10
248.7472232502678082
 20
208.5000000000001137
 30
0.0
  0
SEQEND
  5
16AB8
  8
0
  0
POLYLINE
  5
1579D
  8
0
 66
     1
 10
0.0
 20
0.0
 30
0.0
  0
VERTEX
  5
16AB9
  8
0
 10
248.7472232502678082
 20
208.5000000000001137
 30
0.0
  0
VERTEX
  5
16ABA
  8
0
 10
248.6372469829188105
 20
208.6904844826750036
 30
0.0
  0
VERTEX
  5
16ABB
  8
0
 10
248.5272595894805079
 20
208.8809882363019028
 30
0.0
  0
VERTEX
  5
16ABC
  8
0
 10
248.4172499438633963
 20
209.0715305318329911
 30
0.0
  0
VERTEX
  5
16ABD
  8
0
 10
248.307206919978313
 20
209.2621306402203061
 30
0.0
  0
VERTEX
  5
16ABE
  8
0
 10
248.1971193917358107
 20
209.4528078324159992
 30
0.0
  0
VERTEX
  5
16ABF
  8
0
 10
248.0869762330463004
 20
209.6435813793721934
 30
0.0
  0
VERTEX
  5
16AC0
  8
0
 10
247.9767663178209034
 20
209.8344705520410116
 30
0.0
  0
VERTEX
  5
16AC1
  8
0
 10
247.8664785199698883
 20
210.0254946213744063
 30
0.0
  0
VERTEX
  5
16AC2
  8
0
 10
247.7561022267028932
 20
210.216671969264695
 30
0.0
  0
VERTEX
  5
16AC3
  8
0
 10
247.6456377085121972
 20
210.4080021272056058
 30
0.0
  0
VERTEX
  5
16AC4
  8
0
 10
247.535095630032913
 20
210.5994666235069133
 30
0.0
  0
VERTEX
  5
16AC5
  8
0
 10
247.4244870713064017
 20
210.7910462669746892
 30
0.0
  0
VERTEX
  5
16AC6
  8
0
 10
247.3138231123739104
 20
210.9827218664142094
 30
0.0
  0
VERTEX
  5
16AC7
  8
0
 10
247.2031148332764872
 20
211.1744742306312048
 30
0.0
  0
VERTEX
  5
16AC8
  8
0
 10
247.092373314055294
 20
211.3662841684312923
 30
0.0
  0
VERTEX
  5
16AC9
  8
0
 10
246.9816096347518055
 20
211.5581324886200889
 30
0.0
  0
VERTEX
  5
16ACA
  8
0
 10
246.870834875407013
 20
211.7500000000034106
 30
0.0
  0
SEQEND
  5
16ACB
  8
0
  0
POLYLINE
  5
1579E
  8
0
 66
     1
 10
0.0
 20
0.0
 30
0.0
  0
VERTEX
  5
16ACC
  8
0
 10
258.129165124593726
 20
218.249999999996902
 30
0.0
  0
VERTEX
  5
16ACD
  8
0
 10
258.2399397761989235
 20
218.0581326752279949
 30
0.0
  0
VERTEX
  5
16ACE
  8
0
 10
258.350703317368982
 20
217.8662845942969
 30
0.0
  0
VERTEX
  5
16ACF
  8
0
 10
258.461444637669274
 20
217.6744750010414009
 30
0.0
  0
VERTEX
  5
16AD0
  8
0
 10
258.5721526266644901
 20
217.4827231392995941
 30
0.0
  0
VERTEX
  5
16AD1
  8
0
 10
258.6828161739197185
 20
217.2910482529090928
 30
0.0
  0
VERTEX
  5
16AD2
  8
0
 10
258.793424169000275
 20
217.0994695857077943
 30
0.0
  0
VERTEX
  5
16AD3
  8
0
 10
258.9039655014707932
 20
216.9080063815337098
 30
0.0
  0
VERTEX
  5
16AD4
  8
0
 10
259.0144290608964752
 20
216.7166778842245094
 30
0.0
  0
VERTEX
  5
16AD5
  8
0
 10
259.1248042579929916
 20
216.525502434958895
 30
0.0
  0
VERTEX
  5
16AD6
  8
0
 10
259.2350914076444042
 20
216.3344794883410884
 30
0.0
  0
VERTEX
  5
16AD7
  8
0
 10
259.3453011595090061
 20
216.14359059862241
 30
0.0
  0
VERTEX
  5
16AD8
  8
0
 10
259.4554445704130785
 20
215.952816614817408
 30
0.0
  0
VERTEX
  5
16AD9
  8
0
 10
259.5655326971839258
 20
215.7621383859404034
 30
0.0
  0
VERTEX
  5
16ADA
  8
0
 10
259.6755765966477156
 20
215.5715367610056887
 30
0.0
  0
VERTEX
  5
16ADB
  8
0
 10
259.7855873256315817
 20
215.3809925890278123
 30
0.0
  0
VERTEX
  5
16ADC
  8
0
 10
259.8955759409619191
 20
215.1904867190212087
 30
0.0
  0
VERTEX
  5
16ADD
  8
0
 10
260.0055534994655204
 20
215.000000000000199
 30
0.0
  0
SEQEND
  5
16ADE
  8
0
  0
POLYLINE
  5
1579F
  8
0
 66
     1
 10
0.0
 20
0.0
 30
0.0
  0
VERTEX
  5
16ADF
  8
0
 10
260.0055534994655204
 20
215.000000000000199
 30
0.0
  0
VERTEX
  5
16AE0
  8
0
 10
259.895577232116807
 20
214.8095155173251953
 30
0.0
  0
VERTEX
  5
16AE1
  8
0
 10
259.7855898386787885
 20
214.6190117636980972
 30
0.0
  0
VERTEX
  5
16AE2
  8
0
 10
259.6755801930619896
 20
214.4284694681668952
 30
0.0
  0
VERTEX
  5
16AE3
  8
0
 10
259.5655371691772189
 20
214.2378693597794097
 30
0.0
  0
VERTEX
  5
16AE4
  8
0
 10
259.4554496409346029
 20
214.0471921675836029
 30
0.0
  0
VERTEX
  5
16AE5
  8
0
 10
259.3453064822451211
 20
213.8564186206274087
 30
0.0
  0
VERTEX
  5
16AE6
  8
0
 10
259.2350965670194114
 20
213.6655294479587894
 30
0.0
  0
VERTEX
  5
16AE7
  8
0
 10
259.1248087691678847
 20
213.4745053786255937
 30
0.0
  0
VERTEX
  5
16AE8
  8
0
 10
259.0144324759002075
 20
213.2833280307357029
 30
0.0
  0
VERTEX
  5
16AE9
  8
0
 10
258.9039679577086872
 20
213.091997872795389
 30
0.0
  0
VERTEX
  5
16AEA
  8
0
 10
258.7934258792283799
 20
212.9005333764945931
 30
0.0
  0
VERTEX
  5
16AEB
  8
0
 10
258.682817320500817
 20
212.708953733027613
 30
0.0
  0
VERTEX
  5
16AEC
  8
0
 10
258.5721533615667909
 20
212.5172781335888033
 30
0.0
  0
VERTEX
  5
16AED
  8
0
 10
258.461445082467776
 20
212.3255257693728026
 30
0.0
  0
VERTEX
  5
16AEE
  8
0
 10
258.3507035632450766
 20
212.133715831573511
 30
0.0
  0
VERTEX
  5
16AEF
  8
0
 10
258.2399398839401101
 20
211.9418675113855954
 30
0.0
  0
VERTEX
  5
16AF0
  8
0
 10
258.129165124593726
 20
211.7500000000034106
 30
0.0
  0
SEQEND
  5
16AF1
  8
0
  0
POLYLINE
  5
157A0
  8
0
 66
     1
 10
0.0
 20
0.0
 30
0.0
  0
VERTEX
  5
16AF2
  8
0
 10
256.252776749733016
 20
221.5000000000001137
 30
0.0
  0
VERTEX
  5
16AF3
  8
0
 10
256.3627530170820137
 20
221.309515517325309
 30
0.0
  0
VERTEX
  5
16AF4
  8
0
 10
256.4727404105203163
 20
221.1190117636984098
 30
0.0
  0
VERTEX
  5
16AF5
  8
0
 10
256.5827500561372858
 20
220.9284694681672931
 30
0.0
  0
VERTEX
  5
16AF6
  8
0
 10
256.6927930800225113
 20
220.7378693597800066
 30
0.0
  0
VERTEX
  5
16AF7
  8
0
 10
256.8028806082650135
 20
220.5471921675841998
 30
0.0
  0
VERTEX
  5
16AF8
  8
0
 10
256.9130237669543817
 20
220.3564186206280056
 30
0.0
  0
VERTEX
  5
16AF9
  8
0
 10
257.0232336821799208
 20
220.165529447959301
 30
0.0
  0
VERTEX
  5
16AFA
  8
0
 10
257.133521480030879
 20
219.9745053786259064
 30
0.0
  0
VERTEX
  5
16AFB
  8
0
 10
257.2438977732978742
 20
219.7833280307355892
 30
0.0
  0
VERTEX
  5
16AFC
  8
0
 10
257.3543622914887123
 20
219.5919978727947068
 30
0.0
  0
VERTEX
  5
16AFD
  8
0
 10
257.4649043699678259
 20
219.4005333764933141
 30
0.0
  0
VERTEX
  5
16AFE
  8
0
 10
257.5755129286941951
 20
219.2089537330255951
 30
0.0
  0
VERTEX
  5
16AFF
  8
0
 10
257.6861768876268002
 20
219.0172781335861032
 30
0.0
  0
VERTEX
  5
16B00
  8
0
 10
257.7968851667242802
 20
218.8255257693691078
 30
0.0
  0
VERTEX
  5
16B01
  8
0
 10
257.9076266859452744
 20
218.6337158315689067
 30
0.0
  0
VERTEX
  5
16B02
  8
0
 10
258.0183903652488766
 20
218.4418675113801953
 30
0.0
  0
VERTEX
  5
16B03
  8
0
 10
258.129165124593726
 20
218.249999999996902
 30
0.0
  0
SEQEND
  5
16B04
  8
0
  0
POLYLINE
  5
157A1
  8
0
 66
     1
 10
0.0
 20
0.0
 30
0.0
  0
VERTEX
  5
16B05
  8
0
 10
252.5000000000003126
 20
221.4999999999938041
 30
0.0
  0
VERTEX
  5
16B06
  8
0
 10
252.7215493032090023
 20
221.4999999999947136
 30
0.0
  0
VERTEX
  5
16B07
  8
0
 10
252.9430763855478119
 20
221.4999999999957083
 30
0.0
  0
VERTEX
  5
16B08
  8
0
 10
253.1645590261466054
 20
221.4999999999965041
 30
0.0
  0
VERTEX
  5
16B09
  8
0
 10
253.3859750041357017
 20
221.4999999999974136
 30
0.0
  0
VERTEX
  5
16B0A
  8
0
 10
253.607302098644908
 20
221.4999999999980957
 30
0.0
  0
VERTEX
  5
16B0B
  8
0
 10
253.8285180888047989
 20
221.4999999999988916
 30
0.0
  0
VERTEX
  5
16B0C
  8
0
 10
254.0496007537446985
 20
221.4999999999994884
 30
0.0
  0
VERTEX
  5
16B0D
  8
0
 10
254.2705278725952098
 20
221.5
 30
0.0
  0
VERTEX
  5
16B0E
  8
0
 10
254.4912782667873046
 20
221.5000000000003126
 30
0.0
  0
VERTEX
  5
16B0F
  8
0
 10
254.7118525660897888
 20
221.5000000000005969
 30
0.0
  0
VERTEX
  5
16B10
  8
0
 10
254.9322720698185947
 20
221.5000000000007105
 30
0.0
  0
VERTEX
  5
16B11
  8
0
 10
255.152558891627109
 20
221.5000000000007958
 30
0.0
  0
VERTEX
  5
16B12
  8
0
 10
255.3727351451686047
 20
221.5000000000007105
 30
0.0
  0
VERTEX
  5
16B13
  8
0
 10
255.5928229440964969
 20
221.5000000000007105
 30
0.0
  0
VERTEX
  5
16B14
  8
0
 10
255.812844402064286
 20
221.5000000000005116
 30
0.0
  0
VERTEX
  5
16B15
  8
0
 10
256.0328216327253017
 20
221.5000000000003979
 30
0.0
  0
VERTEX
  5
16B16
  8
0
 10
256.2527767497329023
 20
221.500000000000199
 30
0.0
  0
SEQEND
  5
16B17
  8
0
  0
POLYLINE
  5
157A2
  8
0
 66
     1
 10
0.0
 20
0.0
 30
0.0
  0
VERTEX
  5
16B18
  8
0
 10
246.870834875407013
 20
211.7500000000034106
 30
0.0
  0
VERTEX
  5
16B19
  8
0
 10
246.7600602238019007
 20
211.9418673247722893
 30
0.0
  0
VERTEX
  5
16B1A
  8
0
 10
246.6492966826318138
 20
212.1337154057034127
 30
0.0
  0
VERTEX
  5
16B1B
  8
0
 10
246.5385553623314934
 20
212.3255249989587981
 30
0.0
  0
VERTEX
  5
16B1C
  8
0
 10
246.427847373336192
 20
212.5172768607006049
 30
0.0
  0
VERTEX
  5
16B1D
  8
0
 10
246.317183826080992
 20
212.7089517470911915
 30
0.0
  0
VERTEX
  5
16B1E
  8
0
 10
246.2065758310004071
 20
212.9005304142924899
 30
0.0
  0
VERTEX
  5
16B1F
  8
0
 10
246.0960344985298889
 20
213.0919936184666028
 30
0.0
  0
VERTEX
  5
16B20
  8
0
 10
245.9855709391042069
 20
213.2833221157758032
 30
0.0
  0
VERTEX
  5
16B21
  8
0
 10
245.8751957420078043
 20
213.4744975650413892
 30
0.0
  0
VERTEX
  5
16B22
  8
0
 10
245.7649085923563064
 20
213.6655205116593095
 30
0.0
  0
VERTEX
  5
16B23
  8
0
 10
245.6546988404919887
 20
213.8564094013779879
 30
0.0
  0
VERTEX
  5
16B24
  8
0
 10
245.5445554295874899
 20
214.0471833851829047
 30
0.0
  0
VERTEX
  5
16B25
  8
0
 10
245.4344673028168984
 20
214.2378616140599092
 30
0.0
  0
VERTEX
  5
16B26
  8
0
 10
245.3244234033529949
 20
214.4284632389945955
 30
0.0
  0
VERTEX
  5
16B27
  8
0
 10
245.2144126743692141
 20
214.6190074109723867
 30
0.0
  0
VERTEX
  5
16B28
  8
0
 10
245.1044240590387915
 20
214.8095132809791892
 30
0.0
  0
VERTEX
  5
16B29
  8
0
 10
244.9944465005351901
 20
215.000000000000199
 30
0.0
  0
SEQEND
  5
16B2A
  8
0
  0
POLYLINE
  5
157A3
  8
0
 66
     1
 10
0.0
 20
0.0
 30
0.0
  0
VERTEX
  5
16B2B
  8
0
 10
244.9944465005351901
 20
215.000000000000199
 30
0.0
  0
VERTEX
  5
16B2C
  8
0
 10
245.1044227678839036
 20
215.1904844826752026
 30
0.0
  0
VERTEX
  5
16B2D
  8
0
 10
245.2144101613220073
 20
215.3809882363023007
 30
0.0
  0
VERTEX
  5
16B2E
  8
0
 10
245.3244198069388062
 20
215.5715305318335879
 30
0.0
  0
VERTEX
  5
16B2F
  8
0
 10
245.4344628308238043
 20
215.7621306402209882
 30
0.0
  0
VERTEX
  5
16B30
  8
0
 10
245.5445503590663066
 20
215.952807832416795
 30
0.0
  0
VERTEX
  5
16B31
  8
0
 10
245.6546935177557032
 20
216.1435813793727903
 30
0.0
  0
VERTEX
  5
16B32
  8
0
 10
245.7649034329814128
 20
216.3344705520414948
 30
0.0
  0
VERTEX
  5
16B33
  8
0
 10
245.8751912308329111
 20
216.5254946213746052
 30
0.0
  0
VERTEX
  5
16B34
  8
0
 10
245.9855675241005031
 20
216.7166719692644961
 30
0.0
  0
VERTEX
  5
16B35
  8
0
 10
246.0960320422921086
 20
216.9080021272048953
 30
0.0
  0
VERTEX
  5
16B36
  8
0
 10
246.2065741207723022
 20
217.0994666235056911
 30
0.0
  0
VERTEX
  5
16B37
  8
0
 10
246.3171826795000925
 20
217.2910462669726996
 30
0.0
  0
VERTEX
  5
16B38
  8
0
 10
246.4278466384338913
 20
217.4827218664113104
 30
0.0
  0
VERTEX
  5
16B39
  8
0
 10
246.5385549175329061
 20
217.67447423062751
 30
0.0
  0
VERTEX
  5
16B3A
  8
0
 10
246.6492964367556056
 20
217.8662841684268017
 30
0.0
  0
VERTEX
  5
16B3B
  8
0
 10
246.7600601160607141
 20
218.0581324886146888
 30
0.0
  0
VERTEX
  5
16B3C
  8
0
 10
246.870834875407013
 20
218.249999999996902
 30
0.0
  0
SEQEND
  5
16B3D
  8
0
  0
POLYLINE
  5
157A4
  8
0
 66
     1
 10
0.0
 20
0.0
 30
0.0
  0
VERTEX
  5
16B3E
  8
0
 10
246.870834875407013
 20
218.249999999996902
 30
0.0
  0
VERTEX
  5
16B3F
  8
0
 10
246.9816095270105905
 20
218.4418673247668892
 30
0.0
  0
VERTEX
  5
16B40
  8
0
 10
247.0923730681791994
 20
218.6337154056988936
 30
0.0
  0
VERTEX
  5
16B41
  8
0
 10
247.2031143884778999
 20
218.8255249989551885
 30
0.0
  0
VERTEX
  5
16B42
  8
0
 10
247.3138223774716948
 20
219.0172768606979901
 30
0.0
  0
VERTEX
  5
16B43
  8
0
 10
247.4244859247257011
 20
219.2089517470892019
 30
0.0
  0
VERTEX
  5
16B44
  8
0
 10
247.5350939198048081
 20
219.4005304142912109
 30
0.0
  0
VERTEX
  5
16B45
  8
0
 10
247.6456352522743884
 20
219.5919936184658923
 30
0.0
  0
VERTEX
  5
16B46
  8
0
 10
247.7560988116991894
 20
219.7833221157756896
 30
0.0
  0
VERTEX
  5
16B47
  8
0
 10
247.8664740087947962
 20
219.9744975650417018
 30
0.0
  0
VERTEX
  5
16B48
  8
0
 10
247.9767611584458962
 20
220.1655205116597074
 30
0.0
  0
VERTEX
  5
16B49
  8
0
 10
248.0869709103101002
 20
220.3564094013784995
 30
0.0
  0
VERTEX
  5
16B4A
  8
0
 10
248.1971143212144
 20
220.5471833851835868
 30
0.0
  0
VERTEX
  5
16B4B
  8
0
 10
248.3072024479851052
 20
220.7378616140605061
 30
0.0
  0
VERTEX
  5
16B4C
  8
0
 10
248.4172463474490939
 20
220.9284632389951923
 30
0.0
  0
VERTEX
  5
16B4D
  8
0
 10
248.5272570764331022
 20
221.1190074109728982
 30
0.0
  0
VERTEX
  5
16B4E
  8
0
 10
248.6372456917636953
 20
221.3095132809791892
 30
0.0
  0
VERTEX
  5
16B4F
  8
0
 10
248.7472232502678082
 20
221.500000000000199
 30
0.0
  0
SEQEND
  5
16B50
  8
0
  0
POLYLINE
  5
157A5
  8
0
 66
     1
 10
0.0
 20
0.0
 30
0.0
  0
VERTEX
  5
16B51
  8
0
 10
248.7472232502678082
 20
221.500000000000199
 30
0.0
  0
VERTEX
  5
16B52
  8
0
 10
248.9671757849654057
 20
221.5000000000003979
 30
0.0
  0
VERTEX
  5
16B53
  8
0
 10
249.1871505718418121
 20
221.5000000000005116
 30
0.0
  0
VERTEX
  5
16B54
  8
0
 10
249.4071698630756089
 20
221.5000000000007105
 30
0.0
  0
VERTEX
  5
16B55
  8
0
 10
249.627255910845804
 20
221.5000000000007958
 30
0.0
  0
VERTEX
  5
16B56
  8
0
 10
249.8474309673308937
 20
221.5000000000007958
 30
0.0
  0
VERTEX
  5
16B57
  8
0
 10
250.0677172847096017
 20
221.5000000000007105
 30
0.0
  0
VERTEX
  5
16B58
  8
0
 10
250.2881371151609073
 20
221.5000000000005969
 30
0.0
  0
VERTEX
  5
16B59
  8
0
 10
250.5087127108633922
 20
221.5000000000003126
 30
0.0
  0
VERTEX
  5
16B5A
  8
0
 10
250.7294652973980931
 20
221.5
 30
0.0
  0
VERTEX
  5
16B5B
  8
0
 10
250.9503943337803094
 20
221.4999999999994031
 30
0.0
  0
VERTEX
  5
16B5C
  8
0
 10
251.1714784907397018
 20
221.4999999999988916
 30
0.0
  0
VERTEX
  5
16B5D
  8
0
 10
251.3926956081938897
 20
221.4999999999980957
 30
0.0
  0
VERTEX
  5
16B5E
  8
0
 10
251.6140235260604925
 20
221.4999999999972999
 30
0.0
  0
VERTEX
  5
16B5F
  8
0
 10
251.8354400842567884
 20
221.4999999999965041
 30
0.0
  0
VERTEX
  5
16B60
  8
0
 10
252.0569231227005957
 20
221.4999999999955946
 30
0.0
  0
VERTEX
  5
16B61
  8
0
 10
252.2784504813093065
 20
221.4999999999947136
 30
0.0
  0
VERTEX
  5
16B62
  8
0
 10
252.5000000000003126
 20
221.4999999999938041
 30
0.0
  0
SEQEND
  5
16B63
  8
0
  0
POLYLINE
  5
157A6
  8
0
 66
     1
 10
0.0
 20
0.0
 30
0.0
  0
VERTEX
  5
16B64
  8
0
 10
153.1291651245936123
 20
271.7500000000032969
 30
0.0
  0
VERTEX
  5
16B65
  8
0
 10
153.0183904729900917
 20
271.5581326752334235
 30
0.0
  0
VERTEX
  5
16B66
  8
0
 10
152.9076269318215964
 20
271.3662845943013053
 30
0.0
  0
VERTEX
  5
16B67
  8
0
 10
152.7968856115228107
 20
271.174475001044982
 30
0.0
  0
VERTEX
  5
16B68
  8
0
 10
152.686177622529101
 20
270.9827231393023226
 30
0.0
  0
VERTEX
  5
16B69
  8
0
 10
152.5755140752750094
 20
270.7910482529110823
 30
0.0
  0
VERTEX
  5
16B6A
  8
0
 10
152.4649060801959024
 20
270.5994695857090733
 30
0.0
  0
VERTEX
  5
16B6B
  8
0
 10
152.3543647477264074
 20
270.4080063815342783
 30
0.0
  0
VERTEX
  5
16B6C
  8
0
 10
152.2439011883016065
 20
270.2166778842246231
 30
0.0
  0
VERTEX
  5
16B6D
  8
0
 10
152.1335259912058859
 20
270.0255024349585824
 30
0.0
  0
VERTEX
  5
16B6E
  8
0
 10
152.0232388415547859
 20
269.8344794883404916
 30
0.0
  0
VERTEX
  5
16B6F
  8
0
 10
151.9130290896906104
 20
269.6435905986218131
 30
0.0
  0
VERTEX
  5
16B70
  8
0
 10
151.8028856787863958
 20
269.4528166148166974
 30
0.0
  0
VERTEX
  5
16B71
  8
0
 10
151.6927975520156053
 20
269.2621383859396929
 30
0.0
  0
VERTEX
  5
16B72
  8
0
 10
151.5827536525515882
 20
269.0715367610051771
 30
0.0
  0
VERTEX
  5
16B73
  8
0
 10
151.4727429235676084
 20
268.8809925890275281
 30
0.0
  0
VERTEX
  5
16B74
  8
0
 10
151.3627543082369868
 20
268.6904867190210098
 30
0.0
  0
VERTEX
  5
16B75
  8
0
 10
151.2527767497329876
 20
268.5000000000001137
 30
0.0
  0
SEQEND
  5
16B76
  8
0
  0
POLYLINE
  5
157A7
  8
0
 66
     1
 10
0.0
 20
0.0
 30
0.0
  0
VERTEX
  5
16B77
  8
0
 10
151.2527767497329876
 20
268.5000000000001137
 30
0.0
  0
VERTEX
  5
16B78
  8
0
 10
151.0328242150351912
 20
268.5
 30
0.0
  0
VERTEX
  5
16B79
  8
0
 10
150.8128494281590122
 20
268.4999999999997726
 30
0.0
  0
VERTEX
  5
16B7A
  8
0
 10
150.5928301369251017
 20
268.4999999999996021
 30
0.0
  0
VERTEX
  5
16B7B
  8
0
 10
150.3727440891549918
 20
268.4999999999996021
 30
0.0
  0
VERTEX
  5
16B7C
  8
0
 10
150.1525690326699021
 20
268.4999999999994884
 30
0.0
  0
VERTEX
  5
16B7D
  8
0
 10
149.9322827152911941
 20
268.4999999999996021
 30
0.0
  0
VERTEX
  5
16B7E
  8
0
 10
149.7118628848398885
 20
268.4999999999996021
 30
0.0
  0
VERTEX
  5
16B7F
  8
0
 10
149.4912872891374036
 20
268.5
 30
0.0
  0
VERTEX
  5
16B80
  8
0
 10
149.2705347026027027
 20
268.5000000000003979
 30
0.0
  0
VERTEX
  5
16B81
  8
0
 10
149.0496056662204865
 20
268.5000000000009095
 30
0.0
  0
VERTEX
  5
16B82
  8
0
 10
148.8285215092610088
 20
268.5000000000015916
 30
0.0
  0
VERTEX
  5
16B83
  8
0
 10
148.6073043918067071
 20
268.5000000000022169
 30
0.0
  0
VERTEX
  5
16B84
  8
0
 10
148.3859764739401896
 20
268.5000000000027853
 30
0.0
  0
VERTEX
  5
16B85
  8
0
 10
148.1645599157440074
 20
268.5000000000036948
 30
0.0
  0
VERTEX
  5
16B86
  8
0
 10
147.9430768773002001
 20
268.5000000000046043
 30
0.0
  0
VERTEX
  5
16B87
  8
0
 10
147.7215495186914893
 20
268.5000000000056275
 30
0.0
  0
VERTEX
  5
16B88
  8
0
 10
147.5000000000003979
 20
268.5000000000065938
 30
0.0
  0
SEQEND
  5
16B89
  8
0
  0
POLYLINE
  5
157A8
  8
0
 66
     1
 10
0.0
 20
0.0
 30
0.0
  0
VERTEX
  5
16B8A
  8
0
 10
147.5000000000003126
 20
268.5000000000065938
 30
0.0
  0
VERTEX
  5
16B8B
  8
0
 10
147.2784506967915945
 20
268.5000000000056275
 30
0.0
  0
VERTEX
  5
16B8C
  8
0
 10
147.0569236144530123
 20
268.500000000004718
 30
0.0
  0
VERTEX
  5
16B8D
  8
0
 10
146.8354409738541051
 20
268.5000000000036948
 30
0.0
  0
VERTEX
  5
16B8E
  8
0
 10
146.6140249958648951
 20
268.5000000000030127
 30
0.0
  0
VERTEX
  5
16B8F
  8
0
 10
146.3926979013556036
 20
268.5000000000022169
 30
0.0
  0
VERTEX
  5
16B90
  8
0
 10
146.1714819111961106
 20
268.5000000000015916
 30
0.0
  0
VERTEX
  5
16B91
  8
0
 10
145.950399246256012
 20
268.5000000000009095
 30
0.0
  0
VERTEX
  5
16B92
  8
0
 10
145.729472127405387
 20
268.5000000000003979
 30
0.0
  0
VERTEX
  5
16B93
  8
0
 10
145.508721733213406
 20
268.5
 30
0.0
  0
VERTEX
  5
16B94
  8
0
 10
145.2881474339108934
 20
268.4999999999996021
 30
0.0
  0
VERTEX
  5
16B95
  8
0
 10
145.0677279301820022
 20
268.4999999999996021
 30
0.0
  0
VERTEX
  5
16B96
  8
0
 10
144.8474411083736868
 20
268.4999999999994884
 30
0.0
  0
VERTEX
  5
16B97
  8
0
 10
144.6272648548321058
 20
268.4999999999994884
 30
0.0
  0
VERTEX
  5
16B98
  8
0
 10
144.4071770559042136
 20
268.4999999999996021
 30
0.0
  0
VERTEX
  5
16B99
  8
0
 10
144.1871555979363961
 20
268.4999999999997726
 30
0.0
  0
VERTEX
  5
16B9A
  8
0
 10
143.9671783672752952
 20
268.4999999999998863
 30
0.0
  0
VERTEX
  5
16B9B
  8
0
 10
143.7472232502678082
 20
268.5000000000001137
 30
0.0
  0
SEQEND
  5
16B9C
  8
0
  0
POLYLINE
  5
157A9
  8
0
 66
     1
 10
0.0
 20
0.0
 30
0.0
  0
VERTEX
  5
16B9D
  8
0
 10
143.7472232502678082
 20
268.5000000000001137
 30
0.0
  0
VERTEX
  5
16B9E
  8
0
 10
143.6372469829186116
 20
268.6904844826750036
 30
0.0
  0
VERTEX
  5
16B9F
  8
0
 10
143.5272595894805079
 20
268.8809882363019028
 30
0.0
  0
VERTEX
  5
16BA0
  8
0
 10
143.4172499438633963
 20
269.0715305318328774
 30
0.0
  0
VERTEX
  5
16BA1
  8
0
 10
143.307206919978313
 20
269.2621306402203913
 30
0.0
  0
VERTEX
  5
16BA2
  8
0
 10
143.1971193917358107
 20
269.4528078324159992
 30
0.0
  0
VERTEX
  5
16BA3
  8
0
 10
143.0869762330463004
 20
269.6435813793722787
 30
0.0
  0
VERTEX
  5
16BA4
  8
0
 10
142.9767663178209034
 20
269.8344705520410116
 30
0.0
  0
VERTEX
  5
16BA5
  8
0
 10
142.8664785199698031
 20
270.0254946213743779
 30
0.0
  0
VERTEX
  5
16BA6
  8
0
 10
142.7561022267028079
 20
270.2166719692647234
 30
0.0
  0
VERTEX
  5
16BA7
  8
0
 10
142.6456377085121119
 20
270.4080021272055774
 30
0.0
  0
VERTEX
  5
16BA8
  8
0
 10
142.535095630032913
 20
270.5994666235068848
 30
0.0
  0
VERTEX
  5
16BA9
  8
0
 10
142.424487071306487
 20
270.7910462669746039
 30
0.0
  0
VERTEX
  5
16BAA
  8
0
 10
142.3138231123739104
 20
270.982721866414181
 30
0.0
  0
VERTEX
  5
16BAB
  8
0
 10
142.2031148332764019
 20
271.1744742306311764
 30
0.0
  0
VERTEX
  5
16BAC
  8
0
 10
142.0923733140554077
 20
271.3662841684313207
 30
0.0
  0
VERTEX
  5
16BAD
  8
0
 10
141.9816096347518055
 20
271.5581324886201742
 30
0.0
  0
VERTEX
  5
16BAE
  8
0
 10
141.8708348754070983
 20
271.7500000000032969
 30
0.0
  0
SEQEND
  5
16BAF
  8
0
  0
POLYLINE
  5
157AA
  8
0
 66
     1
 10
0.0
 20
0.0
 30
0.0
  0
VERTEX
  5
16BB0
  8
0
 10
153.1291651245936123
 20
278.2499999999969873
 30
0.0
  0
VERTEX
  5
16BB1
  8
0
 10
153.2399397761988098
 20
278.0581326752280233
 30
0.0
  0
VERTEX
  5
16BB2
  8
0
 10
153.3507033173688967
 20
277.8662845942969284
 30
0.0
  0
VERTEX
  5
16BB3
  8
0
 10
153.4614446376693024
 20
277.6744750010415146
 30
0.0
  0
VERTEX
  5
16BB4
  8
0
 10
153.5721526266644048
 20
277.4827231392995941
 30
0.0
  0
VERTEX
  5
16BB5
  8
0
 10
153.6828161739198038
 20
277.2910482529090928
 30
0.0
  0
VERTEX
  5
16BB6
  8
0
 10
153.7934241690003034
 20
277.0994695857078796
 30
0.0
  0
VERTEX
  5
16BB7
  8
0
 10
153.9039655014709069
 20
276.9080063815337098
 30
0.0
  0
VERTEX
  5
16BB8
  8
0
 10
154.0144290608965036
 20
276.7166778842243957
 30
0.0
  0
VERTEX
  5
16BB9
  8
0
 10
154.1248042579929916
 20
276.5255024349589235
 30
0.0
  0
VERTEX
  5
16BBA
  8
0
 10
154.2350914076444042
 20
276.3344794883410032
 30
0.0
  0
VERTEX
  5
16BBB
  8
0
 10
154.3453011595088071
 20
276.1435905986223815
 30
0.0
  0
VERTEX
  5
16BBC
  8
0
 10
154.4554445704131922
 20
275.9528166148173796
 30
0.0
  0
VERTEX
  5
16BBD
  8
0
 10
154.5655326971838122
 20
275.7621383859404887
 30
0.0
  0
VERTEX
  5
16BBE
  8
0
 10
154.6755765966478009
 20
275.571536761005575
 30
0.0
  0
VERTEX
  5
16BBF
  8
0
 10
154.7855873256316102
 20
275.380992589027926
 30
0.0
  0
VERTEX
  5
16BC0
  8
0
 10
154.8955759409618906
 20
275.1904867190211235
 30
0.0
  0
VERTEX
  5
16BC1
  8
0
 10
155.0055534994656057
 20
275.0000000000001137
 30
0.0
  0
SEQEND
  5
16BC2
  8
0
  0
POLYLINE
  5
157AB
  8
0
 66
     1
 10
0.0
 20
0.0
 30
0.0
  0
VERTEX
  5
16BC3
  8
0
 10
155.0055534994656057
 20
275.0000000000001137
 30
0.0
  0
VERTEX
  5
16BC4
  8
0
 10
154.895577232116807
 20
274.8095155173252238
 30
0.0
  0
VERTEX
  5
16BC5
  8
0
 10
154.7855898386789022
 20
274.6190117636979835
 30
0.0
  0
VERTEX
  5
16BC6
  8
0
 10
154.6755801930619896
 20
274.4284694681668952
 30
0.0
  0
VERTEX
  5
16BC7
  8
0
 10
154.5655371691769915
 20
274.2378693597793813
 30
0.0
  0
VERTEX
  5
16BC8
  8
0
 10
154.4554496409346029
 20
274.0471921675836029
 30
0.0
  0
VERTEX
  5
16BC9
  8
0
 10
154.3453064822450926
 20
273.856418620627494
 30
0.0
  0
VERTEX
  5
16BCA
  8
0
 10
154.2350965670192977
 20
273.6655294479588747
 30
0.0
  0
VERTEX
  5
16BCB
  8
0
 10
154.1248087691679132
 20
273.474505378625679
 30
0.0
  0
VERTEX
  5
16BCC
  8
0
 10
154.0144324759002927
 20
273.2833280307357882
 30
0.0
  0
VERTEX
  5
16BCD
  8
0
 10
153.9039679577088009
 20
273.0919978727956163
 30
0.0
  0
VERTEX
  5
16BCE
  8
0
 10
153.7934258792284083
 20
272.9005333764944794
 30
0.0
  0
VERTEX
  5
16BCF
  8
0
 10
153.6828173205007033
 20
272.708953733027613
 30
0.0
  0
VERTEX
  5
16BD0
  8
0
 10
153.5721533615667056
 20
272.5172781335888885
 30
0.0
  0
VERTEX
  5
16BD1
  8
0
 10
153.4614450824678045
 20
272.325525769372689
 30
0.0
  0
VERTEX
  5
16BD2
  8
0
 10
153.3507035632451903
 20
272.1337158315736247
 30
0.0
  0
VERTEX
  5
16BD3
  8
0
 10
153.2399398839401101
 20
271.9418675113856239
 30
0.0
  0
VERTEX
  5
16BD4
  8
0
 10
153.1291651245936123
 20
271.7500000000032969
 30
0.0
  0
SEQEND
  5
16BD5
  8
0
  0
POLYLINE
  5
157AC
  8
0
 66
     1
 10
0.0
 20
0.0
 30
0.0
  0
VERTEX
  5
16BD6
  8
0
 10
151.2527767497329876
 20
281.5000000000001137
 30
0.0
  0
VERTEX
  5
16BD7
  8
0
 10
151.3627530170820137
 20
281.3095155173252806
 30
0.0
  0
VERTEX
  5
16BD8
  8
0
 10
151.4727404105202027
 20
281.1190117636983814
 30
0.0
  0
VERTEX
  5
16BD9
  8
0
 10
151.5827500561372005
 20
280.9284694681672931
 30
0.0
  0
VERTEX
  5
16BDA
  8
0
 10
151.6927930800225113
 20
280.7378693597798929
 30
0.0
  0
VERTEX
  5
16BDB
  8
0
 10
151.8028806082650135
 20
280.5471921675842282
 30
0.0
  0
VERTEX
  5
16BDC
  8
0
 10
151.9130237669544101
 20
280.3564186206281192
 30
0.0
  0
VERTEX
  5
16BDD
  8
0
 10
152.0232336821798071
 20
280.1655294479592726
 30
0.0
  0
VERTEX
  5
16BDE
  8
0
 10
152.1335214800309075
 20
279.97450537862602
 30
0.0
  0
VERTEX
  5
16BDF
  8
0
 10
152.2438977732979026
 20
279.7833280307356176
 30
0.0
  0
VERTEX
  5
16BE0
  8
0
 10
152.3543622914885987
 20
279.5919978727948205
 30
0.0
  0
VERTEX
  5
16BE1
  8
0
 10
152.4649043699677975
 20
279.4005333764932857
 30
0.0
  0
VERTEX
  5
16BE2
  8
0
 10
152.5755129286941951
 20
279.2089537330256235
 30
0.0
  0
VERTEX
  5
16BE3
  8
0
 10
152.6861768876268002
 20
279.0172781335862169
 30
0.0
  0
VERTEX
  5
16BE4
  8
0
 10
152.7968851667243086
 20
278.8255257693692215
 30
0.0
  0
VERTEX
  5
16BE5
  8
0
 10
152.9076266859453028
 20
278.6337158315690203
 30
0.0
  0
VERTEX
  5
16BE6
  8
0
 10
153.018390365248905
 20
278.4418675113802237
 30
0.0
  0
VERTEX
  5
16BE7
  8
0
 10
153.1291651245936123
 20
278.2499999999969873
 30
0.0
  0
SEQEND
  5
16BE8
  8
0
  0
POLYLINE
  5
157AD
  8
0
 66
     1
 10
0.0
 20
0.0
 30
0.0
  0
VERTEX
  5
16BE9
  8
0
 10
147.5000000000003979
 20
281.4999999999938041
 30
0.0
  0
VERTEX
  5
16BEA
  8
0
 10
147.7215493032090876
 20
281.4999999999947136
 30
0.0
  0
VERTEX
  5
16BEB
  8
0
 10
147.9430763855478119
 20
281.4999999999956231
 30
0.0
  0
VERTEX
  5
16BEC
  8
0
 10
148.1645590261464918
 20
281.4999999999964757
 30
0.0
  0
VERTEX
  5
16BED
  8
0
 10
148.3859750041357017
 20
281.4999999999973852
 30
0.0
  0
VERTEX
  5
16BEE
  8
0
 10
148.6073020986449933
 20
281.4999999999981242
 30
0.0
  0
VERTEX
  5
16BEF
  8
0
 10
148.8285180888047137
 20
281.49999999999892
 30
0.0
  0
VERTEX
  5
16BF0
  8
0
 10
149.0496007537448122
 20
281.4999999999993747
 30
0.0
  0
VERTEX
  5
16BF1
  8
0
 10
149.2705278725954088
 20
281.4999999999998863
 30
0.0
  0
VERTEX
  5
16BF2
  8
0
 10
149.4912782667873898
 20
281.5000000000002842
 30
0.0
  0
VERTEX
  5
16BF3
  8
0
 10
149.7118525660899024
 20
281.5000000000003979
 30
0.0
  0
VERTEX
  5
16BF4
  8
0
 10
149.9322720698185947
 20
281.5000000000006821
 30
0.0
  0
VERTEX
  5
16BF5
  8
0
 10
150.152558891627109
 20
281.5000000000006821
 30
0.0
  0
VERTEX
  5
16BF6
  8
0
 10
150.37273514516869
 20
281.5000000000006821
 30
0.0
  0
VERTEX
  5
16BF7
  8
0
 10
150.5928229440966106
 20
281.5000000000006253
 30
0.0
  0
VERTEX
  5
16BF8
  8
0
 10
150.812844402064286
 20
281.5000000000003979
 30
0.0
  0
VERTEX
  5
16BF9
  8
0
 10
151.0328216327253017
 20
281.5000000000002842
 30
0.0
  0
VERTEX
  5
16BFA
  8
0
 10
151.2527767497329876
 20
281.5000000000001137
 30
0.0
  0
SEQEND
  5
16BFB
  8
0
  0
POLYLINE
  5
157AE
  8
0
 66
     1
 10
0.0
 20
0.0
 30
0.0
  0
VERTEX
  5
16BFC
  8
0
 10
141.8708348754070983
 20
271.7500000000032969
 30
0.0
  0
VERTEX
  5
16BFD
  8
0
 10
141.7600602238019007
 20
271.9418673247723177
 30
0.0
  0
VERTEX
  5
16BFE
  8
0
 10
141.6492966826317002
 20
272.1337154057035264
 30
0.0
  0
VERTEX
  5
16BFF
  8
0
 10
141.5385553623314934
 20
272.3255249989588833
 30
0.0
  0
VERTEX
  5
16C00
  8
0
 10
141.427847373336192
 20
272.5172768607008038
 30
0.0
  0
VERTEX
  5
16C01
  8
0
 10
141.3171838260809068
 20
272.7089517470911915
 30
0.0
  0
VERTEX
  5
16C02
  8
0
 10
141.2065758310004071
 20
272.9005304142924047
 30
0.0
  0
VERTEX
  5
16C03
  8
0
 10
141.0960344985298889
 20
273.0919936184668018
 30
0.0
  0
VERTEX
  5
16C04
  8
0
 10
140.9855709391042069
 20
273.2833221157758885
 30
0.0
  0
VERTEX
  5
16C05
  8
0
 10
140.8751957420078043
 20
273.4744975650415881
 30
0.0
  0
VERTEX
  5
16C06
  8
0
 10
140.7649085923563064
 20
273.6655205116592242
 30
0.0
  0
VERTEX
  5
16C07
  8
0
 10
140.6546988404917897
 20
273.8564094013779027
 30
0.0
  0
VERTEX
  5
16C08
  8
0
 10
140.5445554295876036
 20
274.047183385182791
 30
0.0
  0
VERTEX
  5
16C09
  8
0
 10
140.4344673028168984
 20
274.2378616140600229
 30
0.0
  0
VERTEX
  5
16C0A
  8
0
 10
140.3244234033529096
 20
274.4284632389944818
 30
0.0
  0
VERTEX
  5
16C0B
  8
0
 10
140.2144126743692141
 20
274.6190074109724151
 30
0.0
  0
VERTEX
  5
16C0C
  8
0
 10
140.1044240590389052
 20
274.8095132809792176
 30
0.0
  0
VERTEX
  5
16C0D
  8
0
 10
139.9944465005353038
 20
275.0000000000001137
 30
0.0
  0
SEQEND
  5
16C0E
  8
0
  0
POLYLINE
  5
157AF
  8
0
 66
     1
 10
0.0
 20
0.0
 30
0.0
  0
VERTEX
  5
16C0F
  8
0
 10
139.9944465005353038
 20
275.0000000000001137
 30
0.0
  0
VERTEX
  5
16C10
  8
0
 10
140.1044227678839889
 20
275.1904844826751741
 30
0.0
  0
VERTEX
  5
16C11
  8
0
 10
140.2144101613220073
 20
275.3809882363023007
 30
0.0
  0
VERTEX
  5
16C12
  8
0
 10
140.3244198069388062
 20
275.5715305318336164
 30
0.0
  0
VERTEX
  5
16C13
  8
0
 10
140.4344628308238043
 20
275.7621306402210166
 30
0.0
  0
VERTEX
  5
16C14
  8
0
 10
140.5445503590663066
 20
275.952807832416795
 30
0.0
  0
VERTEX
  5
16C15
  8
0
 10
140.6546935177557032
 20
276.1435813793727903
 30
0.0
  0
VERTEX
  5
16C16
  8
0
 10
140.7649034329814128
 20
276.3344705520415232
 30
0.0
  0
VERTEX
  5
16C17
  8
0
 10
140.8751912308329963
 20
276.5254946213746052
 30
0.0
  0
VERTEX
  5
16C18
  8
0
 10
140.9855675241005883
 20
276.7166719692646097
 30
0.0
  0
VERTEX
  5
16C19
  8
0
 10
141.0960320422921086
 20
276.9080021272047816
 30
0.0
  0
VERTEX
  5
16C1A
  8
0
 10
141.2065741207723875
 20
277.0994666235058048
 30
0.0
  0
VERTEX
  5
16C1B
  8
0
 10
141.3171826795000925
 20
277.2910462669727849
 30
0.0
  0
VERTEX
  5
16C1C
  8
0
 10
141.4278466384340049
 20
277.4827218664115094
 30
0.0
  0
VERTEX
  5
16C1D
  8
0
 10
141.5385549175329061
 20
277.6744742306277089
 30
0.0
  0
VERTEX
  5
16C1E
  8
0
 10
141.6492964367554919
 20
277.8662841684268869
 30
0.0
  0
VERTEX
  5
16C1F
  8
0
 10
141.7600601160606004
 20
278.058132488614774
 30
0.0
  0
VERTEX
  5
16C20
  8
0
 10
141.8708348754070983
 20
278.2499999999972147
 30
0.0
  0
SEQEND
  5
16C21
  8
0
  0
POLYLINE
  5
157B0
  8
0
 66
     1
 10
0.0
 20
0.0
 30
0.0
  0
VERTEX
  5
16C22
  8
0
 10
141.8708348754070983
 20
278.2499999999969873
 30
0.0
  0
VERTEX
  5
16C23
  8
0
 10
141.9816095270105905
 20
278.4418673247669176
 30
0.0
  0
VERTEX
  5
16C24
  8
0
 10
142.0923730681791994
 20
278.6337154056989789
 30
0.0
  0
VERTEX
  5
16C25
  8
0
 10
142.2031143884777862
 20
278.8255249989551885
 30
0.0
  0
VERTEX
  5
16C26
  8
0
 10
142.3138223774716096
 20
279.0172768606980185
 30
0.0
  0
VERTEX
  5
16C27
  8
0
 10
142.4244859247257011
 20
279.2089517470893156
 30
0.0
  0
VERTEX
  5
16C28
  8
0
 10
142.5350939198048081
 20
279.4005304142913246
 30
0.0
  0
VERTEX
  5
16C29
  8
0
 10
142.6456352522743032
 20
279.591993618466006
 30
0.0
  0
VERTEX
  5
16C2A
  8
0
 10
142.7560988116991894
 20
279.783322115775718
 30
0.0
  0
VERTEX
  5
16C2B
  8
0
 10
142.8664740087947962
 20
279.9744975650415881
 30
0.0
  0
VERTEX
  5
16C2C
  8
0
 10
142.9767611584458109
 20
280.165520511659679
 30
0.0
  0
VERTEX
  5
16C2D
  8
0
 10
143.0869709103101002
 20
280.3564094013785279
 30
0.0
  0
VERTEX
  5
16C2E
  8
0
 10
143.1971143212144
 20
280.5471833851835868
 30
0.0
  0
VERTEX
  5
16C2F
  8
0
 10
143.3072024479851052
 20
280.7378616140605914
 30
0.0
  0
VERTEX
  5
16C30
  8
0
 10
143.4172463474490939
 20
280.9284632389952208
 30
0.0
  0
VERTEX
  5
16C31
  8
0
 10
143.5272570764331022
 20
281.119007410972813
 30
0.0
  0
VERTEX
  5
16C32
  8
0
 10
143.6372456917636953
 20
281.3095132809792744
 30
0.0
  0
VERTEX
  5
16C33
  8
0
 10
143.7472232502678082
 20
281.5000000000001137
 30
0.0
  0
SEQEND
  5
16C34
  8
0
  0
POLYLINE
  5
157B1
  8
0
 66
     1
 10
0.0
 20
0.0
 30
0.0
  0
VERTEX
  5
16C35
  8
0
 10
143.7472232502678082
 20
281.5000000000001137
 30
0.0
  0
VERTEX
  5
16C36
  8
0
 10
143.9671757849654057
 20
281.5000000000002842
 30
0.0
  0
VERTEX
  5
16C37
  8
0
 10
144.1871505718418121
 20
281.5000000000003979
 30
0.0
  0
VERTEX
  5
16C38
  8
0
 10
144.4071698630756089
 20
281.5000000000006253
 30
0.0
  0
VERTEX
  5
16C39
  8
0
 10
144.6272559108456903
 20
281.5000000000006821
 30
0.0
  0
VERTEX
  5
16C3A
  8
0
 10
144.8474309673308085
 20
281.5000000000006821
 30
0.0
  0
VERTEX
  5
16C3B
  8
0
 10
145.0677172847096017
 20
281.5000000000006821
 30
0.0
  0
VERTEX
  5
16C3C
  8
0
 10
145.2881371151609073
 20
281.5000000000003979
 30
0.0
  0
VERTEX
  5
16C3D
  8
0
 10
145.5087127108633922
 20
281.5000000000002842
 30
0.0
  0
VERTEX
  5
16C3E
  8
0
 10
145.7294652973980078
 20
281.5
 30
0.0
  0
VERTEX
  5
16C3F
  8
0
 10
145.9503943337803094
 20
281.4999999999994884
 30
0.0
  0
VERTEX
  5
16C40
  8
0
 10
146.171478490739787
 20
281.49999999999892
 30
0.0
  0
VERTEX
  5
16C41
  8
0
 10
146.3926956081940034
 20
281.499999999998181
 30
0.0
  0
VERTEX
  5
16C42
  8
0
 10
146.6140235260604072
 20
281.4999999999973852
 30
0.0
  0
VERTEX
  5
16C43
  8
0
 10
146.8354400842569021
 20
281.4999999999964757
 30
0.0
  0
VERTEX
  5
16C44
  8
0
 10
147.0569231227005957
 20
281.4999999999956799
 30
0.0
  0
VERTEX
  5
16C45
  8
0
 10
147.2784504813091928
 20
281.4999999999948272
 30
0.0
  0
VERTEX
  5
16C46
  8
0
 10
147.5000000000003979
 20
281.4999999999938041
 30
0.0
  0
SEQEND
  5
16C47
  8
0
  0
POLYLINE
  5
157B2
  8
0
 66
     1
 10
0.0
 20
0.0
 30
0.0
  0
VERTEX
  5
16C48
  8
0
 10
258.129165124593726
 20
271.7500000000032969
 30
0.0
  0
VERTEX
  5
16C49
  8
0
 10
258.0183904729901769
 20
271.5581326752334235
 30
0.0
  0
VERTEX
  5
16C4A
  8
0
 10
257.9076269318215964
 20
271.3662845943013053
 30
0.0
  0
VERTEX
  5
16C4B
  8
0
 10
257.7968856115230096
 20
271.174475001044982
 30
0.0
  0
VERTEX
  5
16C4C
  8
0
 10
257.6861776225292147
 20
270.9827231393023226
 30
0.0
  0
VERTEX
  5
16C4D
  8
0
 10
257.5755140752751799
 20
270.7910482529110823
 30
0.0
  0
VERTEX
  5
16C4E
  8
0
 10
257.464906080195874
 20
270.5994695857090733
 30
0.0
  0
VERTEX
  5
16C4F
  8
0
 10
257.3543647477264926
 20
270.4080063815342783
 30
0.0
  0
VERTEX
  5
16C50
  8
0
 10
257.2439011883016065
 20
270.2166778842246231
 30
0.0
  0
VERTEX
  5
16C51
  8
0
 10
257.1335259912057722
 20
270.0255024349585824
 30
0.0
  0
VERTEX
  5
16C52
  8
0
 10
257.0232388415548144
 20
269.8344794883404916
 30
0.0
  0
VERTEX
  5
16C53
  8
0
 10
256.9130290896906104
 20
269.6435905986218131
 30
0.0
  0
VERTEX
  5
16C54
  8
0
 10
256.8028856787863106
 20
269.4528166148166974
 30
0.0
  0
VERTEX
  5
16C55
  8
0
 10
256.6927975520155769
 20
269.2621383859396929
 30
0.0
  0
VERTEX
  5
16C56
  8
0
 10
256.5827536525516166
 20
269.0715367610051771
 30
0.0
  0
VERTEX
  5
16C57
  8
0
 10
256.47274292356758
 20
268.8809925890275281
 30
0.0
  0
VERTEX
  5
16C58
  8
0
 10
256.3627543082370153
 20
268.6904867190210098
 30
0.0
  0
VERTEX
  5
16C59
  8
0
 10
256.252776749733016
 20
268.5000000000001137
 30
0.0
  0
SEQEND
  5
16C5A
  8
0
  0
POLYLINE
  5
157B3
  8
0
 66
     1
 10
0.0
 20
0.0
 30
0.0
  0
VERTEX
  5
16C5B
  8
0
 10
256.252776749733016
 20
268.5000000000001137
 30
0.0
  0
VERTEX
  5
16C5C
  8
0
 10
256.0328242150354185
 20
268.5
 30
0.0
  0
VERTEX
  5
16C5D
  8
0
 10
255.8128494281590122
 20
268.4999999999997726
 30
0.0
  0
VERTEX
  5
16C5E
  8
0
 10
255.5928301369251017
 20
268.4999999999996021
 30
0.0
  0
VERTEX
  5
16C5F
  8
0
 10
255.3727440891551907
 20
268.4999999999996021
 30
0.0
  0
VERTEX
  5
16C60
  8
0
 10
255.1525690326699021
 20
268.4999999999994884
 30
0.0
  0
VERTEX
  5
16C61
  8
0
 10
254.9322827152911941
 20
268.4999999999996021
 30
0.0
  0
VERTEX
  5
16C62
  8
0
 10
254.7118628848398885
 20
268.4999999999996021
 30
0.0
  0
VERTEX
  5
16C63
  8
0
 10
254.4912872891374036
 20
268.5
 30
0.0
  0
VERTEX
  5
16C64
  8
0
 10
254.2705347026027027
 20
268.5000000000003979
 30
0.0
  0
VERTEX
  5
16C65
  8
0
 10
254.0496056662204865
 20
268.5000000000009095
 30
0.0
  0
VERTEX
  5
16C66
  8
0
 10
253.8285215092610088
 20
268.5000000000015916
 30
0.0
  0
VERTEX
  5
16C67
  8
0
 10
253.6073043918067924
 20
268.5000000000022169
 30
0.0
  0
VERTEX
  5
16C68
  8
0
 10
253.3859764739403033
 20
268.5000000000027853
 30
0.0
  0
VERTEX
  5
16C69
  8
0
 10
253.1645599157438085
 20
268.5000000000036948
 30
0.0
  0
VERTEX
  5
16C6A
  8
0
 10
252.9430768773002001
 20
268.5000000000046043
 30
0.0
  0
VERTEX
  5
16C6B
  8
0
 10
252.7215495186914893
 20
268.5000000000056275
 30
0.0
  0
VERTEX
  5
16C6C
  8
0
 10
252.5000000000003126
 20
268.5000000000065938
 30
0.0
  0
SEQEND
  5
16C6D
  8
0
  0
POLYLINE
  5
157B4
  8
0
 66
     1
 10
0.0
 20
0.0
 30
0.0
  0
VERTEX
  5
16C6E
  8
0
 10
252.5000000000003126
 20
268.5000000000065938
 30
0.0
  0
VERTEX
  5
16C6F
  8
0
 10
252.2784506967917082
 20
268.5000000000056275
 30
0.0
  0
VERTEX
  5
16C70
  8
0
 10
252.0569236144530123
 20
268.500000000004718
 30
0.0
  0
VERTEX
  5
16C71
  8
0
 10
251.8354409738541051
 20
268.5000000000036948
 30
0.0
  0
VERTEX
  5
16C72
  8
0
 10
251.6140249958650941
 20
268.5000000000030127
 30
0.0
  0
VERTEX
  5
16C73
  8
0
 10
251.3926979013556036
 20
268.5000000000022169
 30
0.0
  0
VERTEX
  5
16C74
  8
0
 10
251.1714819111961106
 20
268.5000000000015916
 30
0.0
  0
VERTEX
  5
16C75
  8
0
 10
250.950399246256012
 20
268.5000000000009095
 30
0.0
  0
VERTEX
  5
16C76
  8
0
 10
250.729472127405387
 20
268.5000000000003979
 30
0.0
  0
VERTEX
  5
16C77
  8
0
 10
250.5087217332134912
 20
268.5
 30
0.0
  0
VERTEX
  5
16C78
  8
0
 10
250.2881474339108934
 20
268.4999999999996021
 30
0.0
  0
VERTEX
  5
16C79
  8
0
 10
250.0677279301820874
 20
268.4999999999996021
 30
0.0
  0
VERTEX
  5
16C7A
  8
0
 10
249.8474411083736868
 20
268.4999999999994884
 30
0.0
  0
VERTEX
  5
16C7B
  8
0
 10
249.6272648548321058
 20
268.4999999999994884
 30
0.0
  0
VERTEX
  5
16C7C
  8
0
 10
249.4071770559042136
 20
268.4999999999996021
 30
0.0
  0
VERTEX
  5
16C7D
  8
0
 10
249.1871555979363961
 20
268.4999999999997726
 30
0.0
  0
VERTEX
  5
16C7E
  8
0
 10
248.9671783672754088
 20
268.4999999999998863
 30
0.0
  0
VERTEX
  5
16C7F
  8
0
 10
248.7472232502678082
 20
268.5000000000001137
 30
0.0
  0
SEQEND
  5
16C80
  8
0
  0
POLYLINE
  5
157B5
  8
0
 66
     1
 10
0.0
 20
0.0
 30
0.0
  0
VERTEX
  5
16C81
  8
0
 10
248.7472232502678082
 20
268.5000000000001137
 30
0.0
  0
VERTEX
  5
16C82
  8
0
 10
248.6372469829188105
 20
268.6904844826750036
 30
0.0
  0
VERTEX
  5
16C83
  8
0
 10
248.5272595894805079
 20
268.8809882363019028
 30
0.0
  0
VERTEX
  5
16C84
  8
0
 10
248.4172499438633963
 20
269.0715305318328774
 30
0.0
  0
VERTEX
  5
16C85
  8
0
 10
248.307206919978313
 20
269.2621306402203913
 30
0.0
  0
VERTEX
  5
16C86
  8
0
 10
248.1971193917358107
 20
269.4528078324159992
 30
0.0
  0
VERTEX
  5
16C87
  8
0
 10
248.0869762330463004
 20
269.6435813793722787
 30
0.0
  0
VERTEX
  5
16C88
  8
0
 10
247.9767663178209034
 20
269.8344705520410116
 30
0.0
  0
VERTEX
  5
16C89
  8
0
 10
247.8664785199698883
 20
270.0254946213743779
 30
0.0
  0
VERTEX
  5
16C8A
  8
0
 10
247.7561022267028932
 20
270.2166719692647234
 30
0.0
  0
VERTEX
  5
16C8B
  8
0
 10
247.6456377085121972
 20
270.4080021272055774
 30
0.0
  0
VERTEX
  5
16C8C
  8
0
 10
247.535095630032913
 20
270.5994666235068848
 30
0.0
  0
VERTEX
  5
16C8D
  8
0
 10
247.4244870713064017
 20
270.7910462669746039
 30
0.0
  0
VERTEX
  5
16C8E
  8
0
 10
247.3138231123739104
 20
270.982721866414181
 30
0.0
  0
VERTEX
  5
16C8F
  8
0
 10
247.2031148332764872
 20
271.1744742306311764
 30
0.0
  0
VERTEX
  5
16C90
  8
0
 10
247.092373314055294
 20
271.3662841684313207
 30
0.0
  0
VERTEX
  5
16C91
  8
0
 10
246.9816096347518055
 20
271.5581324886201742
 30
0.0
  0
VERTEX
  5
16C92
  8
0
 10
246.870834875407013
 20
271.7500000000032969
 30
0.0
  0
SEQEND
  5
16C93
  8
0
  0
POLYLINE
  5
157B6
  8
0
 66
     1
 10
0.0
 20
0.0
 30
0.0
  0
VERTEX
  5
16C94
  8
0
 10
258.129165124593726
 20
278.2499999999969873
 30
0.0
  0
VERTEX
  5
16C95
  8
0
 10
258.2399397761989235
 20
278.0581326752280233
 30
0.0
  0
VERTEX
  5
16C96
  8
0
 10
258.350703317368982
 20
277.8662845942969284
 30
0.0
  0
VERTEX
  5
16C97
  8
0
 10
258.461444637669274
 20
277.6744750010415146
 30
0.0
  0
VERTEX
  5
16C98
  8
0
 10
258.5721526266644901
 20
277.4827231392995941
 30
0.0
  0
VERTEX
  5
16C99
  8
0
 10
258.6828161739197185
 20
277.2910482529090928
 30
0.0
  0
VERTEX
  5
16C9A
  8
0
 10
258.793424169000275
 20
277.0994695857078796
 30
0.0
  0
VERTEX
  5
16C9B
  8
0
 10
258.9039655014707932
 20
276.9080063815337098
 30
0.0
  0
VERTEX
  5
16C9C
  8
0
 10
259.0144290608964752
 20
276.7166778842243957
 30
0.0
  0
VERTEX
  5
16C9D
  8
0
 10
259.1248042579929916
 20
276.5255024349589235
 30
0.0
  0
VERTEX
  5
16C9E
  8
0
 10
259.2350914076444042
 20
276.3344794883410032
 30
0.0
  0
VERTEX
  5
16C9F
  8
0
 10
259.3453011595090061
 20
276.1435905986223815
 30
0.0
  0
VERTEX
  5
16CA0
  8
0
 10
259.4554445704130785
 20
275.9528166148173796
 30
0.0
  0
VERTEX
  5
16CA1
  8
0
 10
259.5655326971839258
 20
275.7621383859404887
 30
0.0
  0
VERTEX
  5
16CA2
  8
0
 10
259.6755765966477156
 20
275.571536761005575
 30
0.0
  0
VERTEX
  5
16CA3
  8
0
 10
259.7855873256315817
 20
275.380992589027926
 30
0.0
  0
VERTEX
  5
16CA4
  8
0
 10
259.8955759409619191
 20
275.1904867190211235
 30
0.0
  0
VERTEX
  5
16CA5
  8
0
 10
260.0055534994655204
 20
275.0000000000001137
 30
0.0
  0
SEQEND
  5
16CA6
  8
0
  0
POLYLINE
  5
157B7
  8
0
 66
     1
 10
0.0
 20
0.0
 30
0.0
  0
VERTEX
  5
16CA7
  8
0
 10
260.0055534994655204
 20
275.0000000000001137
 30
0.0
  0
VERTEX
  5
16CA8
  8
0
 10
259.895577232116807
 20
274.8095155173252238
 30
0.0
  0
VERTEX
  5
16CA9
  8
0
 10
259.7855898386787885
 20
274.6190117636979835
 30
0.0
  0
VERTEX
  5
16CAA
  8
0
 10
259.6755801930619896
 20
274.4284694681668952
 30
0.0
  0
VERTEX
  5
16CAB
  8
0
 10
259.5655371691772189
 20
274.2378693597793813
 30
0.0
  0
VERTEX
  5
16CAC
  8
0
 10
259.4554496409346029
 20
274.0471921675836029
 30
0.0
  0
VERTEX
  5
16CAD
  8
0
 10
259.3453064822451211
 20
273.856418620627494
 30
0.0
  0
VERTEX
  5
16CAE
  8
0
 10
259.2350965670194114
 20
273.6655294479588747
 30
0.0
  0
VERTEX
  5
16CAF
  8
0
 10
259.1248087691678847
 20
273.474505378625679
 30
0.0
  0
VERTEX
  5
16CB0
  8
0
 10
259.0144324759002075
 20
273.2833280307357882
 30
0.0
  0
VERTEX
  5
16CB1
  8
0
 10
258.9039679577086872
 20
273.0919978727956163
 30
0.0
  0
VERTEX
  5
16CB2
  8
0
 10
258.7934258792283799
 20
272.9005333764944794
 30
0.0
  0
VERTEX
  5
16CB3
  8
0
 10
258.682817320500817
 20
272.708953733027613
 30
0.0
  0
VERTEX
  5
16CB4
  8
0
 10
258.5721533615667909
 20
272.5172781335888885
 30
0.0
  0
VERTEX
  5
16CB5
  8
0
 10
258.461445082467776
 20
272.325525769372689
 30
0.0
  0
VERTEX
  5
16CB6
  8
0
 10
258.3507035632450766
 20
272.1337158315736247
 30
0.0
  0
VERTEX
  5
16CB7
  8
0
 10
258.2399398839399964
 20
271.9418675113856239
 30
0.0
  0
VERTEX
  5
16CB8
  8
0
 10
258.129165124593726
 20
271.7500000000032969
 30
0.0
  0
SEQEND
  5
16CB9
  8
0
  0
POLYLINE
  5
157B8
  8
0
 66
     1
 10
0.0
 20
0.0
 30
0.0
  0
VERTEX
  5
16CBA
  8
0
 10
256.252776749733016
 20
281.5000000000001137
 30
0.0
  0
VERTEX
  5
16CBB
  8
0
 10
256.3627530170820137
 20
281.3095155173252806
 30
0.0
  0
VERTEX
  5
16CBC
  8
0
 10
256.4727404105203163
 20
281.1190117636983814
 30
0.0
  0
VERTEX
  5
16CBD
  8
0
 10
256.5827500561372858
 20
280.9284694681672931
 30
0.0
  0
VERTEX
  5
16CBE
  8
0
 10
256.6927930800225113
 20
280.7378693597798929
 30
0.0
  0
VERTEX
  5
16CBF
  8
0
 10
256.8028806082650135
 20
280.5471921675842282
 30
0.0
  0
VERTEX
  5
16CC0
  8
0
 10
256.9130237669543249
 20
280.3564186206281192
 30
0.0
  0
VERTEX
  5
16CC1
  8
0
 10
257.0232336821799208
 20
280.1655294479592726
 30
0.0
  0
VERTEX
  5
16CC2
  8
0
 10
257.133521480030879
 20
279.97450537862602
 30
0.0
  0
VERTEX
  5
16CC3
  8
0
 10
257.2438977732978742
 20
279.7833280307356176
 30
0.0
  0
VERTEX
  5
16CC4
  8
0
 10
257.354362291488485
 20
279.5919978727948205
 30
0.0
  0
VERTEX
  5
16CC5
  8
0
 10
257.4649043699678259
 20
279.4005333764932857
 30
0.0
  0
VERTEX
  5
16CC6
  8
0
 10
257.5755129286941951
 20
279.2089537330256235
 30
0.0
  0
VERTEX
  5
16CC7
  8
0
 10
257.6861768876268002
 20
279.0172781335862169
 30
0.0
  0
VERTEX
  5
16CC8
  8
0
 10
257.7968851667242802
 20
278.8255257693692215
 30
0.0
  0
VERTEX
  5
16CC9
  8
0
 10
257.9076266859452744
 20
278.6337158315690203
 30
0.0
  0
VERTEX
  5
16CCA
  8
0
 10
258.0183903652488766
 20
278.4418675113802237
 30
0.0
  0
VERTEX
  5
16CCB
  8
0
 10
258.129165124593726
 20
278.2499999999969873
 30
0.0
  0
SEQEND
  5
16CCC
  8
0
  0
POLYLINE
  5
157B9
  8
0
 66
     1
 10
0.0
 20
0.0
 30
0.0
  0
VERTEX
  5
16CCD
  8
0
 10
252.5000000000003126
 20
281.4999999999938041
 30
0.0
  0
VERTEX
  5
16CCE
  8
0
 10
252.7215493032090023
 20
281.4999999999947136
 30
0.0
  0
VERTEX
  5
16CCF
  8
0
 10
252.9430763855478119
 20
281.4999999999956231
 30
0.0
  0
VERTEX
  5
16CD0
  8
0
 10
253.1645590261466054
 20
281.4999999999964757
 30
0.0
  0
VERTEX
  5
16CD1
  8
0
 10
253.3859750041357017
 20
281.4999999999973852
 30
0.0
  0
VERTEX
  5
16CD2
  8
0
 10
253.607302098644908
 20
281.4999999999981242
 30
0.0
  0
VERTEX
  5
16CD3
  8
0
 10
253.8285180888047989
 20
281.49999999999892
 30
0.0
  0
VERTEX
  5
16CD4
  8
0
 10
254.0496007537446985
 20
281.4999999999993747
 30
0.0
  0
VERTEX
  5
16CD5
  8
0
 10
254.2705278725952098
 20
281.4999999999998863
 30
0.0
  0
VERTEX
  5
16CD6
  8
0
 10
254.4912782667873046
 20
281.5000000000002842
 30
0.0
  0
VERTEX
  5
16CD7
  8
0
 10
254.7118525660897888
 20
281.5000000000003979
 30
0.0
  0
VERTEX
  5
16CD8
  8
0
 10
254.9322720698185947
 20
281.5000000000006821
 30
0.0
  0
VERTEX
  5
16CD9
  8
0
 10
255.152558891627109
 20
281.5000000000006821
 30
0.0
  0
VERTEX
  5
16CDA
  8
0
 10
255.3727351451686047
 20
281.5000000000006821
 30
0.0
  0
VERTEX
  5
16CDB
  8
0
 10
255.5928229440964969
 20
281.5000000000006253
 30
0.0
  0
VERTEX
  5
16CDC
  8
0
 10
255.812844402064286
 20
281.5000000000003979
 30
0.0
  0
VERTEX
  5
16CDD
  8
0
 10
256.0328216327253017
 20
281.5000000000002842
 30
0.0
  0
VERTEX
  5
16CDE
  8
0
 10
256.2527767497329023
 20
281.5000000000001137
 30
0.0
  0
SEQEND
  5
16CDF
  8
0
  0
POLYLINE
  5
157BA
  8
0
 66
     1
 10
0.0
 20
0.0
 30
0.0
  0
VERTEX
  5
16CE0
  8
0
 10
246.870834875407013
 20
271.7500000000032969
 30
0.0
  0
VERTEX
  5
16CE1
  8
0
 10
246.7600602238019007
 20
271.9418673247723177
 30
0.0
  0
VERTEX
  5
16CE2
  8
0
 10
246.6492966826318138
 20
272.1337154057035264
 30
0.0
  0
VERTEX
  5
16CE3
  8
0
 10
246.5385553623314934
 20
272.3255249989588833
 30
0.0
  0
VERTEX
  5
16CE4
  8
0
 10
246.427847373336192
 20
272.5172768607008038
 30
0.0
  0
VERTEX
  5
16CE5
  8
0
 10
246.317183826080992
 20
272.7089517470911915
 30
0.0
  0
VERTEX
  5
16CE6
  8
0
 10
246.2065758310004071
 20
272.9005304142924047
 30
0.0
  0
VERTEX
  5
16CE7
  8
0
 10
246.0960344985298889
 20
273.0919936184668018
 30
0.0
  0
VERTEX
  5
16CE8
  8
0
 10
245.9855709391042069
 20
273.2833221157758885
 30
0.0
  0
VERTEX
  5
16CE9
  8
0
 10
245.8751957420078043
 20
273.4744975650415881
 30
0.0
  0
VERTEX
  5
16CEA
  8
0
 10
245.7649085923563064
 20
273.6655205116592242
 30
0.0
  0
VERTEX
  5
16CEB
  8
0
 10
245.6546988404919887
 20
273.8564094013779027
 30
0.0
  0
VERTEX
  5
16CEC
  8
0
 10
245.5445554295874899
 20
274.047183385182791
 30
0.0
  0
VERTEX
  5
16CED
  8
0
 10
245.4344673028168984
 20
274.2378616140600229
 30
0.0
  0
VERTEX
  5
16CEE
  8
0
 10
245.3244234033529949
 20
274.4284632389944818
 30
0.0
  0
VERTEX
  5
16CEF
  8
0
 10
245.2144126743692141
 20
274.6190074109724151
 30
0.0
  0
VERTEX
  5
16CF0
  8
0
 10
245.1044240590387915
 20
274.8095132809792176
 30
0.0
  0
VERTEX
  5
16CF1
  8
0
 10
244.9944465005351901
 20
275.0000000000001137
 30
0.0
  0
SEQEND
  5
16CF2
  8
0
  0
POLYLINE
  5
157BB
  8
0
 66
     1
 10
0.0
 20
0.0
 30
0.0
  0
VERTEX
  5
16CF3
  8
0
 10
244.9944465005351901
 20
275.0000000000001137
 30
0.0
  0
VERTEX
  5
16CF4
  8
0
 10
245.1044227678839036
 20
275.1904844826751741
 30
0.0
  0
VERTEX
  5
16CF5
  8
0
 10
245.2144101613220073
 20
275.3809882363023007
 30
0.0
  0
VERTEX
  5
16CF6
  8
0
 10
245.3244198069388062
 20
275.5715305318336164
 30
0.0
  0
VERTEX
  5
16CF7
  8
0
 10
245.4344628308238043
 20
275.7621306402210166
 30
0.0
  0
VERTEX
  5
16CF8
  8
0
 10
245.5445503590663066
 20
275.952807832416795
 30
0.0
  0
VERTEX
  5
16CF9
  8
0
 10
245.6546935177557032
 20
276.1435813793727903
 30
0.0
  0
VERTEX
  5
16CFA
  8
0
 10
245.7649034329814128
 20
276.3344705520415232
 30
0.0
  0
VERTEX
  5
16CFB
  8
0
 10
245.8751912308329111
 20
276.5254946213746052
 30
0.0
  0
VERTEX
  5
16CFC
  8
0
 10
245.9855675241005031
 20
276.7166719692646097
 30
0.0
  0
VERTEX
  5
16CFD
  8
0
 10
246.0960320422921086
 20
276.9080021272047816
 30
0.0
  0
VERTEX
  5
16CFE
  8
0
 10
246.2065741207723022
 20
277.0994666235058048
 30
0.0
  0
VERTEX
  5
16CFF
  8
0
 10
246.3171826795000925
 20
277.2910462669727849
 30
0.0
  0
VERTEX
  5
16D00
  8
0
 10
246.4278466384338913
 20
277.4827218664115094
 30
0.0
  0
VERTEX
  5
16D01
  8
0
 10
246.5385549175329061
 20
277.6744742306277089
 30
0.0
  0
VERTEX
  5
16D02
  8
0
 10
246.6492964367556056
 20
277.8662841684268869
 30
0.0
  0
VERTEX
  5
16D03
  8
0
 10
246.7600601160607141
 20
278.058132488614774
 30
0.0
  0
VERTEX
  5
16D04
  8
0
 10
246.870834875407013
 20
278.2499999999972147
 30
0.0
  0
SEQEND
  5
16D05
  8
0
  0
POLYLINE
  5
157BC
  8
0
 66
     1
 10
0.0
 20
0.0
 30
0.0
  0
VERTEX
  5
16D06
  8
0
 10
246.870834875407013
 20
278.2499999999969873
 30
0.0
  0
VERTEX
  5
16D07
  8
0
 10
246.9816095270105905
 20
278.4418673247669176
 30
0.0
  0
VERTEX
  5
16D08
  8
0
 10
247.0923730681791994
 20
278.6337154056989789
 30
0.0
  0
VERTEX
  5
16D09
  8
0
 10
247.2031143884778999
 20
278.8255249989551885
 30
0.0
  0
VERTEX
  5
16D0A
  8
0
 10
247.3138223774716948
 20
279.0172768606980185
 30
0.0
  0
VERTEX
  5
16D0B
  8
0
 10
247.4244859247257011
 20
279.2089517470893156
 30
0.0
  0
VERTEX
  5
16D0C
  8
0
 10
247.5350939198048081
 20
279.4005304142913246
 30
0.0
  0
VERTEX
  5
16D0D
  8
0
 10
247.6456352522743884
 20
279.591993618466006
 30
0.0
  0
VERTEX
  5
16D0E
  8
0
 10
247.7560988116991894
 20
279.783322115775718
 30
0.0
  0
VERTEX
  5
16D0F
  8
0
 10
247.8664740087947962
 20
279.9744975650415881
 30
0.0
  0
VERTEX
  5
16D10
  8
0
 10
247.9767611584458962
 20
280.165520511659679
 30
0.0
  0
VERTEX
  5
16D11
  8
0
 10
248.0869709103101002
 20
280.3564094013785279
 30
0.0
  0
VERTEX
  5
16D12
  8
0
 10
248.1971143212144
 20
280.5471833851835868
 30
0.0
  0
VERTEX
  5
16D13
  8
0
 10
248.3072024479851052
 20
280.7378616140605914
 30
0.0
  0
VERTEX
  5
16D14
  8
0
 10
248.4172463474490939
 20
280.9284632389952208
 30
0.0
  0
VERTEX
  5
16D15
  8
0
 10
248.5272570764331022
 20
281.119007410972813
 30
0.0
  0
VERTEX
  5
16D16
  8
0
 10
248.6372456917636953
 20
281.3095132809792744
 30
0.0
  0
VERTEX
  5
16D17
  8
0
 10
248.7472232502678082
 20
281.5000000000001137
 30
0.0
  0
SEQEND
  5
16D18
  8
0
  0
POLYLINE
  5
157BD
  8
0
 66
     1
 10
0.0
 20
0.0
 30
0.0
  0
VERTEX
  5
16D19
  8
0
 10
248.7472232502678082
 20
281.5000000000001137
 30
0.0
  0
VERTEX
  5
16D1A
  8
0
 10
248.9671757849654057
 20
281.5000000000002842
 30
0.0
  0
VERTEX
  5
16D1B
  8
0
 10
249.1871505718418121
 20
281.5000000000003979
 30
0.0
  0
VERTEX
  5
16D1C
  8
0
 10
249.4071698630756089
 20
281.5000000000006253
 30
0.0
  0
VERTEX
  5
16D1D
  8
0
 10
249.627255910845804
 20
281.5000000000006821
 30
0.0
  0
VERTEX
  5
16D1E
  8
0
 10
249.8474309673308937
 20
281.5000000000006821
 30
0.0
  0
VERTEX
  5
16D1F
  8
0
 10
250.0677172847096017
 20
281.5000000000006821
 30
0.0
  0
VERTEX
  5
16D20
  8
0
 10
250.2881371151609073
 20
281.5000000000003979
 30
0.0
  0
VERTEX
  5
16D21
  8
0
 10
250.5087127108633922
 20
281.5000000000002842
 30
0.0
  0
VERTEX
  5
16D22
  8
0
 10
250.7294652973980931
 20
281.5
 30
0.0
  0
VERTEX
  5
16D23
  8
0
 10
250.9503943337803094
 20
281.4999999999994884
 30
0.0
  0
VERTEX
  5
16D24
  8
0
 10
251.1714784907397018
 20
281.49999999999892
 30
0.0
  0
VERTEX
  5
16D25
  8
0
 10
251.3926956081938897
 20
281.499999999998181
 30
0.0
  0
VERTEX
  5
16D26
  8
0
 10
251.6140235260604925
 20
281.4999999999973852
 30
0.0
  0
VERTEX
  5
16D27
  8
0
 10
251.8354400842567884
 20
281.4999999999964757
 30
0.0
  0
VERTEX
  5
16D28
  8
0
 10
252.0569231227005957
 20
281.4999999999956799
 30
0.0
  0
VERTEX
  5
16D29
  8
0
 10
252.2784504813093065
 20
281.4999999999948272
 30
0.0
  0
VERTEX
  5
16D2A
  8
0
 10
252.5000000000003126
 20
281.4999999999938041
 30
0.0
  0
SEQEND
  5
16D2B
  8
0
  0
POLYLINE
  5
157BE
  8
2
 66
     1
 10
0.0
 20
0.0
 30
0.0
  0
VERTEX
  5
16D2C
  8
2
 10
248.876533368565191
 20
158.2377073753351056
 30
0.0
  0
VERTEX
  5
16D2D
  8
2
 10
249.6886802372339957
 20
158.0095747912984052
 30
0.0
  0
VERTEX
  5
16D2E
  8
2
 10
250.5005022837671049
 20
157.780233811852213
 30
0.0
  0
VERTEX
  5
16D2F
  8
2
 10
251.3120104832835011
 20
157.5497252663681138
 30
0.0
  0
VERTEX
  5
16D30
  8
2
 10
252.1232158109027921
 20
157.3180899842176075
 30
0.0
  0
VERTEX
  5
16D31
  8
2
 10
252.9341292417437899
 20
157.0853687947721085
 30
0.0
  0
VERTEX
  5
16D32
  8
2
 10
253.7447617509257043
 20
156.8516025274030028
 30
0.0
  0
VERTEX
  5
16D33
  8
2
 10
254.5551243135678021
 20
156.6168320114819892
 30
0.0
  0
VERTEX
  5
16D34
  8
2
 10
255.3652279047894922
 20
156.3810980763803968
 30
0.0
  0
VERTEX
  5
16D35
  8
2
 10
256.1750834997095012
 20
156.1444415514698107
 30
0.0
  0
VERTEX
  5
16D36
  8
2
 10
256.9847020734472949
 20
155.9069032661215033
 30
0.0
  0
VERTEX
  5
16D37
  8
2
 10
257.7940946011221968
 20
155.6685240497072016
 30
0.0
  0
SEQEND
  5
16D38
  8
2
  0
POLYLINE
  5
157BF
  8
2
 66
     1
 10
0.0
 20
0.0
 30
0.0
  0
VERTEX
  5
16D39
  8
2
 10
257.7940949133175081
 20
155.6685239575911908
 30
0.0
  0
VERTEX
  5
16D3A
  8
2
 10
257.8782076297142112
 20
155.6440160736734128
 30
0.0
  0
VERTEX
  5
16D3B
  8
2
 10
257.962237175092298
 20
155.6195475673497981
 30
0.0
  0
VERTEX
  5
16D3C
  8
2
 10
258.046100378432584
 20
155.5951578162139981
 30
0.0
  0
VERTEX
  5
16D3D
  8
2
 10
258.1297140687166234
 20
155.5708861978600055
 30
0.0
  0
VERTEX
  5
16D3E
  8
2
 10
258.2129950749255727
 20
155.5467720898820119
 30
0.0
  0
VERTEX
  5
16D3F
  8
2
 10
258.2958602260408156
 20
155.5228548698738109
 30
0.0
  0
VERTEX
  5
16D40
  8
2
 10
258.3782263510432244
 20
155.4991739154293953
 30
0.0
  0
VERTEX
  5
16D41
  8
2
 10
258.460010278914126
 20
155.4757686041427007
 30
0.0
  0
VERTEX
  5
16D42
  8
2
 10
258.5411288386349042
 20
155.4526783136078052
 30
0.0
  0
VERTEX
  5
16D43
  8
2
 10
258.6215006851979865
 20
155.4299415517203045
 30
0.0
  0
VERTEX
  5
16D44
  8
2
 10
258.7011023428642034
 20
155.4075692642246054
 30
0.0
  0
VERTEX
  5
16D45
  8
2
 10
258.7799786960292181
 20
155.3855398380925976
 30
0.0
  0
VERTEX
  5
16D46
  8
2
 10
258.8581785715459773
 20
155.363829782569411
 30
0.0
  0
VERTEX
  5
16D47
  8
2
 10
258.9357507962679961
 20
155.3424156069009996
 30
0.0
  0
VERTEX
  5
16D48
  8
2
 10
259.0127441970490736
 20
155.3212738203326069
 30
0.0
  0
VERTEX
  5
16D49
  8
2
 10
259.089207600741986
 20
155.3003809321101869
 30
0.0
  0
VERTEX
  5
16D4A
  8
2
 10
259.165189834200703
 20
155.2797134514790116
 30
0.0
  0
VERTEX
  5
16D4B
  8
2
 10
259.2407397242780007
 20
155.2592478876850066
 30
0.0
  0
VERTEX
  5
16D4C
  8
2
 10
259.3159060978277921
 20
155.2389607499735007
 30
0.0
  0
VERTEX
  5
16D4D
  8
2
 10
259.3907018831807818
 20
155.2188417837533052
 30
0.0
  0
VERTEX
  5
16D4E
  8
2
 10
259.4649299455742266
 20
155.1989581869075039
 30
0.0
  0
VERTEX
  5
16D4F
  8
2
 10
259.5383169704473971
 20
155.1794052456124007
 30
0.0
  0
VERTEX
  5
16D50
  8
2
 10
259.6105895366652021
 20
155.1602782853397002
 30
0.0
  0
VERTEX
  5
16D51
  8
2
 10
259.6814742230922093
 20
155.1416726315609935
 30
0.0
  0
VERTEX
  5
16D52
  8
2
 10
259.7506976085931001
 20
155.1236836097480136
 30
0.0
  0
VERTEX
  5
16D53
  8
2
 10
259.8179862720323854
 20
155.1064065453724083
 30
0.0
  0
VERTEX
  5
16D54
  8
2
 10
259.883066792274974
 20
155.0899367639057118
 30
0.0
  0
VERTEX
  5
16D55
  8
2
 10
259.9456657481856041
 20
155.0743695908197139
 30
0.0
  0
VERTEX
  5
16D56
  8
2
 10
260.0055534994655204
 20
155.0597845466382125
 30
0.0
  0
SEQEND
  5
16D57
  8
2
  0
POLYLINE
  5
157C0
  8
2
 66
     1
 10
0.0
 20
0.0
 30
0.0
  0
VERTEX
  5
16D58
  8
2
 10
151.1234666314356048
 20
158.2377073753351908
 30
0.0
  0
VERTEX
  5
16D59
  8
2
 10
150.3113197627666864
 20
158.0095747912984905
 30
0.0
  0
VERTEX
  5
16D5A
  8
2
 10
149.4994977162336909
 20
157.7802338118522982
 30
0.0
  0
VERTEX
  5
16D5B
  8
2
 10
148.6879895167170957
 20
157.5497252663681991
 30
0.0
  0
VERTEX
  5
16D5C
  8
2
 10
147.87678418909789
 20
157.3180899842176075
 30
0.0
  0
VERTEX
  5
16D5D
  8
2
 10
147.0658707582570059
 20
157.0853687947721085
 30
0.0
  0
VERTEX
  5
16D5E
  8
2
 10
146.2552382490750063
 20
156.8516025274030028
 30
0.0
  0
VERTEX
  5
16D5F
  8
2
 10
145.4448756864329084
 20
156.6168320114819892
 30
0.0
  0
VERTEX
  5
16D60
  8
2
 10
144.6347720952113036
 20
156.3810980763805105
 30
0.0
  0
VERTEX
  5
16D61
  8
2
 10
143.8249165002912093
 20
156.1444415514698107
 30
0.0
  0
VERTEX
  5
16D62
  8
2
 10
143.015297926553302
 20
155.9069032661215886
 30
0.0
  0
VERTEX
  5
16D63
  8
2
 10
142.205905398878599
 20
155.6685240497072016
 30
0.0
  0
SEQEND
  5
16D64
  8
2
  0
POLYLINE
  5
157C1
  8
2
 66
     1
 10
0.0
 20
0.0
 30
0.0
  0
VERTEX
  5
16D65
  8
2
 10
139.9944465005353038
 20
155.0600487578101934
 30
0.0
  0
VERTEX
  5
16D66
  8
2
 10
140.0546212520341101
 20
155.0747197141402864
 30
0.0
  0
VERTEX
  5
16D67
  8
2
 10
140.117076197263799
 20
155.0902203067801963
 30
0.0
  0
VERTEX
  5
16D68
  8
2
 10
140.1819468414398102
 20
155.1066028224229001
 30
0.0
  0
VERTEX
  5
16D69
  8
2
 10
140.2489773287622086
 20
155.123777697635802
 30
0.0
  0
VERTEX
  5
16D6A
  8
2
 10
140.3179118034304054
 20
155.1416553689863065
 30
0.0
  0
VERTEX
  5
16D6B
  8
2
 10
140.388494409644494
 20
155.1601462730413914
 30
0.0
  0
VERTEX
  5
16D6C
  8
2
 10
140.460469291604312
 20
155.1791608463686032
 30
0.0
  0
VERTEX
  5
16D6D
  8
2
 10
140.5335805935096118
 20
155.1986095255352893
 30
0.0
  0
VERTEX
  5
16D6E
  8
2
 10
140.6075724595602878
 20
155.218402747108513
 30
0.0
  0
VERTEX
  5
16D6F
  8
2
 10
140.6821892498836064
 20
155.2384510280056134
 30
0.0
  0
VERTEX
  5
16D70
  8
2
 10
140.7572517810305897
 20
155.2586933357403041
 30
0.0
  0
VERTEX
  5
16D71
  8
2
 10
140.832769768822601
 20
155.2791389301135894
 30
0.0
  0
VERTEX
  5
16D72
  8
2
 10
140.9087815913304098
 20
155.2998077365853931
 30
0.0
  0
VERTEX
  5
16D73
  8
2
 10
140.985325626625098
 20
155.3207196806150137
 30
0.0
  0
VERTEX
  5
16D74
  8
2
 10
141.0624402527774066
 20
155.3418946876622897
 30
0.0
  0
VERTEX
  5
16D75
  8
2
 10
141.140163847858588
 20
155.3633526831868039
 30
0.0
  0
VERTEX
  5
16D76
  8
2
 10
141.2185347899392127
 20
155.3851135926481106
 30
0.0
  0
VERTEX
  5
16D77
  8
2
 10
141.2975914570903058
 20
155.4071973415057926
 30
0.0
  0
VERTEX
  5
16D78
  8
2
 10
141.3773722273828923
 20
155.4296238552194893
 30
0.0
  0
VERTEX
  5
16D79
  8
2
 10
141.4579115300358012
 20
155.452411123358587
 30
0.0
  0
VERTEX
  5
16D7A
  8
2
 10
141.5391805190944865
 20
155.4755461153903866
 30
0.0
  0
VERTEX
  5
16D7B
  8
2
 10
141.6210994039541902
 20
155.4989908256115996
 30
0.0
  0
VERTEX
  5
16D7C
  8
2
 10
141.7035869476395078
 20
155.5227065392485883
 30
0.0
  0
VERTEX
  5
16D7D
  8
2
 10
141.7865619131758024
 20
155.5466545415276016
 30
0.0
  0
VERTEX
  5
16D7E
  8
2
 10
141.8699430635873
 20
155.5707961176750018
 30
0.0
  0
VERTEX
  5
16D7F
  8
2
 10
141.953649161899591
 20
155.5950925529172082
 30
0.0
  0
VERTEX
  5
16D80
  8
2
 10
142.0375989711371858
 20
155.6195051324804126
 30
0.0
  0
VERTEX
  5
16D81
  8
2
 10
142.1217112543249073
 20
155.6439951415910059
 30
0.0
  0
VERTEX
  5
16D82
  8
2
 10
142.2059047744878058
 20
155.6685238654752084
 30
0.0
  0
SEQEND
  5
16D83
  8
2
  0
POLYLINE
  5
157C2
  8
2
 66
     1
 10
0.0
 20
0.0
 30
0.0
  0
VERTEX
  5
16D84
  8
2
 10
142.2059047744878058
 20
155.6685238654752084
 30
0.0
  0
VERTEX
  5
16D85
  8
2
 10
143.0152973587653946
 20
155.9069030992249907
 30
0.0
  0
VERTEX
  5
16D86
  8
2
 10
143.8249159891317959
 20
156.1444414018147882
 30
0.0
  0
VERTEX
  5
16D87
  8
2
 10
144.63477164070801
 20
156.3810979438653987
 30
0.0
  0
VERTEX
  5
16D88
  8
2
 10
145.4448752886154068
 20
156.6168318959973078
 30
0.0
  0
VERTEX
  5
16D89
  8
2
 10
146.2552379079756122
 20
156.8516024288313133
 30
0.0
  0
VERTEX
  5
16D8A
  8
2
 10
147.0658704739097971
 20
157.0853687129879006
 30
0.0
  0
VERTEX
  5
16D8B
  8
2
 10
147.876783961539104
 20
157.3180899190880098
 30
0.0
  0
VERTEX
  5
16D8C
  8
2
 10
148.6879893459851871
 20
157.5497252177520124
 30
0.0
  0
VERTEX
  5
16D8D
  8
2
 10
149.4994976023689901
 20
157.7802337796007919
 30
0.0
  0
VERTEX
  5
16D8E
  8
2
 10
150.3113197058121102
 20
158.0095747752548903
 30
0.0
  0
VERTEX
  5
16D8F
  8
2
 10
151.12346663143569
 20
158.2377073753351056
 30
0.0
  0
SEQEND
  5
16D90
  8
2
  0
POLYLINE
  5
157C3
  8
0
 66
     1
 10
0.0
 20
0.0
 30
0.0
  0
VERTEX
  5
16D91
  8
0
 10
143.7472232502678082
 20
158.0305627518719973
 30
0.0
  0
VERTEX
  5
16D92
  8
0
 10
143.6372469829186116
 20
158.0575302959040869
 30
0.0
  0
VERTEX
  5
16D93
  8
0
 10
143.5272595894805079
 20
158.0841882100864098
 30
0.0
  0
VERTEX
  5
16D94
  8
0
 10
143.4172499438633963
 20
158.1102268645691993
 30
0.0
  0
VERTEX
  5
16D95
  8
0
 10
143.307206919978313
 20
158.1353366295024045
 30
0.0
  0
VERTEX
  5
16D96
  8
0
 10
143.1971193917358107
 20
158.1592078750362873
 30
0.0
  0
VERTEX
  5
16D97
  8
0
 10
143.0869762330463004
 20
158.1815309713211093
 30
0.0
  0
VERTEX
  5
16D98
  8
0
 10
142.9767663178209034
 20
158.2019962885067912
 30
0.0
  0
VERTEX
  5
16D99
  8
0
 10
142.8664785199698031
 20
158.2202941967437937
 30
0.0
  0
VERTEX
  5
16D9A
  8
0
 10
142.7561022267028079
 20
158.2361293508652125
 30
0.0
  0
VERTEX
  5
16D9B
  8
0
 10
142.6456377085121119
 20
158.2495092784479027
 30
0.0
  0
VERTEX
  5
16D9C
  8
0
 10
142.535095630032913
 20
158.2607307674533104
 30
0.0
  0
VERTEX
  5
16D9D
  8
0
 10
142.424487071306487
 20
158.2701021662495862
 30
0.0
  0
VERTEX
  5
16D9E
  8
0
 10
142.3138231123739104
 20
158.2779318232049093
 30
0.0
  0
VERTEX
  5
16D9F
  8
0
 10
142.2031148332764019
 20
158.284528086687601
 30
0.0
  0
VERTEX
  5
16DA0
  8
0
 10
142.0923733140554077
 20
158.2901993050656131
 30
0.0
  0
VERTEX
  5
16DA1
  8
0
 10
141.9816096347518055
 20
158.29525382670721
 30
0.0
  0
VERTEX
  5
16DA2
  8
0
 10
141.8708348754070983
 20
158.299999999980912
 30
0.0
  0
SEQEND
  5
16DA3
  8
0
  0
POLYLINE
  5
157C4
  8
0
 66
     1
 10
0.0
 20
0.0
 30
0.0
  0
VERTEX
  5
16DA4
  8
0
 10
141.8708348754070983
 20
158.299999999980912
 30
0.0
  0
VERTEX
  5
16DA5
  8
0
 10
141.7600602238019007
 20
158.2952743913920983
 30
0.0
  0
VERTEX
  5
16DA6
  8
0
 10
141.6492966826317002
 20
158.2902389322510999
 30
0.0
  0
VERTEX
  5
16DA7
  8
0
 10
141.5385553623314934
 20
158.2845837720057887
 30
0.0
  0
VERTEX
  5
16DA8
  8
0
 10
141.427847373336192
 20
158.2779990601038094
 30
0.0
  0
VERTEX
  5
16DA9
  8
0
 10
141.3171838260809068
 20
158.2701749459928919
 30
0.0
  0
VERTEX
  5
16DAA
  8
0
 10
141.2065758310004071
 20
158.2608015791209084
 30
0.0
  0
VERTEX
  5
16DAB
  8
0
 10
141.0960344985298889
 20
158.2495691089355887
 30
0.0
  0
VERTEX
  5
16DAC
  8
0
 10
140.9855709391042069
 20
158.2361676848848901
 30
0.0
  0
VERTEX
  5
16DAD
  8
0
 10
140.8751957420078043
 20
158.2203019903907091
 30
0.0
  0
VERTEX
  5
16DAE
  8
0
 10
140.7649085923563064
 20
158.201980807027212
 30
0.0
  0
VERTEX
  5
16DAF
  8
0
 10
140.6546988404917897
 20
158.1815011350832947
 30
0.0
  0
VERTEX
  5
16DB0
  8
0
 10
140.5445554295876036
 20
158.1591713300703077
 30
0.0
  0
VERTEX
  5
16DB1
  8
0
 10
140.4344673028168984
 20
158.1352997474996869
 30
0.0
  0
VERTEX
  5
16DB2
  8
0
 10
140.3244234033529096
 20
158.1101947428830101
 30
0.0
  0
VERTEX
  5
16DB3
  8
0
 10
140.2144126743692141
 20
158.0841646717319122
 30
0.0
  0
VERTEX
  5
16DB4
  8
0
 10
140.1044240590389052
 20
158.0575178895576869
 30
0.0
  0
VERTEX
  5
16DB5
  8
0
 10
139.9944465005353038
 20
158.0305627518719973
 30
0.0
  0
SEQEND
  5
16DB6
  8
0
  0
POLYLINE
  5
157C5
  8
0
 66
     1
 10
0.0
 20
0.0
 30
0.0
  0
VERTEX
  5
16DB7
  8
0
 10
151.2527767497329876
 20
158.0305627518719973
 30
0.0
  0
VERTEX
  5
16DB8
  8
0
 10
151.0328242150351912
 20
158.0575302959040869
 30
0.0
  0
VERTEX
  5
16DB9
  8
0
 10
150.8128494281590122
 20
158.0841882100864098
 30
0.0
  0
VERTEX
  5
16DBA
  8
0
 10
150.5928301369251017
 20
158.1102268645691993
 30
0.0
  0
VERTEX
  5
16DBB
  8
0
 10
150.3727440891549918
 20
158.1353366295024045
 30
0.0
  0
VERTEX
  5
16DBC
  8
0
 10
150.1525690326699021
 20
158.1592078750362873
 30
0.0
  0
VERTEX
  5
16DBD
  8
0
 10
149.9322827152911941
 20
158.1815309713211093
 30
0.0
  0
VERTEX
  5
16DBE
  8
0
 10
149.7118628848398885
 20
158.2019962885067912
 30
0.0
  0
VERTEX
  5
16DBF
  8
0
 10
149.4912872891374036
 20
158.2202941967437937
 30
0.0
  0
VERTEX
  5
16DC0
  8
0
 10
149.2705347026027027
 20
158.2361293508652125
 30
0.0
  0
VERTEX
  5
16DC1
  8
0
 10
149.0496056662204865
 20
158.2495092784479027
 30
0.0
  0
VERTEX
  5
16DC2
  8
0
 10
148.8285215092610088
 20
158.2607307674533104
 30
0.0
  0
VERTEX
  5
16DC3
  8
0
 10
148.6073043918067071
 20
158.2701021662495862
 30
0.0
  0
VERTEX
  5
16DC4
  8
0
 10
148.3859764739401896
 20
158.2779318232049093
 30
0.0
  0
VERTEX
  5
16DC5
  8
0
 10
148.1645599157440074
 20
158.284528086687601
 30
0.0
  0
VERTEX
  5
16DC6
  8
0
 10
147.9430768773002001
 20
158.2901993050656131
 30
0.0
  0
VERTEX
  5
16DC7
  8
0
 10
147.7215495186914893
 20
158.29525382670721
 30
0.0
  0
VERTEX
  5
16DC8
  8
0
 10
147.5000000000003979
 20
158.299999999980912
 30
0.0
  0
SEQEND
  5
16DC9
  8
0
  0
POLYLINE
  5
157C6
  8
0
 66
     1
 10
0.0
 20
0.0
 30
0.0
  0
VERTEX
  5
16DCA
  8
0
 10
147.5000000000003126
 20
158.299999999980912
 30
0.0
  0
VERTEX
  5
16DCB
  8
0
 10
147.2784506967915945
 20
158.2952743913920983
 30
0.0
  0
VERTEX
  5
16DCC
  8
0
 10
147.0569236144530123
 20
158.2902389322510999
 30
0.0
  0
VERTEX
  5
16DCD
  8
0
 10
146.8354409738541051
 20
158.2845837720057887
 30
0.0
  0
VERTEX
  5
16DCE
  8
0
 10
146.6140249958648951
 20
158.2779990601038094
 30
0.0
  0
VERTEX
  5
16DCF
  8
0
 10
146.3926979013556036
 20
158.2701749459928919
 30
0.0
  0
VERTEX
  5
16DD0
  8
0
 10
146.1714819111961106
 20
158.2608015791209084
 30
0.0
  0
VERTEX
  5
16DD1
  8
0
 10
145.950399246256012
 20
158.2495691089355887
 30
0.0
  0
VERTEX
  5
16DD2
  8
0
 10
145.729472127405387
 20
158.2361676848846912
 30
0.0
  0
VERTEX
  5
16DD3
  8
0
 10
145.508721733213406
 20
158.2203019903907091
 30
0.0
  0
VERTEX
  5
16DD4
  8
0
 10
145.2881474339108934
 20
158.201980807027212
 30
0.0
  0
VERTEX
  5
16DD5
  8
0
 10
145.0677279301820022
 20
158.1815011350832947
 30
0.0
  0
VERTEX
  5
16DD6
  8
0
 10
144.8474411083736868
 20
158.1591713300703077
 30
0.0
  0
VERTEX
  5
16DD7
  8
0
 10
144.6272648548321058
 20
158.1352997474996869
 30
0.0
  0
VERTEX
  5
16DD8
  8
0
 10
144.4071770559042136
 20
158.1101947428830101
 30
0.0
  0
VERTEX
  5
16DD9
  8
0
 10
144.1871555979363961
 20
158.0841646717319122
 30
0.0
  0
VERTEX
  5
16DDA
  8
0
 10
143.9671783672752952
 20
158.0575178895576869
 30
0.0
  0
VERTEX
  5
16DDB
  8
0
 10
143.7472232502678082
 20
158.0305627518719973
 30
0.0
  0
SEQEND
  5
16DDC
  8
0
  0
POLYLINE
  5
157C7
  8
0
 66
     1
 10
0.0
 20
0.0
 30
0.0
  0
VERTEX
  5
16DDD
  8
0
 10
155.0055534994656057
 20
158.0305627518719973
 30
0.0
  0
VERTEX
  5
16DDE
  8
0
 10
154.895577232116807
 20
158.0575302959042006
 30
0.0
  0
VERTEX
  5
16DDF
  8
0
 10
154.7855898386789022
 20
158.0841882100866087
 30
0.0
  0
VERTEX
  5
16DE0
  8
0
 10
154.6755801930619896
 20
158.110226864569313
 30
0.0
  0
VERTEX
  5
16DE1
  8
0
 10
154.5655371691769915
 20
158.1353366295024898
 30
0.0
  0
VERTEX
  5
16DE2
  8
0
 10
154.4554496409346029
 20
158.1592078750362873
 30
0.0
  0
VERTEX
  5
16DE3
  8
0
 10
154.3453064822450926
 20
158.1815309713211093
 30
0.0
  0
VERTEX
  5
16DE4
  8
0
 10
154.2350965670192977
 20
158.2019962885069049
 30
0.0
  0
VERTEX
  5
16DE5
  8
0
 10
154.1248087691679132
 20
158.2202941967437937
 30
0.0
  0
VERTEX
  5
16DE6
  8
0
 10
154.0144324759002927
 20
158.2361293508652125
 30
0.0
  0
VERTEX
  5
16DE7
  8
0
 10
153.9039679577088009
 20
158.2495092784479027
 30
0.0
  0
VERTEX
  5
16DE8
  8
0
 10
153.7934258792284083
 20
158.2607307674533104
 30
0.0
  0
VERTEX
  5
16DE9
  8
0
 10
153.6828173205007033
 20
158.2701021662495862
 30
0.0
  0
VERTEX
  5
16DEA
  8
0
 10
153.5721533615667056
 20
158.2779318232049093
 30
0.0
  0
VERTEX
  5
16DEB
  8
0
 10
153.4614450824678045
 20
158.284528086687601
 30
0.0
  0
VERTEX
  5
16DEC
  8
0
 10
153.3507035632451903
 20
158.2901993050656131
 30
0.0
  0
VERTEX
  5
16DED
  8
0
 10
153.2399398839401101
 20
158.29525382670721
 30
0.0
  0
VERTEX
  5
16DEE
  8
0
 10
153.1291651245936123
 20
158.2999999999807983
 30
0.0
  0
SEQEND
  5
16DEF
  8
0
  0
POLYLINE
  5
157C8
  8
0
 66
     1
 10
0.0
 20
0.0
 30
0.0
  0
VERTEX
  5
16DF0
  8
0
 10
153.1291651245936123
 20
158.299999999980912
 30
0.0
  0
VERTEX
  5
16DF1
  8
0
 10
153.0183904729900917
 20
158.2952743913920983
 30
0.0
  0
VERTEX
  5
16DF2
  8
0
 10
152.9076269318215964
 20
158.2902389322510999
 30
0.0
  0
VERTEX
  5
16DF3
  8
0
 10
152.7968856115228107
 20
158.2845837720057887
 30
0.0
  0
VERTEX
  5
16DF4
  8
0
 10
152.686177622529101
 20
158.2779990601038094
 30
0.0
  0
VERTEX
  5
16DF5
  8
0
 10
152.5755140752750094
 20
158.2701749459928919
 30
0.0
  0
VERTEX
  5
16DF6
  8
0
 10
152.4649060801959024
 20
158.2608015791209084
 30
0.0
  0
VERTEX
  5
16DF7
  8
0
 10
152.3543647477264074
 20
158.2495691089355887
 30
0.0
  0
VERTEX
  5
16DF8
  8
0
 10
152.2439011883016065
 20
158.2361676848848901
 30
0.0
  0
VERTEX
  5
16DF9
  8
0
 10
152.1335259912058859
 20
158.2203019903907091
 30
0.0
  0
VERTEX
  5
16DFA
  8
0
 10
152.0232388415547859
 20
158.201980807027212
 30
0.0
  0
VERTEX
  5
16DFB
  8
0
 10
151.9130290896906104
 20
158.1815011350832947
 30
0.0
  0
VERTEX
  5
16DFC
  8
0
 10
151.8028856787863958
 20
158.1591713300703077
 30
0.0
  0
VERTEX
  5
16DFD
  8
0
 10
151.6927975520156053
 20
158.1352997474996869
 30
0.0
  0
VERTEX
  5
16DFE
  8
0
 10
151.5827536525515882
 20
158.1101947428830101
 30
0.0
  0
VERTEX
  5
16DFF
  8
0
 10
151.4727429235676084
 20
158.0841646717319122
 30
0.0
  0
VERTEX
  5
16E00
  8
0
 10
151.3627543082369868
 20
158.0575178895576869
 30
0.0
  0
VERTEX
  5
16E01
  8
0
 10
151.2527767497329876
 20
158.0305627518719973
 30
0.0
  0
SEQEND
  5
16E02
  8
0
  0
POLYLINE
  5
157C9
  8
0
 66
     1
 10
0.0
 20
0.0
 30
0.0
  0
VERTEX
  5
16E03
  8
0
 10
248.7472232502678082
 20
158.0305627518719973
 30
0.0
  0
VERTEX
  5
16E04
  8
0
 10
248.6372469829188105
 20
158.0575302959040869
 30
0.0
  0
VERTEX
  5
16E05
  8
0
 10
248.5272595894805079
 20
158.0841882100864098
 30
0.0
  0
VERTEX
  5
16E06
  8
0
 10
248.4172499438633963
 20
158.1102268645691993
 30
0.0
  0
VERTEX
  5
16E07
  8
0
 10
248.307206919978313
 20
158.1353366295024045
 30
0.0
  0
VERTEX
  5
16E08
  8
0
 10
248.1971193917358107
 20
158.1592078750362873
 30
0.0
  0
VERTEX
  5
16E09
  8
0
 10
248.0869762330463004
 20
158.1815309713211093
 30
0.0
  0
VERTEX
  5
16E0A
  8
0
 10
247.9767663178209034
 20
158.2019962885067912
 30
0.0
  0
VERTEX
  5
16E0B
  8
0
 10
247.8664785199698883
 20
158.2202941967437937
 30
0.0
  0
VERTEX
  5
16E0C
  8
0
 10
247.7561022267028932
 20
158.2361293508652125
 30
0.0
  0
VERTEX
  5
16E0D
  8
0
 10
247.6456377085121972
 20
158.2495092784479027
 30
0.0
  0
VERTEX
  5
16E0E
  8
0
 10
247.535095630032913
 20
158.2607307674533104
 30
0.0
  0
VERTEX
  5
16E0F
  8
0
 10
247.4244870713064017
 20
158.2701021662495862
 30
0.0
  0
VERTEX
  5
16E10
  8
0
 10
247.3138231123739104
 20
158.2779318232049093
 30
0.0
  0
VERTEX
  5
16E11
  8
0
 10
247.2031148332764872
 20
158.284528086687601
 30
0.0
  0
VERTEX
  5
16E12
  8
0
 10
247.092373314055294
 20
158.2901993050656131
 30
0.0
  0
VERTEX
  5
16E13
  8
0
 10
246.9816096347518055
 20
158.29525382670721
 30
0.0
  0
VERTEX
  5
16E14
  8
0
 10
246.870834875407013
 20
158.299999999980912
 30
0.0
  0
SEQEND
  5
16E15
  8
0
  0
POLYLINE
  5
157CA
  8
0
 66
     1
 10
0.0
 20
0.0
 30
0.0
  0
VERTEX
  5
16E16
  8
0
 10
246.870834875407013
 20
158.299999999980912
 30
0.0
  0
VERTEX
  5
16E17
  8
0
 10
246.7600602238019007
 20
158.2952743913920983
 30
0.0
  0
VERTEX
  5
16E18
  8
0
 10
246.6492966826318138
 20
158.2902389322510999
 30
0.0
  0
VERTEX
  5
16E19
  8
0
 10
246.5385553623314934
 20
158.2845837720057887
 30
0.0
  0
VERTEX
  5
16E1A
  8
0
 10
246.427847373336192
 20
158.2779990601038094
 30
0.0
  0
VERTEX
  5
16E1B
  8
0
 10
246.317183826080992
 20
158.2701749459928919
 30
0.0
  0
VERTEX
  5
16E1C
  8
0
 10
246.2065758310004071
 20
158.2608015791209084
 30
0.0
  0
VERTEX
  5
16E1D
  8
0
 10
246.0960344985298889
 20
158.2495691089355887
 30
0.0
  0
VERTEX
  5
16E1E
  8
0
 10
245.9855709391042069
 20
158.2361676848848901
 30
0.0
  0
VERTEX
  5
16E1F
  8
0
 10
245.8751957420078043
 20
158.2203019903907091
 30
0.0
  0
VERTEX
  5
16E20
  8
0
 10
245.7649085923563064
 20
158.201980807027212
 30
0.0
  0
VERTEX
  5
16E21
  8
0
 10
245.6546988404919887
 20
158.1815011350832947
 30
0.0
  0
VERTEX
  5
16E22
  8
0
 10
245.5445554295874899
 20
158.1591713300703077
 30
0.0
  0
VERTEX
  5
16E23
  8
0
 10
245.4344673028168984
 20
158.1352997474996869
 30
0.0
  0
VERTEX
  5
16E24
  8
0
 10
245.3244234033529949
 20
158.1101947428830101
 30
0.0
  0
VERTEX
  5
16E25
  8
0
 10
245.2144126743692141
 20
158.0841646717319122
 30
0.0
  0
VERTEX
  5
16E26
  8
0
 10
245.1044240590387915
 20
158.0575178895576869
 30
0.0
  0
VERTEX
  5
16E27
  8
0
 10
244.9944465005351901
 20
158.0305627518719973
 30
0.0
  0
SEQEND
  5
16E28
  8
0
  0
POLYLINE
  5
157CB
  8
0
 66
     1
 10
0.0
 20
0.0
 30
0.0
  0
VERTEX
  5
16E29
  8
0
 10
256.252776749733016
 20
158.0305627518719973
 30
0.0
  0
VERTEX
  5
16E2A
  8
0
 10
256.0328242150354185
 20
158.0575302959040869
 30
0.0
  0
VERTEX
  5
16E2B
  8
0
 10
255.8128494281590122
 20
158.0841882100864098
 30
0.0
  0
VERTEX
  5
16E2C
  8
0
 10
255.5928301369251017
 20
158.1102268645691993
 30
0.0
  0
VERTEX
  5
16E2D
  8
0
 10
255.3727440891551907
 20
158.1353366295024045
 30
0.0
  0
VERTEX
  5
16E2E
  8
0
 10
255.1525690326699021
 20
158.1592078750362873
 30
0.0
  0
VERTEX
  5
16E2F
  8
0
 10
254.9322827152911941
 20
158.1815309713211093
 30
0.0
  0
VERTEX
  5
16E30
  8
0
 10
254.7118628848398885
 20
158.2019962885067912
 30
0.0
  0
VERTEX
  5
16E31
  8
0
 10
254.4912872891374036
 20
158.2202941967437937
 30
0.0
  0
VERTEX
  5
16E32
  8
0
 10
254.2705347026027027
 20
158.2361293508652125
 30
0.0
  0
VERTEX
  5
16E33
  8
0
 10
254.0496056662204865
 20
158.2495092784479027
 30
0.0
  0
VERTEX
  5
16E34
  8
0
 10
253.8285215092610088
 20
158.2607307674533104
 30
0.0
  0
VERTEX
  5
16E35
  8
0
 10
253.6073043918067924
 20
158.2701021662495862
 30
0.0
  0
VERTEX
  5
16E36
  8
0
 10
253.3859764739403033
 20
158.2779318232049093
 30
0.0
  0
VERTEX
  5
16E37
  8
0
 10
253.1645599157438085
 20
158.284528086687601
 30
0.0
  0
VERTEX
  5
16E38
  8
0
 10
252.9430768773002001
 20
158.2901993050656131
 30
0.0
  0
VERTEX
  5
16E39
  8
0
 10
252.7215495186914893
 20
158.29525382670721
 30
0.0
  0
VERTEX
  5
16E3A
  8
0
 10
252.5000000000003126
 20
158.299999999980912
 30
0.0
  0
SEQEND
  5
16E3B
  8
0
  0
POLYLINE
  5
157CC
  8
0
 66
     1
 10
0.0
 20
0.0
 30
0.0
  0
VERTEX
  5
16E3C
  8
0
 10
252.5000000000003126
 20
158.299999999980912
 30
0.0
  0
VERTEX
  5
16E3D
  8
0
 10
252.2784506967917082
 20
158.2952743913920983
 30
0.0
  0
VERTEX
  5
16E3E
  8
0
 10
252.0569236144530123
 20
158.2902389322510999
 30
0.0
  0
VERTEX
  5
16E3F
  8
0
 10
251.8354409738541051
 20
158.2845837720057887
 30
0.0
  0
VERTEX
  5
16E40
  8
0
 10
251.6140249958650941
 20
158.2779990601038094
 30
0.0
  0
VERTEX
  5
16E41
  8
0
 10
251.3926979013556036
 20
158.2701749459928919
 30
0.0
  0
VERTEX
  5
16E42
  8
0
 10
251.1714819111961106
 20
158.2608015791209084
 30
0.0
  0
VERTEX
  5
16E43
  8
0
 10
250.950399246256012
 20
158.2495691089355887
 30
0.0
  0
VERTEX
  5
16E44
  8
0
 10
250.729472127405387
 20
158.2361676848846912
 30
0.0
  0
VERTEX
  5
16E45
  8
0
 10
250.5087217332134912
 20
158.2203019903907091
 30
0.0
  0
VERTEX
  5
16E46
  8
0
 10
250.2881474339108934
 20
158.201980807027212
 30
0.0
  0
VERTEX
  5
16E47
  8
0
 10
250.0677279301820874
 20
158.1815011350832947
 30
0.0
  0
VERTEX
  5
16E48
  8
0
 10
249.8474411083736868
 20
158.1591713300703077
 30
0.0
  0
VERTEX
  5
16E49
  8
0
 10
249.6272648548321058
 20
158.1352997474996869
 30
0.0
  0
VERTEX
  5
16E4A
  8
0
 10
249.4071770559042136
 20
158.1101947428830101
 30
0.0
  0
VERTEX
  5
16E4B
  8
0
 10
249.1871555979363961
 20
158.0841646717319122
 30
0.0
  0
VERTEX
  5
16E4C
  8
0
 10
248.9671783672754088
 20
158.0575178895576869
 30
0.0
  0
VERTEX
  5
16E4D
  8
0
 10
248.7472232502678082
 20
158.0305627518719973
 30
0.0
  0
SEQEND
  5
16E4E
  8
0
  0
POLYLINE
  5
157CD
  8
0
 66
     1
 10
0.0
 20
0.0
 30
0.0
  0
VERTEX
  5
16E4F
  8
0
 10
260.0055534994655204
 20
158.0305627518719973
 30
0.0
  0
VERTEX
  5
16E50
  8
0
 10
259.895577232116807
 20
158.0575302959042006
 30
0.0
  0
VERTEX
  5
16E51
  8
0
 10
259.7855898386787885
 20
158.0841882100866087
 30
0.0
  0
VERTEX
  5
16E52
  8
0
 10
259.6755801930619896
 20
158.110226864569313
 30
0.0
  0
VERTEX
  5
16E53
  8
0
 10
259.5655371691772189
 20
158.1353366295024898
 30
0.0
  0
VERTEX
  5
16E54
  8
0
 10
259.4554496409346029
 20
158.1592078750362873
 30
0.0
  0
VERTEX
  5
16E55
  8
0
 10
259.3453064822451211
 20
158.1815309713211093
 30
0.0
  0
VERTEX
  5
16E56
  8
0
 10
259.2350965670194114
 20
158.2019962885069049
 30
0.0
  0
VERTEX
  5
16E57
  8
0
 10
259.1248087691678847
 20
158.2202941967437937
 30
0.0
  0
VERTEX
  5
16E58
  8
0
 10
259.0144324759002075
 20
158.2361293508652125
 30
0.0
  0
VERTEX
  5
16E59
  8
0
 10
258.9039679577086872
 20
158.2495092784479027
 30
0.0
  0
VERTEX
  5
16E5A
  8
0
 10
258.7934258792283799
 20
158.2607307674533104
 30
0.0
  0
VERTEX
  5
16E5B
  8
0
 10
258.682817320500817
 20
158.2701021662495862
 30
0.0
  0
VERTEX
  5
16E5C
  8
0
 10
258.5721533615667909
 20
158.2779318232049093
 30
0.0
  0
VERTEX
  5
16E5D
  8
0
 10
258.461445082467776
 20
158.284528086687601
 30
0.0
  0
VERTEX
  5
16E5E
  8
0
 10
258.3507035632450766
 20
158.2901993050656131
 30
0.0
  0
VERTEX
  5
16E5F
  8
0
 10
258.2399398839401101
 20
158.29525382670721
 30
0.0
  0
VERTEX
  5
16E60
  8
0
 10
258.129165124593726
 20
158.2999999999807983
 30
0.0
  0
SEQEND
  5
16E61
  8
0
  0
POLYLINE
  5
157CE
  8
0
 66
     1
 10
0.0
 20
0.0
 30
0.0
  0
VERTEX
  5
16E62
  8
0
 10
258.129165124593726
 20
158.299999999980912
 30
0.0
  0
VERTEX
  5
16E63
  8
0
 10
258.0183904729901769
 20
158.2952743913920983
 30
0.0
  0
VERTEX
  5
16E64
  8
0
 10
257.9076269318215964
 20
158.2902389322510999
 30
0.0
  0
VERTEX
  5
16E65
  8
0
 10
257.7968856115230096
 20
158.2845837720057887
 30
0.0
  0
VERTEX
  5
16E66
  8
0
 10
257.6861776225292147
 20
158.2779990601038094
 30
0.0
  0
VERTEX
  5
16E67
  8
0
 10
257.5755140752751799
 20
158.2701749459928919
 30
0.0
  0
VERTEX
  5
16E68
  8
0
 10
257.464906080195874
 20
158.2608015791209084
 30
0.0
  0
VERTEX
  5
16E69
  8
0
 10
257.3543647477264926
 20
158.2495691089355887
 30
0.0
  0
VERTEX
  5
16E6A
  8
0
 10
257.2439011883016065
 20
158.2361676848848901
 30
0.0
  0
VERTEX
  5
16E6B
  8
0
 10
257.1335259912057722
 20
158.2203019903907091
 30
0.0
  0
VERTEX
  5
16E6C
  8
0
 10
257.0232388415548144
 20
158.201980807027212
 30
0.0
  0
VERTEX
  5
16E6D
  8
0
 10
256.9130290896906104
 20
158.1815011350832947
 30
0.0
  0
VERTEX
  5
16E6E
  8
0
 10
256.8028856787863106
 20
158.1591713300703077
 30
0.0
  0
VERTEX
  5
16E6F
  8
0
 10
256.6927975520155769
 20
158.1352997474996869
 30
0.0
  0
VERTEX
  5
16E70
  8
0
 10
256.5827536525516166
 20
158.1101947428830101
 30
0.0
  0
VERTEX
  5
16E71
  8
0
 10
256.47274292356758
 20
158.0841646717319122
 30
0.0
  0
VERTEX
  5
16E72
  8
0
 10
256.3627543082370153
 20
158.0575178895576869
 30
0.0
  0
VERTEX
  5
16E73
  8
0
 10
256.252776749733016
 20
158.0305627518719973
 30
0.0
  0
SEQEND
  5
16E74
  8
0
  0
POLYLINE
  5
157CF
  8
0
 66
     1
 10
0.0
 20
0.0
 30
0.0
  0
VERTEX
  5
16E75
  8
0
 10
235.7837373566366068
 20
157.9674195814521909
 30
0.0
  0
VERTEX
  5
16E76
  8
0
 10
236.0728976484093096
 20
158.1566572826860124
 30
0.0
  0
VERTEX
  5
16E77
  8
0
 10
236.3622630719385995
 20
158.3402674681086069
 30
0.0
  0
VERTEX
  5
16E78
  8
0
 10
236.6518412370380986
 20
158.5180413726527888
 30
0.0
  0
VERTEX
  5
16E79
  8
0
 10
236.9416397535206045
 20
158.6897702312514866
 30
0.0
  0
VERTEX
  5
16E7A
  8
0
 10
237.2316662311999949
 20
158.8552452788377138
 30
0.0
  0
VERTEX
  5
16E7B
  8
0
 10
237.5219282798892948
 20
159.0142577503443135
 30
0.0
  0
VERTEX
  5
16E7C
  8
0
 10
237.8124335094020125
 20
159.166598880704413
 30
0.0
  0
VERTEX
  5
16E7D
  8
0
 10
238.1031895295514005
 20
159.3120599048507984
 30
0.0
  0
VERTEX
  5
16E7E
  8
0
 10
238.39420395015091
 20
159.450432057716398
 30
0.0
  0
VERTEX
  5
16E7F
  8
0
 10
238.6854843810137936
 20
159.5815065742343108
 30
0.0
  0
VERTEX
  5
16E80
  8
0
 10
238.9770384319535026
 20
159.7050746893374082
 30
0.0
  0
SEQEND
  5
16E81
  8
0
  0
POLYLINE
  5
157D0
  8
0
 66
     1
 10
0.0
 20
0.0
 30
0.0
  0
VERTEX
  5
16E82
  8
0
 10
238.9770384319535026
 20
159.7050746893374082
 30
0.0
  0
VERTEX
  5
16E83
  8
0
 10
239.1152919582667948
 20
159.7447201873742983
 30
0.0
  0
VERTEX
  5
16E84
  8
0
 10
239.1855421058172908
 20
159.764048882894798
 30
0.0
  0
VERTEX
  5
16E85
  8
0
 10
239.2571403146401963
 20
159.782784714217712
 30
0.0
  0
VERTEX
  5
16E86
  8
0
 10
239.3305359384931137
 20
159.8007300599437031
 30
0.0
  0
VERTEX
  5
16E87
  8
0
 10
239.4061783311335887
 20
159.8176872986738033
 30
0.0
  0
VERTEX
  5
16E88
  8
0
 10
239.4845168463191101
 20
159.8334588090087038
 30
0.0
  0
VERTEX
  5
16E89
  8
0
 10
239.5248375729154873
 20
159.8408381593407057
 30
0.0
  0
VERTEX
  5
16E8A
  8
0
 10
239.566000837807195
 20
159.8478469695492095
 30
0.0
  0
VERTEX
  5
16E8B
  8
0
 10
239.608062810213994
 20
159.8544605369592944
 30
0.0
  0
VERTEX
  5
16E8C
  8
0
 10
239.6510796593553039
 20
159.8606541588960113
 30
0.0
  0
VERTEX
  5
16E8D
  8
0
 10
239.695107554451198
 20
159.866403132684809
 30
0.0
  0
VERTEX
  5
16E8E
  8
0
 10
239.7401974068507116
 20
159.8716848578930865
 30
0.0
  0
VERTEX
  5
16E8F
  8
0
 10
239.7863544701089893
 20
159.8764949893455878
 30
0.0
  0
VERTEX
  5
16E90
  8
0
 10
239.8335605333703029
 20
159.8808385635909985
 30
0.0
  0
VERTEX
  5
16E91
  8
0
 10
239.8817971931819955
 20
159.8847206941831018
 30
0.0
  0
VERTEX
  5
16E92
  8
0
 10
239.9310460460920069
 20
159.888146494676505
 30
0.0
  0
VERTEX
  5
16E93
  8
0
 10
239.9812886886481067
 20
159.8911210786249057
 30
0.0
  0
VERTEX
  5
16E94
  8
0
 10
240.0325067173980074
 20
159.8936495595825988
 30
0.0
  0
VERTEX
  5
16E95
  8
0
 10
240.0846817288889099
 20
159.8957370511035947
 30
0.0
  0
VERTEX
  5
16E96
  8
0
 10
240.1377953196688111
 20
159.8973886667421027
 30
0.0
  0
VERTEX
  5
16E97
  8
0
 10
240.1918290862853951
 20
159.8986095200521049
 30
0.0
  0
VERTEX
  5
16E98
  8
0
 10
240.2467646252862039
 20
159.899404724587896
 30
0.0
  0
VERTEX
  5
16E99
  8
0
 10
240.3025835332188933
 20
159.8997793939034864
 30
0.0
  0
VERTEX
  5
16E9A
  8
0
 10
240.3592674066310053
 20
159.8997386415530002
 30
0.0
  0
VERTEX
  5
16E9B
  8
0
 10
240.4167978420707925
 20
159.8992875810905048
 30
0.0
  0
VERTEX
  5
16E9C
  8
0
 10
240.4751564360853138
 20
159.8984313260702095
 30
0.0
  0
VERTEX
  5
16E9D
  8
0
 10
240.5343247852223101
 20
159.89717499004621
 30
0.0
  0
VERTEX
  5
16E9E
  8
0
 10
240.594284486029693
 20
159.8955236865724885
 30
0.0
  0
VERTEX
  5
16E9F
  8
0
 10
240.7165043288455877
 20
159.8910566314926029
 30
0.0
  0
VERTEX
  5
16EA0
  8
0
 10
240.841677358997913
 20
159.8850685230505917
 30
0.0
  0
VERTEX
  5
16EA1
  8
0
 10
240.9697395991420024
 20
159.877575684792987
 30
0.0
  0
VERTEX
  5
16EA2
  8
0
 10
241.1006653219434952
 20
159.8685831445422139
 30
0.0
  0
VERTEX
  5
16EA3
  8
0
 10
241.2344291109818073
 20
159.8580958383037967
 30
0.0
  0
VERTEX
  5
16EA4
  8
0
 10
241.3710055498362124
 20
159.8461187020830891
 30
0.0
  0
VERTEX
  5
16EA5
  8
0
 10
241.5103692220862115
 20
159.8326566718858999
 30
0.0
  0
VERTEX
  5
16EA6
  8
0
 10
241.6524947113109079
 20
159.8177146837174973
 30
0.0
  0
VERTEX
  5
16EA7
  8
0
 10
241.7973566010896036
 20
159.8012976735834911
 30
0.0
  0
VERTEX
  5
16EA8
  8
0
 10
241.9449294750019135
 20
159.7834105774896045
 30
0.0
  0
VERTEX
  5
16EA9
  8
0
 10
242.0951879079968876
 20
159.7640583342831917
 30
0.0
  0
VERTEX
  5
16EAA
  8
0
 10
242.2481007674772115
 20
159.7432477625316949
 30
0.0
  0
VERTEX
  5
16EAB
  8
0
 10
242.4036213501663894
 20
159.720990808838792
 30
0.0
  0
VERTEX
  5
16EAC
  8
0
 10
242.5617003220638992
 20
159.697300286209213
 30
0.0
  0
VERTEX
  5
16EAD
  8
0
 10
242.7222883491695882
 20
159.6721890076470913
 30
0.0
  0
VERTEX
  5
16EAE
  8
0
 10
242.8853360974827922
 20
159.6456697861571001
 30
0.0
  0
VERTEX
  5
16EAF
  8
0
 10
243.0507942330036997
 20
159.6177554347439127
 30
0.0
  0
VERTEX
  5
16EB0
  8
0
 10
243.2186134217317033
 20
159.5884587664116054
 30
0.0
  0
VERTEX
  5
16EB1
  8
0
 10
243.3887443296665083
 20
159.5577925941653064
 30
0.0
  0
VERTEX
  5
16EB2
  8
0
 10
243.5611376228075926
 20
159.5257697310090066
 30
0.0
  0
VERTEX
  5
16EB3
  8
0
 10
243.735743543619293
 20
159.492403475288512
 30
0.0
  0
VERTEX
  5
16EB4
  8
0
 10
243.9125028265920037
 20
159.4577180207955962
 30
0.0
  0
VERTEX
  5
16EB5
  8
0
 10
244.0913468261030062
 20
159.4217483102513029
 30
0.0
  0
VERTEX
  5
16EB6
  8
0
 10
244.2722064985659074
 20
159.3845297424122975
 30
0.0
  0
VERTEX
  5
16EB7
  8
0
 10
244.4550128003953091
 20
159.3460977160355014
 30
0.0
  0
VERTEX
  5
16EB8
  8
0
 10
244.6396966880053867
 20
159.3064876298776085
 30
0.0
  0
VERTEX
  5
16EB9
  8
0
 10
244.8261891178105998
 20
159.2657348826955968
 30
0.0
  0
VERTEX
  5
16EBA
  8
0
 10
245.0144210462250953
 20
159.2238748732461886
 30
0.0
  0
VERTEX
  5
16EBB
  8
0
 10
245.2043234296633045
 20
159.1809430002863053
 30
0.0
  0
VERTEX
  5
16EBC
  8
0
 10
245.3958272245394028
 20
159.1369746625726123
 30
0.0
  0
VERTEX
  5
16EBD
  8
0
 10
245.588867876206109
 20
159.0920014753232863
 30
0.0
  0
VERTEX
  5
16EBE
  8
0
 10
245.7834131752929068
 20
159.0460277912731044
 30
0.0
  0
VERTEX
  5
16EBF
  8
0
 10
245.979445090854199
 20
158.9990460127546044
 30
0.0
  0
VERTEX
  5
16EC0
  8
0
 10
246.1769456522677046
 20
158.9510484912563015
 30
0.0
  0
VERTEX
  5
16EC1
  8
0
 10
246.3758968889113987
 20
158.902027578266086
 30
0.0
  0
VERTEX
  5
16EC2
  8
0
 10
246.5762808301631992
 20
158.8519756252721891
 30
0.0
  0
VERTEX
  5
16EC3
  8
0
 10
246.7780795054015925
 20
158.8008849837628986
 30
0.0
  0
VERTEX
  5
16EC4
  8
0
 10
246.9812749440042978
 20
158.7487480052261901
 30
0.0
  0
VERTEX
  5
16EC5
  8
0
 10
247.1858491753494036
 20
158.6955570411502094
 30
0.0
  0
VERTEX
  5
16EC6
  8
0
 10
247.3917841865230969
 20
158.6413044812113924
 30
0.0
  0
VERTEX
  5
16EC7
  8
0
 10
247.5990163095684977
 20
158.5860239395018141
 30
0.0
  0
VERTEX
  5
16EC8
  8
0
 10
247.8073493002561918
 20
158.5298687404311977
 30
0.0
  0
VERTEX
  5
16EC9
  8
0
 10
248.2264371904435052
 20
158.4156340960956868
 30
0.0
  0
VERTEX
  5
16ECA
  8
0
 10
248.6472864688581978
 20
158.2999999999825889
 30
0.0
  0
SEQEND
  5
16ECB
  8
0
  0
POLYLINE
  5
157D1
  8
0
 66
     1
 10
0.0
 20
0.0
 30
0.0
  0
VERTEX
  5
16ECC
  8
0
 10
260.0055534994655204
 20
155.0597845466382125
 30
0.0
  0
VERTEX
  5
16ECD
  8
0
 10
260.0820901544752246
 20
155.0409649961322032
 30
0.0
  0
VERTEX
  5
16ECE
  8
0
 10
260.1582862621950198
 20
155.022263061010392
 30
0.0
  0
VERTEX
  5
16ECF
  8
0
 10
260.2338012753348835
 20
155.0037963566572046
 30
0.0
  0
VERTEX
  5
16ED0
  8
0
 10
260.3082946466051908
 20
154.9856824984568107
 30
0.0
  0
VERTEX
  5
16ED1
  8
0
 10
260.3814258287159191
 20
154.9680391017934937
 30
0.0
  0
VERTEX
  5
16ED2
  8
0
 10
260.4528542743771027
 20
154.9509837820515941
 30
0.0
  0
VERTEX
  5
16ED3
  8
0
 10
260.5222394362987757
 20
154.9346341546151962
 30
0.0
  0
VERTEX
  5
16ED4
  8
0
 10
260.5892514477384907
 20
154.9191039508503138
 30
0.0
  0
VERTEX
  5
16ED5
  8
0
 10
260.6537598798641966
 20
154.9044343758262983
 30
0.0
  0
VERTEX
  5
16ED6
  8
0
 10
260.7158110142776763
 20
154.890602373243496
 30
0.0
  0
VERTEX
  5
16ED7
  8
0
 10
260.7754572467633807
 20
154.8775826633581119
 30
0.0
  0
VERTEX
  5
16ED8
  8
0
 10
260.8327509731051919
 20
154.8653499664264075
 30
0.0
  0
VERTEX
  5
16ED9
  8
0
 10
260.8877445890876743
 20
154.8538790027047014
 30
0.0
  0
VERTEX
  5
16EDA
  8
0
 10
260.9404904904947102
 20
154.8431444924493121
 30
0.0
  0
VERTEX
  5
16EDB
  8
0
 10
260.9910410548786786
 20
154.8331211629613051
 30
0.0
  0
VERTEX
  5
16EDC
  8
0
 10
261.0394292575484201
 20
154.8237912386813946
 30
0.0
  0
VERTEX
  5
16EDD
  8
0
 10
261.0856318256319923
 20
154.8151586786734981
 30
0.0
  0
VERTEX
  5
16EDE
  8
0
 10
261.1296153514247749
 20
154.807231358159612
 30
0.0
  0
VERTEX
  5
16EDF
  8
0
 10
261.171346427222602
 20
154.8000171523617894
 30
0.0
  0
VERTEX
  5
16EE0
  8
0
 10
261.2107916453206258
 20
154.7935239365021118
 30
0.0
  0
VERTEX
  5
16EE1
  8
0
 10
261.2479175980143964
 20
154.7877595858024051
 30
0.0
  0
VERTEX
  5
16EE2
  8
0
 10
261.2826908775992933
 20
154.7827319754850919
 30
0.0
  0
VERTEX
  5
16EE3
  8
0
 10
261.3150732532702136
 20
154.7784503192795
 30
0.0
  0
VERTEX
  5
16EE4
  8
0
 10
261.3449713754519053
 20
154.7749391274844015
 30
0.0
  0
VERTEX
  5
16EE5
  8
0
 10
261.3722567799292165
 20
154.7722326554188044
 30
0.0
  0
VERTEX
  5
16EE6
  8
0
 10
261.3968004369515938
 20
154.7703653153486982
 30
0.0
  0
VERTEX
  5
16EE7
  8
0
 10
261.418473316768484
 20
154.7693715195401865
 30
0.0
  0
VERTEX
  5
16EE8
  8
0
 10
261.4371463896299019
 20
154.7692856802595998
 30
0.0
  0
VERTEX
  5
16EE9
  8
0
 10
261.4526946387782118
 20
154.7701410321093931
 30
0.0
  0
VERTEX
  5
16EEA
  8
0
 10
261.4652297591118781
 20
154.7719013436588114
 30
0.0
  0
VERTEX
  5
16EEB
  8
0
 10
261.4752280284656081
 20
154.7744233919972885
 30
0.0
  0
VERTEX
  5
16EEC
  8
0
 10
261.4831968170353207
 20
154.7775548297670127
 30
0.0
  0
VERTEX
  5
16EED
  8
0
 10
261.4896434950168782
 20
154.781143309610087
 30
0.0
  0
VERTEX
  5
16EEE
  8
0
 10
261.495075432606825
 20
154.7850364841690123
 30
0.0
  0
VERTEX
  5
16EEF
  8
0
 10
261.5000000000005116
 20
154.7890820060856072
 30
0.0
  0
SEQEND
  5
16EF0
  8
0
  0
POLYLINE
  5
157D2
  8
0
 66
     1
 10
0.0
 20
0.0
 30
0.0
  0
VERTEX
  5
16EF1
  8
0
 10
261.5000000000002842
 20
154.7890820060856072
 30
0.0
  0
VERTEX
  5
16EF2
  8
0
 10
261.5000000000002842
 20
154.805099870044387
 30
0.0
  0
VERTEX
  5
16EF3
  8
0
 10
261.5000000000002842
 20
154.8210553936652047
 30
0.0
  0
VERTEX
  5
16EF4
  8
0
 10
261.5000000000002842
 20
154.8368862366100132
 30
0.0
  0
VERTEX
  5
16EF5
  8
0
 10
261.5000000000002842
 20
154.8525300585405091
 30
0.0
  0
VERTEX
  5
16EF6
  8
0
 10
261.5000000000002842
 20
154.8679245191189011
 30
0.0
  0
VERTEX
  5
16EF7
  8
0
 10
261.5000000000002842
 20
154.8830072780069997
 30
0.0
  0
VERTEX
  5
16EF8
  8
0
 10
261.5000000000005116
 20
154.8977159948668998
 30
0.0
  0
VERTEX
  5
16EF9
  8
0
 10
261.5000000000005116
 20
154.9119883293602982
 30
0.0
  0
VERTEX
  5
16EFA
  8
0
 10
261.5000000000005116
 20
154.9257619411494034
 30
0.0
  0
VERTEX
  5
16EFB
  8
0
 10
261.5000000000005116
 20
154.9389744898959975
 30
0.0
  0
VERTEX
  5
16EFC
  8
0
 10
261.5000000000005116
 20
154.9515636352620902
 30
0.0
  0
VERTEX
  5
16EFD
  8
0
 10
261.5000000000005116
 20
154.9634655101191072
 30
0.0
  0
VERTEX
  5
16EFE
  8
0
 10
261.5000000000005116
 20
154.9745832426216055
 30
0.0
  0
VERTEX
  5
16EFF
  8
0
 10
261.5000000000005116
 20
154.984788088298302
 30
0.0
  0
VERTEX
  5
16F00
  8
0
 10
261.5000000000005116
 20
154.9939500023911876
 30
0.0
  0
VERTEX
  5
16F01
  8
0
 10
261.5000000000005116
 20
155.0019389401425087
 30
0.0
  0
VERTEX
  5
16F02
  8
0
 10
261.5000000000002842
 20
155.0086248567943983
 30
0.0
  0
VERTEX
  5
16F03
  8
0
 10
261.5000000000002842
 20
155.013877707589188
 30
0.0
  0
VERTEX
  5
16F04
  8
0
 10
261.5000000000005116
 20
155.0175674477690109
 30
0.0
  0
VERTEX
  5
16F05
  8
0
 10
261.5000000000005116
 20
155.0195640325761985
 30
0.0
  0
VERTEX
  5
16F06
  8
0
 10
261.5000000000005116
 20
155.0197374172527134
 30
0.0
  0
VERTEX
  5
16F07
  8
0
 10
261.5000000000005116
 20
155.0179575570410009
 30
0.0
  0
VERTEX
  5
16F08
  8
0
 10
261.5000000000005116
 20
155.0140946721128046
 30
0.0
  0
SEQEND
  5
16F09
  8
0
  0
POLYLINE
  5
157D3
  8
0
 66
     1
 10
0.0
 20
0.0
 30
0.0
  0
VERTEX
  5
16F0A
  8
0
 10
138.5000000000005969
 20
155.0140946721132025
 30
0.0
  0
VERTEX
  5
16F0B
  8
0
 10
138.5000000000005969
 20
155.0106975538062102
 30
0.0
  0
VERTEX
  5
16F0C
  8
0
 10
138.5000000000005969
 20
155.0070266013136973
 30
0.0
  0
VERTEX
  5
16F0D
  8
0
 10
138.5000000000005969
 20
155.0028079804503989
 30
0.0
  0
VERTEX
  5
16F0E
  8
0
 10
138.5000000000005969
 20
154.9977678570307091
 30
0.0
  0
VERTEX
  5
16F0F
  8
0
 10
138.5000000000005969
 20
154.9916323968691074
 30
0.0
  0
VERTEX
  5
16F10
  8
0
 10
138.5000000000005969
 20
154.9841277657804142
 30
0.0
  0
VERTEX
  5
16F11
  8
0
 10
138.5000000000003979
 20
154.9749801295789098
 30
0.0
  0
VERTEX
  5
16F12
  8
0
 10
138.5000000000003979
 20
154.963915654079301
 30
0.0
  0
VERTEX
  5
16F13
  8
0
 10
138.5000000000003979
 20
154.9506725933580924
 30
0.0
  0
VERTEX
  5
16F14
  8
0
 10
138.5000000000003979
 20
154.9352546976105032
 30
0.0
  0
VERTEX
  5
16F15
  8
0
 10
138.5000000000003979
 20
154.917924431094491
 30
0.0
  0
VERTEX
  5
16F16
  8
0
 10
138.5000000000003979
 20
154.8989549896342055
 30
0.0
  0
VERTEX
  5
16F17
  8
0
 10
138.5000000000003979
 20
154.8786195690535976
 30
0.0
  0
VERTEX
  5
16F18
  8
0
 10
138.5000000000003979
 20
154.8571913651767034
 30
0.0
  0
VERTEX
  5
16F19
  8
0
 10
138.5000000000003979
 20
154.8349435738275872
 30
0.0
  0
VERTEX
  5
16F1A
  8
0
 10
138.5000000000003979
 20
154.8121493908305979
 30
0.0
  0
VERTEX
  5
16F1B
  8
0
 10
138.5000000000003979
 20
154.789082012009402
 30
0.0
  0
SEQEND
  5
16F1C
  8
0
  0
POLYLINE
  5
157D4
  8
0
 66
     1
 10
0.0
 20
0.0
 30
0.0
  0
VERTEX
  5
16F1D
  8
0
 10
138.5000000000003979
 20
154.789082012009402
 30
0.0
  0
VERTEX
  5
16F1E
  8
0
 10
138.5055379264144904
 20
154.7852205873961964
 30
0.0
  0
VERTEX
  5
16F1F
  8
0
 10
138.5115248401654924
 20
154.7814942945549888
 30
0.0
  0
VERTEX
  5
16F20
  8
0
 10
138.5184097285905125
 20
154.7780382652578908
 30
0.0
  0
VERTEX
  5
16F21
  8
0
 10
138.5266415790264887
 20
154.7749876312770141
 30
0.0
  0
VERTEX
  5
16F22
  8
0
 10
138.536669378810501
 20
154.7724775243842998
 30
0.0
  0
VERTEX
  5
16F23
  8
0
 10
138.5489421152794876
 20
154.7706430763518028
 30
0.0
  0
VERTEX
  5
16F24
  8
0
 10
138.5639087757703862
 20
154.7696194189518053
 30
0.0
  0
VERTEX
  5
16F25
  8
0
 10
138.5819565557081887
 20
154.7695235757304886
 30
0.0
  0
VERTEX
  5
16F26
  8
0
 10
138.6031027023192905
 20
154.7703641562816017
 30
0.0
  0
VERTEX
  5
16F27
  8
0
 10
138.6272273946883047
 20
154.7721096021448091
 30
0.0
  0
VERTEX
  5
16F28
  8
0
 10
138.6542105884068974
 20
154.7747282893651004
 30
0.0
  0
VERTEX
  5
16F29
  8
0
 10
138.6839322390671896
 20
154.7781885939878066
 30
0.0
  0
VERTEX
  5
16F2A
  8
0
 10
138.7162723022607906
 20
154.7824588920574058
 30
0.0
  0
VERTEX
  5
16F2B
  8
0
 10
138.7511107335799068
 20
154.7875075596193994
 30
0.0
  0
VERTEX
  5
16F2C
  8
0
 10
138.788333010156606
 20
154.7933044605518944
 30
0.0
  0
VERTEX
  5
16F2D
  8
0
 10
138.8278753463665964
 20
154.7998331303838029
 30
0.0
  0
VERTEX
  5
16F2E
  8
0
 10
138.8697012618528106
 20
154.8070844623175049
 30
0.0
  0
VERTEX
  5
16F2F
  8
0
 10
138.9137745396523087
 20
154.8150494205291068
 30
0.0
  0
VERTEX
  5
16F30
  8
0
 10
138.960058962801412
 20
154.823718969195113
 30
0.0
  0
VERTEX
  5
16F31
  8
0
 10
139.0085183143372092
 20
154.8330840724916015
 30
0.0
  0
VERTEX
  5
16F32
  8
0
 10
139.0591163772963057
 20
154.8431356945949915
 30
0.0
  0
VERTEX
  5
16F33
  8
0
 10
139.1118207528809023
 20
154.853866269073194
 30
0.0
  0
VERTEX
  5
16F34
  8
0
 10
139.1666553669122095
 20
154.865289905588412
 30
0.0
  0
VERTEX
  5
16F35
  8
0
 10
139.2236870952210097
 20
154.8774372427826904
 30
0.0
  0
VERTEX
  5
16F36
  8
0
 10
139.282983895106014
 20
154.8903393354923139
 30
0.0
  0
VERTEX
  5
16F37
  8
0
 10
139.344613723865109
 20
154.9040272385537094
 30
0.0
  0
VERTEX
  5
16F38
  8
0
 10
139.408644538796608
 20
154.9185320068029057
 30
0.0
  0
VERTEX
  5
16F39
  8
0
 10
139.4751442971989093
 20
154.9338846950765003
 30
0.0
  0
VERTEX
  5
16F3A
  8
0
 10
139.5441727706702864
 20
154.9501133792363987
 30
0.0
  0
VERTEX
  5
16F3B
  8
0
 10
139.6155747744990094
 20
154.9671679073418034
 30
0.0
  0
VERTEX
  5
16F3C
  8
0
 10
139.6889642062272117
 20
154.9849140908964955
 30
0.0
  0
VERTEX
  5
16F3D
  8
0
 10
139.763943580274713
 20
155.003213598810504
 30
0.0
  0
VERTEX
  5
16F3E
  8
0
 10
139.8401154110617881
 20
155.0219280999939997
 30
0.0
  0
VERTEX
  5
16F3F
  8
0
 10
139.917082213008598
 20
155.0409192633572104
 30
0.0
  0
VERTEX
  5
16F40
  8
0
 10
139.9944465005353038
 20
155.0600487578101934
 30
0.0
  0
SEQEND
  5
16F41
  8
0
  0
POLYLINE
  5
157D5
  8
0
 66
     1
 10
0.0
 20
0.0
 30
0.0
  0
VERTEX
  5
16F42
  8
0
 10
151.3561789305379932
 20
158.2999999999825889
 30
0.0
  0
VERTEX
  5
16F43
  8
0
 10
151.7758542919659988
 20
158.4145049025046887
 30
0.0
  0
VERTEX
  5
16F44
  8
0
 10
152.1942213495782141
 20
158.5280183357220096
 30
0.0
  0
VERTEX
  5
16F45
  8
0
 10
152.4025054195114137
 20
158.5840934171835954
 30
0.0
  0
VERTEX
  5
16F46
  8
0
 10
152.6099717995595881
 20
158.6395488303298009
 30
0.0
  0
VERTEX
  5
16F47
  8
0
 10
152.8164569517462041
 20
158.694260641497209
 30
0.0
  0
VERTEX
  5
16F48
  8
0
 10
153.0217973380939895
 20
158.7481049170229994
 30
0.0
  0
VERTEX
  5
16F49
  8
0
 10
153.2258294206264964
 20
158.8009577232440108
 30
0.0
  0
VERTEX
  5
16F4A
  8
0
 10
153.4284003312642142
 20
158.8527050328837902
 30
0.0
  0
VERTEX
  5
16F4B
  8
0
 10
153.6294420909910059
 20
158.9033116332790883
 30
0.0
  0
VERTEX
  5
16F4C
  8
0
 10
153.8289272638259035
 20
158.9527799536440114
 30
0.0
  0
VERTEX
  5
16F4D
  8
0
 10
154.0268286650309051
 20
159.0011126564567974
 30
0.0
  0
VERTEX
  5
16F4E
  8
0
 10
154.2231191098680085
 20
159.0483124041957979
 30
0.0
  0
VERTEX
  5
16F4F
  8
0
 10
154.417771413598814
 20
159.0943818593395918
 30
0.0
  0
VERTEX
  5
16F50
  8
0
 10
154.6107583914858026
 20
159.1393236843665022
 30
0.0
  0
VERTEX
  5
16F51
  8
0
 10
154.8020528587904039
 20
159.1831405417547955
 30
0.0
  0
VERTEX
  5
16F52
  8
0
 10
154.9916276307745875
 20
159.2258350939829086
 30
0.0
  0
VERTEX
  5
16F53
  8
0
 10
155.1794555227004935
 20
159.2674100035293066
 30
0.0
  0
VERTEX
  5
16F54
  8
0
 10
155.3655089143373971
 20
159.3078674848711103
 30
0.0
  0
VERTEX
  5
16F55
  8
0
 10
155.5497464394150029
 20
159.3471956116127899
 30
0.0
  0
VERTEX
  5
16F56
  8
0
 10
155.7321105253788005
 20
159.3853657855752033
 30
0.0
  0
VERTEX
  5
16F57
  8
0
 10
155.912542667947605
 20
159.4223484500901122
 30
0.0
  0
VERTEX
  5
16F58
  8
0
 10
156.090984362840004
 20
159.4581140484889943
 30
0.0
  0
VERTEX
  5
16F59
  8
0
 10
156.2673771057743011
 20
159.4926330241036112
 30
0.0
  0
VERTEX
  5
16F5A
  8
0
 10
156.4416623924699081
 20
159.52587582026581
 30
0.0
  0
VERTEX
  5
16F5B
  8
0
 10
156.6137820519664103
 20
159.557813298363186
 30
0.0
  0
VERTEX
  5
16F5C
  8
0
 10
156.7836847176687058
 20
159.5884248539072985
 30
0.0
  0
VERTEX
  5
16F5D
  8
0
 10
156.9513253803307862
 20
159.6176978558800954
 30
0.0
  0
VERTEX
  5
16F5E
  8
0
 10
157.116659274495305
 20
159.6456199790266908
 30
0.0
  0
VERTEX
  5
16F5F
  8
0
 10
157.2796416347046033
 20
159.6721788980921986
 30
0.0
  0
VERTEX
  5
16F60
  8
0
 10
157.4402276955019886
 20
159.6973622878217043
 30
0.0
  0
VERTEX
  5
16F61
  8
0
 10
157.5983726914292049
 20
159.7211578229602935
 30
0.0
  0
VERTEX
  5
16F62
  8
0
 10
157.7540308393789985
 20
159.743552602640392
 30
0.0
  0
VERTEX
  5
16F63
  8
0
 10
157.9071406204066079
 20
159.764524825349497
 30
0.0
  0
VERTEX
  5
16F64
  8
0
 10
158.0576281364905071
 20
159.7840456876108135
 30
0.0
  0
VERTEX
  5
16F65
  8
0
 10
158.2054191554495048
 20
159.8020861969370969
 30
0.0
  0
VERTEX
  5
16F66
  8
0
 10
158.3504394451022961
 20
159.8186173608407898
 30
0.0
  0
VERTEX
  5
16F67
  8
0
 10
158.4926147732674906
 20
159.8336101868345906
 30
0.0
  0
VERTEX
  5
16F68
  8
0
 10
158.6318709077636981
 20
159.8470356824311125
 30
0.0
  0
VERTEX
  5
16F69
  8
0
 10
158.7681372771702968
 20
159.8588671358837985
 30
0.0
  0
VERTEX
  5
16F6A
  8
0
 10
158.9013834367927984
 20
159.8691028353524075
 30
0.0
  0
VERTEX
  5
16F6B
  8
0
 10
159.031603721304208
 20
159.8777565071324034
 30
0.0
  0
VERTEX
  5
16F6C
  8
0
 10
159.1587928312902136
 20
159.8848421054919129
 30
0.0
  0
VERTEX
  5
16F6D
  8
0
 10
159.2829454673363045
 20
159.8903735846980965
 30
0.0
  0
VERTEX
  5
16F6E
  8
0
 10
159.4040563300279132
 20
159.8943648990191093
 30
0.0
  0
VERTEX
  5
16F6F
  8
0
 10
159.5221201199508982
 20
159.8968300027225951
 30
0.0
  0
VERTEX
  5
16F70
  8
0
 10
159.6371315376908058
 20
159.8977828500763962
 30
0.0
  0
VERTEX
  5
16F71
  8
0
 10
159.7490852838330966
 20
159.8972373953482133
 30
0.0
  0
VERTEX
  5
16F72
  8
0
 10
159.8579760589632031
 20
159.89520759280569
 30
0.0
  0
VERTEX
  5
16F73
  8
0
 10
159.9637887099864884
 20
159.8917035104597915
 30
0.0
  0
VERTEX
  5
16F74
  8
0
 10
160.0664400301477883
 20
159.886708376196907
 30
0.0
  0
VERTEX
  5
16F75
  8
0
 10
160.1165452172614039
 20
159.8836428848713922
 30
0.0
  0
VERTEX
  5
16F76
  8
0
 10
160.1658180826659077
 20
159.8801940868819997
 30
0.0
  0
VERTEX
  5
16F77
  8
0
 10
160.2142446215638074
 20
159.876358464327609
 30
0.0
  0
VERTEX
  5
16F78
  8
0
 10
160.2618108291565875
 20
159.8721324993078099
 30
0.0
  0
VERTEX
  5
16F79
  8
0
 10
160.3085027006461019
 20
159.8675126739215102
 30
0.0
  0
VERTEX
  5
16F7A
  8
0
 10
160.3543062312348013
 20
159.862495470267703
 30
0.0
  0
VERTEX
  5
16F7B
  8
0
 10
160.3992074161241987
 20
159.8570773704456087
 30
0.0
  0
VERTEX
  5
16F7C
  8
0
 10
160.4431922505162049
 20
159.851254856554192
 30
0.0
  0
VERTEX
  5
16F7D
  8
0
 10
160.4862467296129864
 20
159.8450244106929006
 30
0.0
  0
VERTEX
  5
16F7E
  8
0
 10
160.5283568486163972
 20
159.8383825149608128
 30
0.0
  0
VERTEX
  5
16F7F
  8
0
 10
160.5695086027282912
 20
159.8313256514566945
 30
0.0
  0
VERTEX
  5
16F80
  8
0
 10
160.6096879871506076
 20
159.8238503022799932
 30
0.0
  0
VERTEX
  5
16F81
  8
0
 10
160.6488809970855129
 20
159.8159529495297022
 30
0.0
  0
VERTEX
  5
16F82
  8
0
 10
160.6870736277344065
 20
159.8076300753050134
 30
0.0
  0
VERTEX
  5
16F83
  8
0
 10
160.7242518742997959
 20
159.7988781617048915
 30
0.0
  0
VERTEX
  5
16F84
  8
0
 10
160.7604017319833076
 20
159.7896936908286136
 30
0.0
  0
VERTEX
  5
16F85
  8
0
 10
160.7955280093115107
 20
159.780080709959492
 30
0.0
  0
VERTEX
  5
16F86
  8
0
 10
160.8297317761418981
 20
159.7700819748338859
 30
0.0
  0
VERTEX
  5
16F87
  8
0
 10
160.895898894920208
 20
159.7491476598503937
 30
0.0
  0
VERTEX
  5
16F88
  8
0
 10
160.9599573879268064
 20
159.7273316086485124
 30
0.0
  0
VERTEX
  5
16F89
  8
0
 10
161.0229615680474069
 20
159.7050746893374082
 30
0.0
  0
SEQEND
  5
16F8A
  8
0
  0
POLYLINE
  5
157D6
  8
0
 66
     1
 10
0.0
 20
0.0
 30
0.0
  0
VERTEX
  5
16F8B
  8
0
 10
161.0229615680474069
 20
159.7050746893374082
 30
0.0
  0
VERTEX
  5
16F8C
  8
0
 10
161.3145156047096123
 20
159.5815065804729898
 30
0.0
  0
VERTEX
  5
16F8D
  8
0
 10
161.6057960213244939
 20
159.4504320709164062
 30
0.0
  0
VERTEX
  5
16F8E
  8
0
 10
161.8968104277039117
 20
159.3120599257042045
 30
0.0
  0
VERTEX
  5
16F8F
  8
0
 10
162.1875664336602938
 20
159.1665989098733007
 30
0.0
  0
VERTEX
  5
16F90
  8
0
 10
162.4780716490056136
 20
159.0142577884604975
 30
0.0
  0
VERTEX
  5
16F91
  8
0
 10
162.7683336835521004
 20
158.8552453265023985
 30
0.0
  0
VERTEX
  5
16F92
  8
0
 10
163.0583601471118982
 20
158.6897702890358062
 30
0.0
  0
VERTEX
  5
16F93
  8
0
 10
163.3481586494972078
 20
158.5180414410974095
 30
0.0
  0
VERTEX
  5
16F94
  8
0
 10
163.6377368005200026
 20
158.3402675477242099
 30
0.0
  0
VERTEX
  5
16F95
  8
0
 10
163.9271022099929098
 20
158.1566573739526973
 30
0.0
  0
VERTEX
  5
16F96
  8
0
 10
164.2162624877275903
 20
157.9674196848197028
 30
0.0
  0
SEQEND
  5
16F97
  8
0
  0
POLYLINE
  5
157D7
  8
0
 66
     1
 10
0.0
 20
0.0
 30
0.0
  0
VERTEX
  5
16F98
  8
0
 10
169.0458917748086094
 20
158.0443325225610067
 30
0.0
  0
VERTEX
  5
16F99
  8
0
 10
169.5275671409355027
 20
158.1367177811983993
 30
0.0
  0
VERTEX
  5
16F9A
  8
0
 10
170.0092660121493964
 20
158.2281620165933873
 30
0.0
  0
VERTEX
  5
16F9B
  8
0
 10
170.4909888236070117
 20
158.3186478072940133
 30
0.0
  0
VERTEX
  5
16F9C
  8
0
 10
170.9727360104658089
 20
158.4081577318484051
 30
0.0
  0
VERTEX
  5
16F9D
  8
0
 10
171.4545080078823105
 20
158.4966743688040083
 30
0.0
  0
VERTEX
  5
16F9E
  8
0
 10
171.9363052510132093
 20
158.5841802967088938
 30
0.0
  0
VERTEX
  5
16F9F
  8
0
 10
172.4181281750159087
 20
158.6706580941109053
 30
0.0
  0
VERTEX
  5
16FA0
  8
0
 10
172.8999772150469028
 20
158.7560903395579999
 30
0.0
  0
VERTEX
  5
16FA1
  8
0
 10
173.3818528062633106
 20
158.8404596115979075
 30
0.0
  0
VERTEX
  5
16FA2
  8
0
 10
173.8637553838217116
 20
158.9237484887785001
 30
0.0
  0
VERTEX
  5
16FA3
  8
0
 10
174.3456853828793953
 20
159.0059395496477919
 30
0.0
  0
VERTEX
  5
16FA4
  8
0
 10
174.8276432385929127
 20
159.0870153727535126
 30
0.0
  0
VERTEX
  5
16FA5
  8
0
 10
175.3096293861194113
 20
159.1669585366435058
 30
0.0
  0
VERTEX
  5
16FA6
  8
0
 10
175.7916442606156124
 20
159.2457516198658141
 30
0.0
  0
VERTEX
  5
16FA7
  8
0
 10
176.2736882972384933
 20
159.3233772009681104
 30
0.0
  0
VERTEX
  5
16FA8
  8
0
 10
176.7557619311450878
 20
159.3998178584984089
 30
0.0
  0
VERTEX
  5
16FA9
  8
0
 10
177.2378655974920036
 20
159.4750561710044963
 30
0.0
  0
VERTEX
  5
16FAA
  8
0
 10
177.7199997314361894
 20
159.5490747170343013
 30
0.0
  0
VERTEX
  5
16FAB
  8
0
 10
178.2021647681347929
 20
159.6218560751356108
 30
0.0
  0
VERTEX
  5
16FAC
  8
0
 10
178.6843611427443079
 20
159.6933828238562967
 30
0.0
  0
VERTEX
  5
16FAD
  8
0
 10
179.1665892904219959
 20
159.7636375417442878
 30
0.0
  0
VERTEX
  5
16FAE
  8
0
 10
179.6488496463244928
 20
159.8326028073475129
 30
0.0
  0
VERTEX
  5
16FAF
  8
0
 10
180.1311426456088043
 20
159.900261199213702
 30
0.0
  0
VERTEX
  5
16FB0
  8
0
 10
180.6134687234319074
 20
159.9665952958906985
 30
0.0
  0
VERTEX
  5
16FB1
  8
0
 10
181.095828314950495
 20
160.0315876759264881
 30
0.0
  0
VERTEX
  5
16FB2
  8
0
 10
181.5782218553214022
 20
160.0952209178688861
 30
0.0
  0
VERTEX
  5
16FB3
  8
0
 10
182.060649779702004
 20
160.1574776002659064
 30
0.0
  0
VERTEX
  5
16FB4
  8
0
 10
182.5431125232487091
 20
160.2183403016651937
 30
0.0
  0
VERTEX
  5
16FB5
  8
0
 10
183.0256105211184092
 20
160.2777916006147052
 30
0.0
  0
VERTEX
  5
16FB6
  8
0
 10
183.508144208468309
 20
160.3358140756621992
 30
0.0
  0
VERTEX
  5
16FB7
  8
0
 10
183.9907140204551865
 20
160.3923903053558035
 30
0.0
  0
VERTEX
  5
16FB8
  8
0
 10
184.4733203922359053
 20
160.4475028682431912
 30
0.0
  0
VERTEX
  5
16FB9
  8
0
 10
184.9559638569824074
 20
160.5011304188481063
 30
0.0
  0
VERTEX
  5
16FBA
  8
0
 10
185.4386449006262012
 20
160.5532535029662995
 30
0.0
  0
VERTEX
  5
16FBB
  8
0
 10
185.9213638874632011
 20
160.6038575360537095
 30
0.0
  0
VERTEX
  5
16FBC
  8
0
 10
186.4041211817894066
 20
160.6529279335663887
 30
0.0
  0
VERTEX
  5
16FBD
  8
0
 10
186.8869171479009026
 20
160.7004501109603893
 30
0.0
  0
VERTEX
  5
16FBE
  8
0
 10
187.3697521500936034
 20
160.7464094836915933
 30
0.0
  0
VERTEX
  5
16FBF
  8
0
 10
187.8526265526633097
 20
160.7907914672161098
 30
0.0
  0
VERTEX
  5
16FC0
  8
0
 10
188.3355407199063052
 20
160.8335814769897922
 30
0.0
  0
VERTEX
  5
16FC1
  8
0
 10
188.8184950161183906
 20
160.8747649284686929
 30
0.0
  0
VERTEX
  5
16FC2
  8
0
 10
189.301489805595395
 20
160.9143272371088074
 30
0.0
  0
VERTEX
  5
16FC3
  8
0
 10
189.7845254526334031
 20
160.9522538183661879
 30
0.0
  0
VERTEX
  5
16FC4
  8
0
 10
190.2676023215286989
 20
160.988530087696688
 30
0.0
  0
VERTEX
  5
16FC5
  8
0
 10
190.7507207765767134
 20
161.0231414605563884
 30
0.0
  0
VERTEX
  5
16FC6
  8
0
 10
191.2338811820737021
 20
161.0560733524013131
 30
0.0
  0
VERTEX
  5
16FC7
  8
0
 10
191.717083902315693
 20
161.0873111786872869
 30
0.0
  0
VERTEX
  5
16FC8
  8
0
 10
192.2003293015986003
 20
161.1168403548705896
 30
0.0
  0
VERTEX
  5
16FC9
  8
0
 10
192.6836177724387085
 20
161.1446451666085977
 30
0.0
  0
VERTEX
  5
16FCA
  8
0
 10
193.1669495667117076
 20
161.170715530084891
 30
0.0
  0
VERTEX
  5
16FCB
  8
0
 10
193.6503248377530895
 20
161.1950453065445004
 30
0.0
  0
VERTEX
  5
16FCC
  8
0
 10
194.133743738897806
 20
161.2176283572325985
 30
0.0
  0
VERTEX
  5
16FCD
  8
0
 10
194.6172064234810932
 20
161.238458543393989
 30
0.0
  0
VERTEX
  5
16FCE
  8
0
 10
195.1007130448379883
 20
161.2575297262737024
 30
0.0
  0
VERTEX
  5
16FCF
  8
0
 10
195.5842637563040114
 20
161.2748357671167128
 30
0.0
  0
VERTEX
  5
16FD0
  8
0
 10
196.0678587112140008
 20
161.2903705271681076
 30
0.0
  0
VERTEX
  5
16FD1
  8
0
 10
196.5514980629033062
 20
161.3041278676728041
 30
0.0
  0
VERTEX
  5
16FD2
  8
0
 10
197.035181964707192
 20
161.3161016498758045
 30
0.0
  0
VERTEX
  5
16FD3
  8
0
 10
197.5189105699606102
 20
161.3262857350221964
 30
0.0
  0
VERTEX
  5
16FD4
  8
0
 10
198.0026840319991095
 20
161.3346739843570106
 30
0.0
  0
VERTEX
  5
16FD5
  8
0
 10
198.4865025041573858
 20
161.3412602591249936
 30
0.0
  0
VERTEX
  5
16FD6
  8
0
 10
198.9703661397711016
 20
161.3460384205714888
 30
0.0
  0
VERTEX
  5
16FD7
  8
0
 10
199.4542750921752088
 20
161.349002329941186
 30
0.0
  0
VERTEX
  5
16FD8
  8
0
 10
199.9382295147046023
 20
161.3501458484792863
 30
0.0
  0
VERTEX
  5
16FD9
  8
0
 10
200.4222295180755964
 20
161.3494645437002077
 30
0.0
  0
VERTEX
  5
16FDA
  8
0
 10
200.9062750270960862
 20
161.3469614258845013
 30
0.0
  0
VERTEX
  5
16FDB
  8
0
 10
201.3903659162409099
 20
161.3426415204274065
 30
0.0
  0
VERTEX
  5
16FDC
  8
0
 10
201.874502059984593
 20
161.3365098527231964
 30
0.0
  0
VERTEX
  5
16FDD
  8
0
 10
202.3586833328018031
 20
161.3285714481667128
 30
0.0
  0
VERTEX
  5
16FDE
  8
0
 10
202.8429096091668953
 20
161.3188313321525982
 30
0.0
  0
VERTEX
  5
16FDF
  8
0
 10
203.327180763554793
 20
161.3072945300754952
 30
0.0
  0
VERTEX
  5
16FE0
  8
0
 10
203.8114966704397943
 20
161.2939660673301887
 30
0.0
  0
VERTEX
  5
16FE1
  8
0
 10
204.2958572042965102
 20
161.2788509693114065
 30
0.0
  0
VERTEX
  5
16FE2
  8
0
 10
204.7802622395996934
 20
161.2619542614135923
 30
0.0
  0
VERTEX
  5
16FE3
  8
0
 10
205.2647116508236138
 20
161.2432809690317015
 30
0.0
  0
VERTEX
  5
16FE4
  8
0
 10
205.7492053124431948
 20
161.2228361175602913
 30
0.0
  0
VERTEX
  5
16FE5
  8
0
 10
206.2337430989327913
 20
161.2006247323940897
 30
0.0
  0
VERTEX
  5
16FE6
  8
0
 10
206.7183248847670995
 20
161.1766518389277962
 30
0.0
  0
VERTEX
  5
16FE7
  8
0
 10
207.2029505444207018
 20
161.1509224625561103
 30
0.0
  0
VERTEX
  5
16FE8
  8
0
 10
207.68761995236801
 20
161.1234416286735893
 30
0.0
  0
VERTEX
  5
16FE9
  8
0
 10
208.1723328865776921
 20
161.0942182262818108
 30
0.0
  0
VERTEX
  5
16FEA
  8
0
 10
208.657088976541587
 20
161.0632670886301128
 30
0.0
  0
VERTEX
  5
16FEB
  8
0
 10
209.1418878740190905
 20
161.0306021574857027
 30
0.0
  0
VERTEX
  5
16FEC
  8
0
 10
209.6267292307695982
 20
160.9962373746149922
 30
0.0
  0
VERTEX
  5
16FED
  8
0
 10
210.1116126985527899
 20
160.9601866817849896
 30
0.0
  0
VERTEX
  5
16FEE
  8
0
 10
210.5965379291280044
 20
160.9224640207625043
 30
0.0
  0
VERTEX
  5
16FEF
  8
0
 10
211.081504574254609
 20
160.8830833333144028
 30
0.0
  0
VERTEX
  5
16FF0
  8
0
 10
211.5665122856921982
 20
160.8420585612074092
 30
0.0
  0
VERTEX
  5
16FF1
  8
0
 10
212.051560715200111
 20
160.7994036462085035
 30
0.0
  0
VERTEX
  5
16FF2
  8
0
 10
212.5366495145379133
 20
160.7551325300842961
 30
0.0
  0
VERTEX
  5
16FF3
  8
0
 10
213.021778335465001
 20
160.7092591546019094
 30
0.0
  0
VERTEX
  5
16FF4
  8
0
 10
213.506946829740798
 20
160.6617974615278115
 30
0.0
  0
VERTEX
  5
16FF5
  8
0
 10
213.9921546491248989
 20
160.6127613926292099
 30
0.0
  0
VERTEX
  5
16FF6
  8
0
 10
214.4774014453766995
 20
160.5621648896728004
 30
0.0
  0
VERTEX
  5
16FF7
  8
0
 10
214.96268687025551
 20
160.5100218944251935
 30
0.0
  0
VERTEX
  5
16FF8
  8
0
 10
215.4480105755210104
 20
160.4563463486535113
 30
0.0
  0
VERTEX
  5
16FF9
  8
0
 10
215.9333721260613004
 20
160.4011556720097929
 30
0.0
  0
VERTEX
  5
16FFA
  8
0
 10
216.4187710245932976
 20
160.3444697731470114
 30
0.0
  0
VERTEX
  5
16FFB
  8
0
 10
216.9042068296205059
 20
160.2863063273333069
 30
0.0
  0
VERTEX
  5
16FFC
  8
0
 10
217.3896790996462016
 20
160.2266830098367052
 30
0.0
  0
VERTEX
  5
16FFD
  8
0
 10
217.8751873931734053
 20
160.1656174959254031
 30
0.0
  0
VERTEX
  5
16FFE
  8
0
 10
218.3607312687055071
 20
160.1031274608673129
 30
0.0
  0
VERTEX
  5
16FFF
  8
0
 10
218.8463102847458117
 20
160.0392305799308019
 30
0.0
  0
VERTEX
  5
17000
  8
0
 10
219.3319239997971977
 20
159.9739445283838108
 30
0.0
  0
VERTEX
  5
17001
  8
0
 10
219.8175719723633961
 20
159.9072869814943942
 30
0.0
  0
VERTEX
  5
17002
  8
0
 10
220.3032537609473138
 20
159.8392756145306919
 30
0.0
  0
VERTEX
  5
17003
  8
0
 10
220.7889689240523126
 20
159.7699281027607867
 30
0.0
  0
VERTEX
  5
17004
  8
0
 10
221.2747170201816118
 20
159.6992621214529038
 30
0.0
  0
VERTEX
  5
17005
  8
0
 10
221.7604976078384027
 20
159.6272953458750123
 30
0.0
  0
VERTEX
  5
17006
  8
0
 10
222.2463102455259047
 20
159.5540454512951953
 30
0.0
  0
VERTEX
  5
17007
  8
0
 10
222.7321544917475933
 20
159.4795301129815073
 30
0.0
  0
VERTEX
  5
17008
  8
0
 10
223.2180299050064889
 20
159.4037670062022016
 30
0.0
  0
VERTEX
  5
17009
  8
0
 10
223.7037605649788077
 20
159.326804501420213
 30
0.0
  0
VERTEX
  5
1700A
  8
0
 10
224.1891737968990128
 20
159.248691167813206
 30
0.0
  0
VERTEX
  5
1700B
  8
0
 10
224.674274027607197
 20
159.1694449787212875
 30
0.0
  0
VERTEX
  5
1700C
  8
0
 10
225.1590656839433962
 20
159.0890839074845928
 30
0.0
  0
VERTEX
  5
1700D
  8
0
 10
225.643553192747703
 20
159.0076259274432005
 30
0.0
  0
VERTEX
  5
1700E
  8
0
 10
226.1277409808602954
 20
158.9250890119371036
 30
0.0
  0
VERTEX
  5
1700F
  8
0
 10
226.6116334751212946
 20
158.8414911343066933
 30
0.0
  0
VERTEX
  5
17010
  8
0
 10
227.0952351023707081
 20
158.756850267891906
 30
0.0
  0
VERTEX
  5
17011
  8
0
 10
227.5785502894487138
 20
158.6711843860327917
 30
0.0
  0
VERTEX
  5
17012
  8
0
 10
228.0615834631954897
 20
158.5845114620695995
 30
0.0
  0
VERTEX
  5
17013
  8
0
 10
228.5443390504509011
 20
158.496849469342294
 30
0.0
  0
VERTEX
  5
17014
  8
0
 10
229.0268214780554956
 20
158.4082163811912096
 30
0.0
  0
VERTEX
  5
17015
  8
0
 10
229.5090351728489111
 20
158.3186301709561974
 30
0.0
  0
VERTEX
  5
17016
  8
0
 10
229.990984561671695
 20
158.2281088119775063
 30
0.0
  0
VERTEX
  5
17017
  8
0
 10
230.4726740713635138
 20
158.1366702775951865
 30
0.0
  0
VERTEX
  5
17018
  8
0
 10
230.9541081287648012
 20
158.0443325411494015
 30
0.0
  0
SEQEND
  5
17019
  8
0
  0
POLYLINE
  5
157D8
  8
0
 66
     1
 10
0.0
 20
0.0
 30
0.0
  0
VERTEX
  5
1701A
  8
0
 10
164.216262487727704
 20
157.9674196848197028
 30
0.0
  0
VERTEX
  5
1701B
  8
0
 10
164.2540909855239022
 20
157.943987805482891
 30
0.0
  0
VERTEX
  5
1701C
  8
0
 10
164.2954561886025999
 20
157.9215958531430033
 30
0.0
  0
VERTEX
  5
1701D
  8
0
 10
164.3403681828687013
 20
157.9002436417943045
 30
0.0
  0
VERTEX
  5
1701E
  8
0
 10
164.3888370542267126
 20
157.8799309854308888
 30
0.0
  0
VERTEX
  5
1701F
  8
0
 10
164.4408728885815947
 20
157.8606576980469924
 30
0.0
  0
VERTEX
  5
17020
  8
0
 10
164.4964857718377971
 20
157.842423593636795
 30
0.0
  0
VERTEX
  5
17021
  8
0
 10
164.5556857899001102
 20
157.8252284861943906
 30
0.0
  0
VERTEX
  5
17022
  8
0
 10
164.618483028673495
 20
157.8090721897141862
 30
0.0
  0
VERTEX
  5
17023
  8
0
 10
164.6848875740622873
 20
157.7939545181903043
 30
0.0
  0
VERTEX
  5
17024
  8
0
 10
164.7549095119713911
 20
157.7798752856168107
 30
0.0
  0
VERTEX
  5
17025
  8
0
 10
164.828558928305597
 20
157.7668343059879987
 30
0.0
  0
VERTEX
  5
17026
  8
0
 10
164.9058220941695083
 20
157.7548349279879858
 30
0.0
  0
VERTEX
  5
17027
  8
0
 10
164.9861832102583037
 20
157.7439547852164878
 30
0.0
  0
VERTEX
  5
17028
  8
0
 10
165.0694312098362957
 20
157.7342257002378005
 30
0.0
  0
VERTEX
  5
17029
  8
0
 10
165.1555686539074088
 20
157.7256477037190052
 30
0.0
  0
VERTEX
  5
1702A
  8
0
 10
165.2445981034761076
 20
157.7182208263270127
 30
0.0
  0
VERTEX
  5
1702B
  8
0
 10
165.3365221195469985
 20
157.7119450987291884
 30
0.0
  0
VERTEX
  5
1702C
  8
0
 10
165.4313432631242051
 20
157.7068205515925001
 30
0.0
  0
VERTEX
  5
1702D
  8
0
 10
165.5290640952119929
 20
157.7028472155840859
 30
0.0
  0
VERTEX
  5
1702E
  8
0
 10
165.6296871768151107
 20
157.7000251213709987
 30
0.0
  0
VERTEX
  5
1702F
  8
0
 10
165.7332150689375965
 20
157.6983542996204051
 30
0.0
  0
VERTEX
  5
17030
  8
0
 10
165.8396503325838864
 20
157.6978347809993011
 30
0.0
  0
VERTEX
  5
17031
  8
0
 10
165.9489955287585872
 20
157.6984665961749101
 30
0.0
  0
VERTEX
  5
17032
  8
0
 10
166.0611193435248083
 20
157.7002480995546989
 30
0.0
  0
VERTEX
  5
17033
  8
0
 10
166.1752157141393127
 20
157.703168936969206
 30
0.0
  0
VERTEX
  5
17034
  8
0
 10
166.2911395928497882
 20
157.7072266264451059
 30
0.0
  0
VERTEX
  5
17035
  8
0
 10
166.4088792097224996
 20
157.7124203259035937
 30
0.0
  0
VERTEX
  5
17036
  8
0
 10
166.5284227948239106
 20
157.7187491932666035
 30
0.0
  0
VERTEX
  5
17037
  8
0
 10
166.6497585782200019
 20
157.7262123864556997
 30
0.0
  0
VERTEX
  5
17038
  8
0
 10
166.7728747899772941
 20
157.734809063392305
 30
0.0
  0
VERTEX
  5
17039
  8
0
 10
166.8977596601621087
 20
157.7445383819982112
 30
0.0
  0
VERTEX
  5
1703A
  8
0
 10
167.0244014188407107
 20
157.7553995001950113
 30
0.0
  0
VERTEX
  5
1703B
  8
0
 10
167.1527882960793931
 20
157.7673915759042131
 30
0.0
  0
VERTEX
  5
1703C
  8
0
 10
167.2829085219443073
 20
157.7805137670476086
 30
0.0
  0
VERTEX
  5
1703D
  8
0
 10
167.4147503265020873
 20
157.7947652315465916
 30
0.0
  0
VERTEX
  5
1703E
  8
0
 10
167.5479620494114954
 20
157.8101060533500117
 30
0.0
  0
VERTEX
  5
1703F
  8
0
 10
167.6817060485510069
 20
157.8264406090382863
 30
0.0
  0
VERTEX
  5
17040
  8
0
 10
167.8159424260973935
 20
157.8437651357440075
 30
0.0
  0
VERTEX
  5
17041
  8
0
 10
167.9506691512777934
 20
157.8620802271076968
 30
0.0
  0
VERTEX
  5
17042
  8
0
 10
168.0858841933192878
 20
157.8813864767695918
 30
0.0
  0
VERTEX
  5
17043
  8
0
 10
168.221585521449299
 20
157.9016844783706972
 30
0.0
  0
VERTEX
  5
17044
  8
0
 10
168.3577711048949936
 20
157.9229748255511083
 30
0.0
  0
VERTEX
  5
17045
  8
0
 10
168.4944389128833961
 20
157.9452581119512899
 30
0.0
  0
VERTEX
  5
17046
  8
0
 10
168.6315869146417867
 20
157.9685349312119911
 30
0.0
  0
VERTEX
  5
17047
  8
0
 10
168.7692130793973888
 20
157.992805876973506
 30
0.0
  0
VERTEX
  5
17048
  8
0
 10
168.9073153763773121
 20
158.0180715428764131
 30
0.0
  0
VERTEX
  5
17049
  8
0
 10
169.0458917748086094
 20
158.0443325225610067
 30
0.0
  0
SEQEND
  5
1704A
  8
0
  0
POLYLINE
  5
157D9
  8
0
 66
     1
 10
0.0
 20
0.0
 30
0.0
  0
VERTEX
  5
1704B
  8
0
 10
230.9541080323384108
 20
158.0443325597373985
 30
0.0
  0
VERTEX
  5
1704C
  8
0
 10
231.0926867815661865
 20
158.0180711354801133
 30
0.0
  0
VERTEX
  5
1704D
  8
0
 10
231.2307961049700964
 20
157.9928042071113907
 30
0.0
  0
VERTEX
  5
1704E
  8
0
 10
231.3684339322848871
 20
157.9685312840962865
 30
0.0
  0
VERTEX
  5
1704F
  8
0
 10
231.5055981932453903
 20
157.9452518758999133
 30
0.0
  0
VERTEX
  5
17050
  8
0
 10
231.6422868175864949
 20
157.9229654919872132
 30
0.0
  0
VERTEX
  5
17051
  8
0
 10
231.7784977350428903
 20
157.9016716418232136
 30
0.0
  0
VERTEX
  5
17052
  8
0
 10
231.9142288753494938
 20
157.8813698348729986
 30
0.0
  0
VERTEX
  5
17053
  8
0
 10
232.049478168241194
 20
157.8620595806015956
 30
0.0
  0
VERTEX
  5
17054
  8
0
 10
232.1842435434527943
 20
157.8437403884740888
 30
0.0
  0
VERTEX
  5
17055
  8
0
 10
232.318522930718899
 20
157.8264117679555056
 30
0.0
  0
VERTEX
  5
17056
  8
0
 10
232.4523142597747096
 20
157.8100732285107028
 30
0.0
  0
VERTEX
  5
17057
  8
0
 10
232.5855761692455985
 20
157.7947287483908099
 30
0.0
  0
VERTEX
  5
17058
  8
0
 10
232.7174409904635013
 20
157.7804763197922
 30
0.0
  0
VERTEX
  5
17059
  8
0
 10
232.8475488780547948
 20
157.7673562609317912
 30
0.0
  0
VERTEX
  5
1705A
  8
0
 10
232.9758931767875083
 20
157.7553687319577023
 30
0.0
  0
VERTEX
  5
1705B
  8
0
 10
233.1024672314293014
 20
157.7445138930179951
 30
0.0
  0
VERTEX
  5
1705C
  8
0
 10
233.2272643867482884
 20
157.7347919042605895
 30
0.0
  0
VERTEX
  5
1705D
  8
0
 10
233.3502779875122997
 20
157.7262029258336895
 30
0.0
  0
VERTEX
  5
1705E
  8
0
 10
233.4715013784893074
 20
157.7187471178851013
 30
0.0
  0
VERTEX
  5
1705F
  8
0
 10
233.5909279044471134
 20
157.7124246405631141
 30
0.0
  0
VERTEX
  5
17060
  8
0
 10
233.7085509101538037
 20
157.7072356540155056
 30
0.0
  0
VERTEX
  5
17061
  8
0
 10
233.8243637403772084
 20
157.7031803183905083
 30
0.0
  0
VERTEX
  5
17062
  8
0
 10
233.9383597398852999
 20
157.7002587938360136
 30
0.0
  0
VERTEX
  5
17063
  8
0
 10
234.0504028318096061
 20
157.6984735384527028
 30
0.0
  0
VERTEX
  5
17064
  8
0
 10
234.1597104084540035
 20
157.6978383609715024
 30
0.0
  0
VERTEX
  5
17065
  8
0
 10
234.2661478684057101
 20
157.6983553639335867
 30
0.0
  0
VERTEX
  5
17066
  8
0
 10
234.3697100960390003
 20
157.7000243364678056
 30
0.0
  0
VERTEX
  5
17067
  8
0
 10
234.4703919757280062
 20
157.7028450677036062
 30
0.0
  0
VERTEX
  5
17068
  8
0
 10
234.5681883918468031
 20
157.7068173467700092
 30
0.0
  0
VERTEX
  5
17069
  8
0
 10
234.6630942287692108
 20
157.711940962796092
 30
0.0
  0
VERTEX
  5
1706A
  8
0
 10
234.7551043708697023
 20
157.7182157049113016
 30
0.0
  0
VERTEX
  5
1706B
  8
0
 10
234.8442137025220973
 20
157.7256413622446019
 30
0.0
  0
VERTEX
  5
1706C
  8
0
 10
234.9304171081003858
 20
157.7342177239254113
 30
0.0
  0
VERTEX
  5
1706D
  8
0
 10
235.013709471978899
 20
157.7439445790828074
 30
0.0
  0
VERTEX
  5
1706E
  8
0
 10
235.0940856785315987
 20
157.7548217168458109
 30
0.0
  0
VERTEX
  5
1706F
  8
0
 10
235.1713406167706069
 20
157.7668179287572059
 30
0.0
  0
VERTEX
  5
17070
  8
0
 10
235.2449874468242967
 20
157.7798573028701128
 30
0.0
  0
VERTEX
  5
17071
  8
0
 10
235.3150127000116072
 20
157.7939363214067043
 30
0.0
  0
VERTEX
  5
17072
  8
0
 10
235.381425275343986
 20
157.8090549122103141
 30
0.0
  0
VERTEX
  5
17073
  8
0
 10
235.4442340718333071
 20
157.8252130031241904
 30
0.0
  0
VERTEX
  5
17074
  8
0
 10
235.5034479884915015
 20
157.8424105219918943
 30
0.0
  0
VERTEX
  5
17075
  8
0
 10
235.5590759243299033
 20
157.8606473966565034
 30
0.0
  0
VERTEX
  5
17076
  8
0
 10
235.6111267783603864
 20
157.8799235549616071
 30
0.0
  0
VERTEX
  5
17077
  8
0
 10
235.6596094495945124
 20
157.9002389247503118
 30
0.0
  0
VERTEX
  5
17078
  8
0
 10
235.7045328370442121
 20
157.9215934338660929
 30
0.0
  0
VERTEX
  5
17079
  8
0
 10
235.7459058397209901
 20
157.9439870101523127
 30
0.0
  0
VERTEX
  5
1707A
  8
0
 10
235.7837373566366068
 20
157.9674195814521909
 30
0.0
  0
SEQEND
  5
1707B
  8
0
  0
ENDSEC
  0
EOF
