  0
SECTION
  2
HEADER
  9
$ACADVER
  1
AC1009
  9
$INSBASE
 10
0.0
 20
0.0
 30
0.0
  9
$EXTMIN
 10
0.0
 20
-2.960436562073669
 30
0.0
  9
$EXTMAX
 10
120.36834924965891
 20
192.49999966890309
 30
0.0
  9
$LIMMIN
 10
0.0
 20
0.0
  9
$LIMMAX
 10
375.0
 20
270.0
  9
$ORTHOMODE
 70
     1
  9
$REGENMODE
 70
     1
  9
$FILLMODE
 70
     1
  9
$QTEXTMODE
 70
     0
  9
$MIRRTEXT
 70
     0
  9
$DRAGMODE
 70
     2
  9
$LTSCALE
 40
6.0
  9
$OSMODE
 70
    37
  9
$ATTMODE
 70
     1
  9
$TEXTSIZE
 40
0.2
  9
$TRACEWID
 40
0.05
  9
$TEXTSTYLE
  7
STANDARD
  9
$CLAYER
  8
0
  9
$CELTYPE
  6
BYLAYER
  9
$CECOLOR
 62
   256
  9
$DIMSCALE
 40
1.0
  9
$DIMASZ
 40
3.0
  9
$DIMEXO
 40
1.0
  9
$DIMDLI
 40
6.0
  9
$DIMRND
 40
0.0
  9
$DIMDLE
 40
0.0
  9
$DIMEXE
 40
1.0
  9
$DIMTP
 40
495.0
  9
$DIMTM
 40
0.0
  9
$DIMTXT
 40
3.0
  9
$DIMCEN
 40
0.0
  9
$DIMTSZ
 40
0.0
  9
$DIMTOL
 70
     0
  9
$DIMLIM
 70
     0
  9
$DIMTIH
 70
     0
  9
$DIMTOH
 70
     0
  9
$DIMSE1
 70
     0
  9
$DIMSE2
 70
     0
  9
$DIMTAD
 70
     1
  9
$DIMZIN
 70
     0
  9
$DIMBLK
  1

  9
$DIMASO
 70
     0
  9
$DIMSHO
 70
     0
  9
$DIMPOST
  1

  9
$DIMAPOST
  1

  9
$DIMALT
 70
     0
  9
$DIMALTD
 70
     2
  9
$DIMALTF
 40
25.399999999999999
  9
$DIMLFAC
 40
1.0
  9
$DIMTOFL
 70
     1
  9
$DIMTVP
 40
0.0
  9
$DIMTIX
 70
     1
  9
$DIMSOXD
 70
     0
  9
$DIMSAH
 70
     0
  9
$DIMBLK1
  1

  9
$DIMBLK2
  1

  9
$DIMSTYLE
  2
STANDARD
  9
$DIMCLRD
 70
     0
  9
$DIMCLRE
 70
     0
  9
$DIMCLRT
 70
     4
  9
$DIMTFAC
 40
1.0
  9
$DIMGAP
 40
1.0
  9
$LUNITS
 70
     2
  9
$LUPREC
 70
     1
  9
$SKETCHINC
 40
0.1
  9
$FILLETRAD
 40
2.0
  9
$AUNITS
 70
     0
  9
$AUPREC
 70
     1
  9
$MENU
  1
C:\R13\WIN\SUPPORT\ACAD-I
  9
$ELEVATION
 40
0.0
  9
$PELEVATION
 40
0.0
  9
$THICKNESS
 40
0.0
  9
$LIMCHECK
 70
     0
  9
$BLIPMODE
 70
     0
  9
$CHAMFERA
 40
0.0
  9
$CHAMFERB
 40
0.0
  9
$SKPOLY
 70
     0
  9
$TDCREATE
 40
2451962.4112634258
  9
$TDUPDATE
 40
2457032.3752158098
  9
$TDINDWG
 40
0.112268206
  9
$TDUSRTIMER
 40
0.112268206
  9
$USRTIMER
 70
     1
  9
$ANGBASE
 50
0.0
  9
$ANGDIR
 70
     0
  9
$PDMODE
 70
     0
  9
$PDSIZE
 40
0.0
  9
$PLINEWID
 40
0.0
  9
$COORDS
 70
     1
  9
$SPLFRAME
 70
     0
  9
$SPLINETYPE
 70
     6
  9
$SPLINESEGS
 70
     8
  9
$ATTDIA
 70
     0
  9
$ATTREQ
 70
     1
  9
$HANDLING
 70
     1
  9
$HANDSEED
  5
4DC0
  9
$SURFTAB1
 70
     6
  9
$SURFTAB2
 70
     6
  9
$SURFTYPE
 70
     6
  9
$SURFU
 70
     6
  9
$SURFV
 70
     6
  9
$UCSNAME
  2

  9
$UCSORG
 10
0.0
 20
0.0
 30
0.0
  9
$UCSXDIR
 10
1.0
 20
0.0
 30
0.0
  9
$UCSYDIR
 10
0.0
 20
1.0
 30
0.0
  9
$PUCSNAME
  2

  9
$PUCSORG
 10
0.0
 20
0.0
 30
0.0
  9
$PUCSXDIR
 10
1.0
 20
0.0
 30
0.0
  9
$PUCSYDIR
 10
0.0
 20
1.0
 30
0.0
  9
$USERI1
 70
     4
  9
$USERI2
 70
     1
  9
$USERI3
 70
     0
  9
$USERI4
 70
     0
  9
$USERI5
 70
     0
  9
$USERR1
 40
1.0
  9
$USERR2
 40
3.0
  9
$USERR3
 40
3.0
  9
$USERR4
 40
3.0
  9
$USERR5
 40
10.0
  9
$WORLDVIEW
 70
     1
  9
$SHADEDGE
 70
     3
  9
$SHADEDIF
 70
    70
  9
$TILEMODE
 70
     1
  9
$MAXACTVP
 70
    16
  9
$PLIMCHECK
 70
     0
  9
$PEXTMIN
 10
1.0000000000000000E+020
 20
1.0000000000000000E+020
 30
1.0000000000000000E+020
  9
$PEXTMAX
 10
-1.0000000000000000E+020
 20
-1.0000000000000000E+020
 30
-1.0000000000000000E+020
  9
$PLIMMIN
 10
0.0
 20
0.0
  9
$PLIMMAX
 10
12.0
 20
9.0
  9
$UNITMODE
 70
     0
  9
$VISRETAIN
 70
     0
  9
$PLINEGEN
 70
     0
  9
$PSLTSCALE
 70
     0
  0
ENDSEC
  0
SECTION
  2
TABLES
  0
TABLE
  2
VPORT
 70
     1
  0
VPORT
  2
*ACTIVE
 70
     0
 10
0.0
 20
0.0
 11
1.0
 21
1.0
 12
235.63977746870651
 22
135.0
 13
0.0
 23
0.0
 14
10.0
 24
10.0
 15
10.0
 25
10.0
 16
0.0
 26
0.0
 36
1.0
 17
0.0
 27
0.0
 37
0.0
 40
270.0
 41
1.7454798331015291
 42
50.0
 43
0.0
 44
0.0
 50
0.0
 51
0.0
 71
     0
 72
   100
 73
     1
 74
     0
 75
     0
 76
     0
 77
     0
 78
     0
  0
ENDTAB
  0
TABLE
  2
LTYPE
 70
     3
  0
LTYPE
  2
CONTINUOUS
 70
     0
  3
Solid Line
 72
    65
 73
     0
 40
0.0
  0
LTYPE
  2
CENTER
 70
     0
  3
____ _ ____ _ ____ _ ____ _ ____ _ ____ _ ____
 72
    65
 73
     4
 40
2.0
 49
1.25
 49
-0.25
 49
0.25
 49
-0.25
  0
LTYPE
  2
PHANTOM2
 70
     0
  3
___ _ _ ___ _ _ ___ _ _ ___ _ _
 72
    65
 73
     6
 40
1.25
 49
0.625
 49
-0.125
 49
0.125
 49
-0.125
 49
0.125
 49
-0.125
  0
ENDTAB
  0
TABLE
  2
LAYER
 70
     3
  0
LAYER
  2
0
 70
     0
 62
     7
  6
CONTINUOUS
  0
LAYER
  2
1
 70
     0
 62
     1
  6
CENTER
  0
LAYER
  2
3
 70
     0
 62
     3
  6
CONTINUOUS
  0
ENDTAB
  0
TABLE
  2
STYLE
 70
     2
  0
STYLE
  2
STANDARD
 70
     0
 40
0.0
 41
1.0
 50
0.0
 71
     0
 42
0.2
  3
SIMPLEX
  4
BIGFONT
  0
STYLE
  2
STANDARD1
 70
     0
 40
0.0
 41
1.0
 50
0.0
 71
     0
 42
3.0
  3
txt
  4

  0
ENDTAB
  0
TABLE
  2
VIEW
 70
     1
  0
VIEW
  2
OLE1
 70
     0
 40
23.205456353438649
 10
338.59170241122831
 20
147.26976484028091
 41
37.128730165501842
 11
0.0
 21
0.0
 31
1.0
 12
0.0
 22
0.0
 32
0.0
 42
50.0
 43
0.0
 44
0.0
 50
0.0
 71
     0
  0
ENDTAB
  0
TABLE
  2
UCS
 70
     0
  0
ENDTAB
  0
TABLE
  2
APPID
 70
    29
  0
APPID
  2
ACAD
 70
     0
  0
APPID
  2
GENIUS_GENOREF_13
 70
     0
  0
APPID
  2
GENIUS_GENOENT_13
 70
     0
  0
APPID
  2
GENIUS_GENBH_13
 70
     0
  0
APPID
  2
GENIUS_GENOBJ_13
 70
     0
  0
APPID
  2
GENIUS_GENODEF_13
 70
     0
  0
APPID
  2
GENIUS_GENOLIS_13
 70
     0
  0
APPID
  2
GENIUS_GENOBJ-NBEHI-BHF_13
 70
     0
  0
APPID
  2
GENIUS_GENOBJ-NBEHI-BHB_13
 70
     0
  0
APPID
  2
GENIUS_GENOBJ-F-PART_13
 70
     0
  0
APPID
  2
GENIUS_GEFSTDP_13
 70
     0
  0
APPID
  2
GENIUS_GENOBJ-N-RSSYM_13
 70
     0
  0
APPID
  2
GENIUS_GENSYMENT_13
 70
     0
  0
APPID
  2
GENIUS_GENOBJ-N-TIT_13
 70
     0
  0
APPID
  2
GENIUS_GENTITLE_13
 70
     0
  0
APPID
  2
GENIUS_GENZVEED_13
 70
     0
  0
APPID
  2
GENIUS_GENOBJ-N-LEADER_13
 70
     0
  0
APPID
  2
GENIUS_GENOBJ-N-FIL_13
 70
     0
  0
APPID
  2
GENIUS_GENOBJ-N-SEC_13
 70
     0
  0
APPID
  2
GENIUS_GENOBJ-N-CRS_13
 70
     0
  0
APPID
  2
GENIUS_GENOBJ-N-ZOO_13
 70
     0
  0
APPID
  2
GENIUS_GENZOO_13
 70
     0
  0
APPID
  2
GENIUS_GENOBJ-F-TOL_13
 70
     0
  0
APPID
  2
GENIUS_GENFIL_13
 70
     0
  0
APPID
  2
GENIUS_GENOBJ-N-CHA_13
 70
     0
  0
APPID
  2
GENIUS_GENOBJ-N-CEN_13
 70
     0
  0
APPID
  2
ACAD_MLEADERVER
 70
     0
  0
APPID
  2
ACAD_EXEMPT_FROM_CAD_STANDARDS
 70
     0
  0
APPID
  2
ACAD_NAV_VCDISPLAY
 70
     0
  0
ENDTAB
  0
TABLE
  2
DIMSTYLE
 70
     1
  0
DIMSTYLE
  2
STANDARD
 70
     0
  3

  4

  5

  6

  7

 40
1.0
 41
0.18
 42
0.0625
 43
0.38
 44
0.18
 45
0.0
 46
0.0
 47
0.0
 48
0.0
140
0.18
141
0.09
142
0.0
143
25.399999999999999
144
1.0
145
0.0
146
1.0
147
0.09
 71
     0
 72
     0
 73
     1
 74
     1
 75
     0
 76
     0
 77
     0
 78
     0
170
     0
171
     2
172
     0
173
     0
174
     0
175
     0
176
     0
177
     0
178
     0
  0
ENDTAB
  0
ENDSEC
  0
SECTION
  2
BLOCKS
  0
BLOCK
  8
0
  2
$MODEL_SPACE
 70
     0
 10
0.0
 20
0.0
 30
0.0
  3
$MODEL_SPACE
  1

  0
ENDBLK
  5
4119
  8
0
  0
BLOCK
 67
     1
  8
0
  2
$PAPER_SPACE
 70
     0
 10
0.0
 20
0.0
 30
0.0
  3
$PAPER_SPACE
  1

  0
ENDBLK
  5
4117
 67
     1
  8
0
  0
ENDSEC
  0
SECTION
  2
ENTITIES
  0
TEXT
  5
4A34
  8
0
 62
     3
 10
0.0
 20
0.0
 30
0.0
 40
10.0
  1
KA37-08X060-SUS
  7
STANDARD1
  0
LINE
  5
4AD0
  8
1
 10
50.0
 20
130.49999966890309
 30
0.0
 11
50.0
 21
47.0
 31
0.0
  0
LINE
  5
4AD1
  8
0
 10
31.5
 20
51.999999999999993
 30
0.0
 11
68.5
 21
51.999999999999993
 31
0.0
  0
LINE
  5
4AD2
  8
0
 10
31.5
 20
50.0
 30
0.0
 11
68.5
 21
50.0
 31
0.0
  0
LINE
  5
4AD3
  8
0
 10
37.441895517758041
 20
54.507644378709479
 30
0.0
 11
40.308104482242008
 21
59.4923556212904
 31
0.0
  0
ARC
  5
4AD4
  8
0
 10
33.10736400247032
 20
56.999999999999993
 30
0.0
 40
5.0
 50
270.0
 51
330.1010981613851
  0
LINE
  5
4AD5
  8
0
 10
31.5
 20
51.999999999999993
 30
0.0
 11
31.5
 21
50.0
 31
0.0
  0
ARC
  5
4AD6
  8
0
 10
55.357364002470213
 20
56.999999999999993
 30
0.0
 40
5.0
 50
29.89890183861489
 51
90.0
  0
ARC
  5
4AD7
  8
0
 10
44.642635997529617
 20
56.999999999999993
 30
0.0
 40
5.0
 50
90.0
 51
150.1010981613851
  0
LINE
  5
4ADA
  8
0
 10
46.0
 20
69.999999668903072
 30
0.0
 11
54.0
 21
69.999999668903072
 31
0.0
  0
ARC
  5
4ADE
  8
0
 10
50.003378568735002
 20
68.987548303854183
 30
0.0
 40
6.9875494517415619
 50
237.48300641124041
 51
302.45131031071202
  0
LINE
  5
4AE0
  8
0
 10
57.505553499465123
 20
67.499999668903072
 30
0.0
 11
42.494446500534991
 21
67.499999668903072
 31
0.0
  0
LINE
  5
4AE1
  8
0
 10
44.372985706005977
 20
62.000000006279592
 30
0.0
 11
55.555342020761721
 21
61.999999745864962
 31
0.0
  0
LINE
  5
4AE2
  8
0
 10
42.494446500534991
 20
67.499999668903072
 30
0.0
 11
42.494446500534991
 21
63.07554548537798
 31
0.0
  0
LINE
  5
4AE3
  8
0
 10
46.247223250267488
 20
67.499999668903072
 30
0.0
 11
46.247223250267488
 21
63.095422663299402
 31
0.0
  0
ARC
  5
4AE4
  8
0
 10
44.36511940822998
 20
64.164554372895324
 30
0.0
 40
2.1645686601898171
 50
210.20574804139889
 51
330.40119867001317
  0
LINE
  5
4AE7
  8
3
 10
46.669999999999931
 20
82.249999834451714
 30
0.0
 11
46.66999999999998
 21
69.999999668903072
 31
0.0
  0
LINE
  5
4AE8
  8
0
 10
46.0
 20
67.499999668903072
 30
0.0
 11
45.99999999999995
 21
82.249999834451714
 31
0.0
  0
LINE
  5
4AE9
  8
0
 10
53.752776749732682
 20
67.499999668903072
 30
0.0
 11
53.752776749732682
 21
63.091120519096208
 31
0.0
  0
LINE
  5
4AEA
  8
0
 10
57.505553499465123
 20
63.20949521448717
 30
0.0
 11
57.505553499465123
 21
67.499999668903072
 31
0.0
  0
ARC
  5
4AEB
  8
0
 10
55.59899961703433
 20
64.106630626971977
 30
0.0
 40
2.107083210256774
 50
208.8128792577663
 51
334.80051040584249
  0
LINE
  5
4AED
  8
3
 10
53.329999999999963
 20
82.249999834451714
 30
0.0
 11
53.330000000000013
 21
69.999999668903072
 31
0.0
  0
LINE
  5
4AEF
  8
0
 10
53.99999999999995
 20
82.249999834451714
 30
0.0
 11
54.0
 21
67.499999668903072
 31
0.0
  0
ARC
  5
4AF0
  8
0
 10
66.892635997529624
 20
56.999999999999993
 30
0.0
 40
5.0
 50
209.8989018386149
 51
270.0
  0
LINE
  5
4AF1
  8
0
 10
59.691895517758041
 20
59.4923556212904
 30
0.0
 11
62.558104482242022
 21
54.507644378709479
 31
0.0
  0
LINE
  5
4AF2
  8
0
 10
68.5
 20
50.0
 30
0.0
 11
68.5
 21
51.999999999999993
 31
0.0
  0
LINE
  5
4AF3
  8
3
 10
53.330000000000013
 20
127.169999668903
 30
0.0
 11
53.329999999999963
 21
88.749999834451586
 31
0.0
  0
LINE
  5
4AF4
  8
3
 10
46.669999999999931
 20
88.749999834451586
 30
0.0
 11
46.66999999999998
 21
127.1699996689033
 31
0.0
  0
LINE
  5
4AF5
  8
0
 10
53.99999999999995
 20
88.749999834451586
 30
0.0
 11
54.0
 21
126.4999996689031
 31
0.0
  0
LINE
  5
4AF6
  8
0
 10
45.999999999999773
 20
126.4999996689031
 30
0.0
 11
45.99999999999995
 21
88.749999834451586
 31
0.0
  0
LINE
  5
4AF9
  8
0
 10
46.0
 20
126.4999996689031
 30
0.0
 11
54.0
 21
126.4999996689031
 31
0.0
  0
LINE
  5
4AFA
  8
0
 10
46.999999999999773
 20
127.4999996689032
 30
0.0
 11
52.999999999999773
 21
127.4999996689032
 31
0.0
  0
LINE
  5
4AFB
  8
0
 10
46.999999999999773
 20
127.4999996689032
 30
0.0
 11
46.0
 21
126.4999996689031
 31
0.0
  0
LINE
  5
4AFC
  8
0
 10
52.999999999999773
 20
127.4999996689032
 30
0.0
 11
54.0
 21
126.4999996689031
 31
0.0
  0
LINE
  5
4AFD
  8
1
 10
28.5
 20
170.9999996689032
 30
0.0
 11
71.5
 21
170.9999996689032
 31
0.0
  0
CIRCLE
  5
4AFE
  8
0
 10
50.0
 20
170.9999996689032
 30
0.0
 40
18.5
  0
CIRCLE
  5
4AFF
  8
0
 10
50.0
 20
170.9999996689032
 30
0.0
 40
14.44271279956236
  0
LINE
  5
4B00
  8
1
 10
50.0
 20
192.49999966890309
 30
0.0
 11
50.0
 21
149.49999966890309
 31
0.0
  0
CIRCLE
  5
4B02
  8
0
 10
50.0
 20
170.9999996689032
 30
0.0
 40
4.0
  0
CIRCLE
  5
4B03
  8
0
 10
50.0
 20
170.9999996689032
 30
0.0
 40
10.0
  0
CIRCLE
  5
4B04
  8
3
 10
50.0
 20
170.9999996689032
 30
0.0
 40
3.3300000000000121
  0
LINE
  5
4B05
  8
0
 10
46.247223250267488
 20
177.499999668903
 30
0.0
 11
42.494446500534991
 21
170.9999996689032
 31
0.0
  0
LINE
  5
4B06
  8
0
 10
42.494446500534991
 20
170.9999996689032
 30
0.0
 11
46.247223250267488
 21
164.4999996689032
 31
0.0
  0
LINE
  5
4B07
  8
0
 10
46.247223250267488
 20
164.4999996689032
 30
0.0
 11
53.752776749732682
 21
164.4999996689032
 31
0.0
  0
LINE
  5
4B08
  8
0
 10
53.752776749732682
 20
164.4999996689032
 30
0.0
 11
57.505553499465123
 21
170.9999996689032
 31
0.0
  0
LINE
  5
4B09
  8
0
 10
57.505553499465123
 20
170.9999996689032
 30
0.0
 11
53.752776749732682
 21
177.499999668903
 31
0.0
  0
LINE
  5
4B0A
  8
0
 10
53.752776749732682
 20
177.499999668903
 30
0.0
 11
46.247223250267488
 21
177.499999668903
 31
0.0
  0
LINE
  5
4B13
  8
3
 10
46.66999999999998
 20
69.999999668903072
 30
0.0
 11
46.0
 21
68.839525627831904
 31
0.0
  0
LINE
  5
4B14
  8
3
 10
54.0
 20
68.839525627831918
 30
0.0
 11
53.330000000000013
 21
69.999999668903072
 31
0.0
  0
LINE
  5
4C8B
  8
0
 10
57.505553499464888
 20
88.749999834451586
 30
0.0
 11
42.494446500535112
 21
88.749999834451586
 31
0.0
  0
LINE
  5
4C8C
  8
0
 10
56.249999999999773
 20
82.249999834451586
 30
0.0
 11
43.750000000001577
 21
82.249999834451586
 31
0.0
  0
ARC
  5
4C8D
  8
0
 10
44.370834875401442
 20
85.71690697469964
 30
0.0
 40
3.3225695729499738
 50
244.38424746782431
 51
304.38424746804048
  0
LINE
  5
4C8E
  8
0
 10
42.494446500535112
 20
82.974893985350406
 30
0.0
 11
43.750000000001357
 21
82.249999834451586
 31
0.0
  0
LINE
  5
4C8F
  8
0
 10
42.494446500535112
 20
82.974893985350406
 30
0.0
 11
42.494446500535112
 21
88.749999834451586
 31
0.0
  0
LINE
  5
4C90
  8
0
 10
46.247223250269371
 20
82.974893985350406
 30
0.0
 11
46.24722325026638
 21
88.749999834451586
 31
0.0
  0
LINE
  5
4C91
  8
0
 10
53.752776749730621
 20
82.974893985350406
 30
0.0
 11
53.752776749733577
 21
88.749999834451586
 31
0.0
  0
LINE
  5
4C92
  8
0
 10
57.505553499464888
 20
82.974893985350406
 30
0.0
 11
57.505553499464888
 21
88.749999834451586
 31
0.0
  0
LINE
  5
4C93
  8
0
 10
57.505553499464888
 20
82.974893985350406
 30
0.0
 11
56.249999999998643
 21
82.249999834451586
 31
0.0
  0
ARC
  5
4C94
  8
0
 10
49.999999999999091
 20
94.813780818142021
 30
0.0
 40
12.41944341639239
 50
252.4120462260021
 51
287.58795377400799
  0
ARC
  5
4C95
  8
0
 10
55.629165124598558
 20
85.71690697469964
 30
0.0
 40
3.3225695729499738
 50
235.61575253195949
 51
295.61575253217569
  0
ENDSEC
  0
EOF
