  0
SECTION
  2
HEADER
  9
$ACADVER
  1
AC1009
  9
$INSBASE
 10
0.0
 20
0.0
 30
0.0
  9
$EXTMIN
 10
0.0
 20
-2.960436562073669
 30
0.0
  9
$EXTMAX
 10
86.991814461118693
 20
184.00000000001009
 30
0.0
  9
$LIMMIN
 10
0.0
 20
0.0
  9
$LIMMAX
 10
375.0
 20
270.0
  9
$ORTHOMODE
 70
     1
  9
$REGENMODE
 70
     1
  9
$FILLMODE
 70
     1
  9
$QTEXTMODE
 70
     0
  9
$MIRRTEXT
 70
     0
  9
$DRAGMODE
 70
     2
  9
$LTSCALE
 40
6.0
  9
$OSMODE
 70
    37
  9
$ATTMODE
 70
     1
  9
$TEXTSIZE
 40
0.2
  9
$TRACEWID
 40
0.05
  9
$TEXTSTYLE
  7
STANDARD
  9
$CLAYER
  8
0
  9
$CELTYPE
  6
BYLAYER
  9
$CECOLOR
 62
   256
  9
$DIMSCALE
 40
1.0
  9
$DIMASZ
 40
3.0
  9
$DIMEXO
 40
1.0
  9
$DIMDLI
 40
6.0
  9
$DIMRND
 40
0.0
  9
$DIMDLE
 40
0.0
  9
$DIMEXE
 40
1.0
  9
$DIMTP
 40
495.0
  9
$DIMTM
 40
0.0
  9
$DIMTXT
 40
3.0
  9
$DIMCEN
 40
0.0
  9
$DIMTSZ
 40
0.0
  9
$DIMTOL
 70
     0
  9
$DIMLIM
 70
     0
  9
$DIMTIH
 70
     0
  9
$DIMTOH
 70
     0
  9
$DIMSE1
 70
     0
  9
$DIMSE2
 70
     0
  9
$DIMTAD
 70
     1
  9
$DIMZIN
 70
     0
  9
$DIMBLK
  1

  9
$DIMASO
 70
     0
  9
$DIMSHO
 70
     0
  9
$DIMPOST
  1

  9
$DIMAPOST
  1

  9
$DIMALT
 70
     0
  9
$DIMALTD
 70
     2
  9
$DIMALTF
 40
25.399999999999999
  9
$DIMLFAC
 40
1.0
  9
$DIMTOFL
 70
     1
  9
$DIMTVP
 40
0.0
  9
$DIMTIX
 70
     1
  9
$DIMSOXD
 70
     0
  9
$DIMSAH
 70
     0
  9
$DIMBLK1
  1

  9
$DIMBLK2
  1

  9
$DIMSTYLE
  2
STANDARD
  9
$DIMCLRD
 70
     0
  9
$DIMCLRE
 70
     0
  9
$DIMCLRT
 70
     4
  9
$DIMTFAC
 40
1.0
  9
$DIMGAP
 40
1.0
  9
$LUNITS
 70
     2
  9
$LUPREC
 70
     1
  9
$SKETCHINC
 40
0.1
  9
$FILLETRAD
 40
2.0
  9
$AUNITS
 70
     0
  9
$AUPREC
 70
     1
  9
$MENU
  1
C:\R13\WIN\SUPPORT\ACAD-I
  9
$ELEVATION
 40
0.0
  9
$PELEVATION
 40
0.0
  9
$THICKNESS
 40
0.0
  9
$LIMCHECK
 70
     0
  9
$BLIPMODE
 70
     0
  9
$CHAMFERA
 40
0.0
  9
$CHAMFERB
 40
0.0
  9
$SKPOLY
 70
     0
  9
$TDCREATE
 40
2451962.4112634258
  9
$TDUPDATE
 40
2457032.3752486692
  9
$TDINDWG
 40
0.1184612269
  9
$TDUSRTIMER
 40
0.1184612269
  9
$USRTIMER
 70
     1
  9
$ANGBASE
 50
0.0
  9
$ANGDIR
 70
     0
  9
$PDMODE
 70
     0
  9
$PDSIZE
 40
0.0
  9
$PLINEWID
 40
0.0
  9
$COORDS
 70
     1
  9
$SPLFRAME
 70
     0
  9
$SPLINETYPE
 70
     6
  9
$SPLINESEGS
 70
     8
  9
$ATTDIA
 70
     0
  9
$ATTREQ
 70
     1
  9
$HANDLING
 70
     1
  9
$HANDSEED
  5
4E03
  9
$SURFTAB1
 70
     6
  9
$SURFTAB2
 70
     6
  9
$SURFTYPE
 70
     6
  9
$SURFU
 70
     6
  9
$SURFV
 70
     6
  9
$UCSNAME
  2

  9
$UCSORG
 10
0.0
 20
0.0
 30
0.0
  9
$UCSXDIR
 10
1.0
 20
0.0
 30
0.0
  9
$UCSYDIR
 10
0.0
 20
1.0
 30
0.0
  9
$PUCSNAME
  2

  9
$PUCSORG
 10
0.0
 20
0.0
 30
0.0
  9
$PUCSXDIR
 10
1.0
 20
0.0
 30
0.0
  9
$PUCSYDIR
 10
0.0
 20
1.0
 30
0.0
  9
$USERI1
 70
     4
  9
$USERI2
 70
     1
  9
$USERI3
 70
     0
  9
$USERI4
 70
     0
  9
$USERI5
 70
     0
  9
$USERR1
 40
1.0
  9
$USERR2
 40
3.0
  9
$USERR3
 40
3.0
  9
$USERR4
 40
3.0
  9
$USERR5
 40
10.0
  9
$WORLDVIEW
 70
     1
  9
$SHADEDGE
 70
     3
  9
$SHADEDIF
 70
    70
  9
$TILEMODE
 70
     1
  9
$MAXACTVP
 70
    16
  9
$PLIMCHECK
 70
     0
  9
$PEXTMIN
 10
1.0000000000000000E+020
 20
1.0000000000000000E+020
 30
1.0000000000000000E+020
  9
$PEXTMAX
 10
-1.0000000000000000E+020
 20
-1.0000000000000000E+020
 30
-1.0000000000000000E+020
  9
$PLIMMIN
 10
0.0
 20
0.0
  9
$PLIMMAX
 10
12.0
 20
9.0
  9
$UNITMODE
 70
     0
  9
$VISRETAIN
 70
     0
  9
$PLINEGEN
 70
     0
  9
$PSLTSCALE
 70
     0
  0
ENDSEC
  0
SECTION
  2
TABLES
  0
TABLE
  2
VPORT
 70
     1
  0
VPORT
  2
*ACTIVE
 70
     0
 10
0.0
 20
0.0
 11
1.0
 21
1.0
 12
200.73018080667589
 22
115.0
 13
0.0
 23
0.0
 14
10.0
 24
10.0
 15
10.0
 25
10.0
 16
0.0
 26
0.0
 36
1.0
 17
0.0
 27
0.0
 37
0.0
 40
230.0
 41
1.7454798331015291
 42
50.0
 43
0.0
 44
0.0
 50
0.0
 51
0.0
 71
     0
 72
   100
 73
     1
 74
     0
 75
     0
 76
     0
 77
     0
 78
     0
  0
ENDTAB
  0
TABLE
  2
LTYPE
 70
     3
  0
LTYPE
  2
CONTINUOUS
 70
     0
  3
Solid Line
 72
    65
 73
     0
 40
0.0
  0
LTYPE
  2
CENTER
 70
     0
  3
____ _ ____ _ ____ _ ____ _ ____ _ ____ _ ____
 72
    65
 73
     4
 40
2.0
 49
1.25
 49
-0.25
 49
0.25
 49
-0.25
  0
LTYPE
  2
PHANTOM2
 70
     0
  3
___ _ _ ___ _ _ ___ _ _ ___ _ _
 72
    65
 73
     6
 40
1.25
 49
0.625
 49
-0.125
 49
0.125
 49
-0.125
 49
0.125
 49
-0.125
  0
ENDTAB
  0
TABLE
  2
LAYER
 70
     3
  0
LAYER
  2
0
 70
     0
 62
     7
  6
CONTINUOUS
  0
LAYER
  2
1
 70
     0
 62
     1
  6
CENTER
  0
LAYER
  2
3
 70
     0
 62
     3
  6
CONTINUOUS
  0
ENDTAB
  0
TABLE
  2
STYLE
 70
     2
  0
STYLE
  2
STANDARD
 70
     0
 40
0.0
 41
1.0
 50
0.0
 71
     0
 42
0.2
  3
SIMPLEX
  4
BIGFONT
  0
STYLE
  2
STANDARD1
 70
     0
 40
0.0
 41
1.0
 50
0.0
 71
     0
 42
3.0
  3
txt
  4

  0
ENDTAB
  0
TABLE
  2
VIEW
 70
     1
  0
VIEW
  2
OLE1
 70
     0
 40
23.205456353438649
 10
338.59170241122831
 20
147.26976484028091
 41
37.128730165501842
 11
0.0
 21
0.0
 31
1.0
 12
0.0
 22
0.0
 32
0.0
 42
50.0
 43
0.0
 44
0.0
 50
0.0
 71
     0
  0
ENDTAB
  0
TABLE
  2
UCS
 70
     0
  0
ENDTAB
  0
TABLE
  2
APPID
 70
    29
  0
APPID
  2
ACAD
 70
     0
  0
APPID
  2
GENIUS_GENOREF_13
 70
     0
  0
APPID
  2
GENIUS_GENOENT_13
 70
     0
  0
APPID
  2
GENIUS_GENBH_13
 70
     0
  0
APPID
  2
GENIUS_GENOBJ_13
 70
     0
  0
APPID
  2
GENIUS_GENODEF_13
 70
     0
  0
APPID
  2
GENIUS_GENOLIS_13
 70
     0
  0
APPID
  2
GENIUS_GENOBJ-NBEHI-BHF_13
 70
     0
  0
APPID
  2
GENIUS_GENOBJ-NBEHI-BHB_13
 70
     0
  0
APPID
  2
GENIUS_GENOBJ-F-PART_13
 70
     0
  0
APPID
  2
GENIUS_GEFSTDP_13
 70
     0
  0
APPID
  2
GENIUS_GENOBJ-N-RSSYM_13
 70
     0
  0
APPID
  2
GENIUS_GENSYMENT_13
 70
     0
  0
APPID
  2
GENIUS_GENOBJ-N-TIT_13
 70
     0
  0
APPID
  2
GENIUS_GENTITLE_13
 70
     0
  0
APPID
  2
GENIUS_GENZVEED_13
 70
     0
  0
APPID
  2
GENIUS_GENOBJ-N-LEADER_13
 70
     0
  0
APPID
  2
GENIUS_GENOBJ-N-FIL_13
 70
     0
  0
APPID
  2
GENIUS_GENOBJ-N-SEC_13
 70
     0
  0
APPID
  2
GENIUS_GENOBJ-N-CRS_13
 70
     0
  0
APPID
  2
GENIUS_GENOBJ-N-ZOO_13
 70
     0
  0
APPID
  2
GENIUS_GENZOO_13
 70
     0
  0
APPID
  2
GENIUS_GENOBJ-F-TOL_13
 70
     0
  0
APPID
  2
GENIUS_GENFIL_13
 70
     0
  0
APPID
  2
GENIUS_GENOBJ-N-CHA_13
 70
     0
  0
APPID
  2
GENIUS_GENOBJ-N-CEN_13
 70
     0
  0
APPID
  2
ACAD_MLEADERVER
 70
     0
  0
APPID
  2
ACAD_EXEMPT_FROM_CAD_STANDARDS
 70
     0
  0
APPID
  2
ACAD_NAV_VCDISPLAY
 70
     0
  0
ENDTAB
  0
TABLE
  2
DIMSTYLE
 70
     1
  0
DIMSTYLE
  2
STANDARD
 70
     0
  3

  4

  5

  6

  7

 40
1.0
 41
0.18
 42
0.0625
 43
0.38
 44
0.18
 45
0.0
 46
0.0
 47
0.0
 48
0.0
140
0.18
141
0.09
142
0.0
143
25.399999999999999
144
1.0
145
0.0
146
1.0
147
0.09
 71
     0
 72
     0
 73
     1
 74
     1
 75
     0
 76
     0
 77
     0
 78
     0
170
     0
171
     2
172
     0
173
     0
174
     0
175
     0
176
     0
177
     0
178
     0
  0
ENDTAB
  0
ENDSEC
  0
SECTION
  2
BLOCKS
  0
BLOCK
  8
0
  2
$MODEL_SPACE
 70
     0
 10
0.0
 20
0.0
 30
0.0
  3
$MODEL_SPACE
  1

  0
ENDBLK
  5
4119
  8
0
  0
BLOCK
 67
     1
  8
0
  2
$PAPER_SPACE
 70
     0
 10
0.0
 20
0.0
 30
0.0
  3
$PAPER_SPACE
  1

  0
ENDBLK
  5
4117
 67
     1
  8
0
  0
ENDSEC
  0
SECTION
  2
ENTITIES
  0
TEXT
  5
4A34
  8
0
 62
     3
 10
0.0
 20
0.0
 30
0.0
 40
10.0
  1
KA37-10X050
  7
STANDARD1
  0
LINE
  5
4BD3
  8
3
 10
45.799999999999997
 20
118.3000000000101
 30
0.0
 11
45.799999999999997
 21
84.500000000005087
 31
0.0
  0
LINE
  5
4BD4
  8
3
 10
54.199999999999818
 20
84.500000000004974
 30
0.0
 11
54.199999999999818
 21
118.3000000000101
 31
0.0
  0
LINE
  5
4BD5
  8
0
 10
55.0
 20
84.500000000004945
 30
0.0
 11
55.0
 21
117.5000000000101
 31
0.0
  0
LINE
  5
4BD6
  8
0
 10
45.0
 20
117.5000000000101
 30
0.0
 11
45.0
 21
84.500000000005087
 31
0.0
  0
LINE
  5
4BD9
  8
1
 10
50.0
 20
47.0
 30
0.0
 11
50.0
 21
122.0000000000101
 31
0.0
  0
LINE
  5
4BDA
  8
0
 10
31.499999999999911
 20
52.0
 30
0.0
 11
68.500000000000085
 21
52.0
 31
0.0
  0
LINE
  5
4BDB
  8
0
 10
31.499999999999911
 20
50.0
 30
0.0
 11
68.500000000000085
 21
50.0
 31
0.0
  0
LINE
  5
4BDC
  8
0
 10
57.361212146852949
 20
62.0
 30
0.0
 11
42.638780282517473
 21
62.0
 31
0.0
  0
ARC
  5
4BDD
  8
0
 10
50.000010409615243
 20
71.208333333358695
 30
0.0
 40
9.2083333333544832
 50
237.7956959492947
 51
302.20415095713838
  0
LINE
  5
4BE7
  8
0
 10
59.81495457622362
 20
69.00000000001009
 30
0.0
 11
40.18504542377633
 21
69.00000000001009
 31
0.0
  0
LINE
  5
4BE9
  8
0
 10
45.0
 20
72.00000000001009
 30
0.0
 11
54.999999999999829
 21
72.00000000001009
 31
0.0
  0
LINE
  5
4BEA
  8
0
 10
37.441895517757963
 20
54.507644378709578
 30
0.0
 11
40.30810448224193
 21
59.492355621290393
 31
0.0
  0
ARC
  5
4BEB
  8
0
 10
33.107364002470291
 20
57.0
 30
0.0
 40
5.0
 50
270.0
 51
330.1010981613851
  0
LINE
  5
4BEC
  8
0
 10
31.499999999999911
 20
52.0
 30
0.0
 11
31.499999999999911
 21
50.0
 31
0.0
  0
LINE
  5
4BEE
  8
3
 10
45.799999999999997
 20
76.500000000005059
 30
0.0
 11
45.799999999999997
 21
72.00000000001009
 31
0.0
  0
LINE
  5
4BEF
  8
0
 10
44.999999999999993
 20
76.500000000005073
 30
0.0
 11
45.0
 21
69.00000000001009
 31
0.0
  0
LINE
  5
4BF1
  8
0
 10
40.18504542377633
 20
69.00000000001009
 30
0.0
 11
40.18504542377633
 21
63.416660110319299
 31
0.0
  0
LINE
  5
4BF2
  8
0
 10
45.09252271188813
 20
69.00000000001009
 30
0.0
 11
45.09252271188813
 21
63.416673223034081
 31
0.0
  0
ARC
  5
4BF3
  8
0
 10
42.638780282517473
 20
64.833333333343404
 30
0.0
 40
2.8333333333434552
 50
210.00015309356971
 51
330.00015309357042
  0
ARC
  5
4BF4
  8
0
 10
44.642635997529652
 20
57.0
 30
0.0
 40
5.0
 50
90.0
 51
150.1010981613851
  0
LINE
  5
4BF9
  8
0
 10
59.691895517757949
 20
59.492355621290393
 30
0.0
 11
62.55810448224193
 21
54.507644378709578
 31
0.0
  0
ARC
  5
4BFA
  8
0
 10
66.892635997529595
 20
57.0
 30
0.0
 40
5.0
 50
209.8989018386149
 51
270.0
  0
LINE
  5
4BFB
  8
0
 10
68.500000000000085
 20
50.0
 30
0.0
 11
68.500000000000085
 21
52.0
 31
0.0
  0
LINE
  5
4BFD
  8
0
 10
54.999999999999829
 20
69.00000000001009
 30
0.0
 11
54.999999999999829
 21
76.500000000004931
 31
0.0
  0
LINE
  5
4BFE
  8
3
 10
54.199999999999818
 20
72.00000000001009
 30
0.0
 11
54.20000000000023
 21
76.500000000004945
 31
0.0
  0
ARC
  5
4BFF
  8
0
 10
57.361212146852949
 20
64.833333333343404
 30
0.0
 40
2.8333333333434232
 50
210.00015309356971
 51
330.00015309357042
  0
ARC
  5
4C00
  8
0
 10
55.35736400247017
 20
57.0
 30
0.0
 40
5.0
 50
29.898901838614851
 51
90.0
  0
LINE
  5
4C01
  8
0
 10
54.907477288111643
 20
69.00000000001009
 30
0.0
 11
54.907477288111643
 21
63.416660110319413
 31
0.0
  0
LINE
  5
4C03
  8
0
 10
59.81495457622362
 20
69.00000000001009
 30
0.0
 11
59.81495457622362
 21
63.416673223034081
 31
0.0
  0
LINE
  5
4C07
  8
1
 10
50.0
 20
184.00000000001009
 30
0.0
 11
50.0
 21
141.00000000001009
 31
0.0
  0
CIRCLE
  5
4C08
  8
0
 10
50.0
 20
162.50000000001009
 30
0.0
 40
18.5
  0
LINE
  5
4C09
  8
0
 10
45.0
 20
117.5000000000101
 30
0.0
 11
55.0
 21
117.5000000000101
 31
0.0
  0
LINE
  5
4C0A
  8
0
 10
53.5
 20
119.0000000000101
 30
0.0
 11
46.5
 21
119.0000000000101
 31
0.0
  0
LINE
  5
4C0B
  8
0
 10
46.5
 20
119.0000000000101
 30
0.0
 11
45.0
 21
117.5000000000101
 31
0.0
  0
LINE
  5
4C0C
  8
0
 10
55.0
 20
117.5000000000101
 30
0.0
 11
53.5
 21
119.0000000000101
 31
0.0
  0
CIRCLE
  5
4C0D
  8
0
 10
50.0
 20
162.50000000001009
 30
0.0
 40
14.44271279956236
  0
LINE
  5
4C0E
  8
1
 10
28.5
 20
162.50000000001009
 30
0.0
 11
71.5
 21
162.50000000001009
 31
0.0
  0
CIRCLE
  5
4C0F
  8
0
 10
50.0
 20
162.50000000001009
 30
0.0
 40
10.0
  0
CIRCLE
  5
4C11
  8
3
 10
50.0
 20
162.50000000001009
 30
0.0
 40
4.199999999999986
  0
CIRCLE
  5
4C12
  8
0
 10
50.0
 20
162.50000000001009
 30
0.0
 40
5.0
  0
LINE
  5
4C13
  8
0
 10
54.907477288111643
 20
154.00000000001009
 30
0.0
 11
59.81495457622362
 21
162.50000000001009
 31
0.0
  0
LINE
  5
4C14
  8
0
 10
59.81495457622362
 20
162.50000000001009
 30
0.0
 11
54.907477288111807
 21
171.00000000001
 31
0.0
  0
LINE
  5
4C15
  8
0
 10
54.907477288111807
 20
171.00000000001
 30
0.0
 11
45.09252271188813
 21
171.00000000001
 31
0.0
  0
LINE
  5
4C16
  8
0
 10
45.09252271188813
 20
171.00000000001
 30
0.0
 11
40.18504542377633
 21
162.50000000001009
 31
0.0
  0
LINE
  5
4C17
  8
0
 10
40.18504542377633
 20
162.50000000001009
 30
0.0
 11
45.09252271188813
 21
154.00000000001009
 31
0.0
  0
LINE
  5
4C18
  8
0
 10
45.09252271188813
 20
154.00000000001009
 30
0.0
 11
54.907477288111643
 21
154.00000000001009
 31
0.0
  0
LINE
  5
4C6E
  8
3
 10
45.799999999999997
 20
72.00000000001009
 30
0.0
 11
45.000000000000021
 21
70.614359353954953
 31
0.0
  0
LINE
  5
4C6F
  8
3
 10
54.999999999999829
 20
70.614359353954981
 30
0.0
 11
54.199999999999818
 21
72.00000000001009
 31
0.0
  0
LINE
  5
4D68
  8
0
 10
59.81495457622357
 20
84.500000000004889
 30
0.0
 11
40.18504542377643
 21
84.500000000005159
 31
0.0
  0
LINE
  5
4D69
  8
0
 10
58.249999999999993
 20
76.500000000004903
 30
0.0
 11
41.749999999999702
 21
76.50000000000513
 31
0.0
  0
ARC
  5
4D6A
  8
0
 10
42.638784067832241
 20
80.989236239626536
 30
0.0
 40
4.3448986723233833
 50
244.3842474678913
 51
304.38424746800479
  0
LINE
  5
4D6B
  8
0
 10
40.18504542377643
 20
77.403526945857109
 30
0.0
 11
41.749999999999979
 21
76.500000000004903
 31
0.0
  0
LINE
  5
4D6C
  8
0
 10
40.18504542377643
 20
77.403526945857166
 30
0.0
 11
40.18504542377643
 21
84.500000000005159
 31
0.0
  0
LINE
  5
4D6D
  8
0
 10
45.092522711887149
 20
77.403526945857109
 30
0.0
 11
45.092522711888201
 21
84.500000000005087
 31
0.0
  0
LINE
  5
4D6E
  8
0
 10
54.907477288112823
 20
77.403526945857109
 30
0.0
 11
54.907477288111757
 21
84.50000000000496
 31
0.0
  0
LINE
  5
4D6F
  8
0
 10
59.814954576223542
 20
77.403526945857166
 30
0.0
 11
59.81495457622357
 21
84.500000000004889
 31
0.0
  0
LINE
  5
4D70
  8
0
 10
59.814954576223542
 20
77.403526945857109
 30
0.0
 11
58.249999999999993
 21
76.500000000004903
 31
0.0
  0
ARC
  5
4D71
  8
0
 10
50.00000000000049
 20
92.885148188769733
 30
0.0
 40
16.24081062146659
 50
252.4120462260278
 51
287.58795377397217
  0
ARC
  5
4D72
  8
0
 10
57.361215932167717
 20
80.989236239626536
 30
0.0
 40
4.3448986723233833
 50
235.61575253199521
 51
295.61575253210867
  0
ENDSEC
  0
EOF
