  0
SECTION
  2
HEADER
  9
$ACADVER
  1
AC1009
  9
$INSBASE
 10
0.0
 20
0.0
 30
0.0
  9
$EXTMIN
 10
0.0
 20
-2.960436562073669
 30
0.0
  9
$EXTMAX
 10
86.991814461118693
 20
269.99997813099208
 30
0.0
  9
$LIMMIN
 10
0.0
 20
0.0
  9
$LIMMAX
 10
375.0
 20
270.0
  9
$ORTHOMODE
 70
     1
  9
$REGENMODE
 70
     1
  9
$FILLMODE
 70
     1
  9
$QTEXTMODE
 70
     0
  9
$MIRRTEXT
 70
     0
  9
$DRAGMODE
 70
     2
  9
$LTSCALE
 40
6.0
  9
$OSMODE
 70
    37
  9
$ATTMODE
 70
     1
  9
$TEXTSIZE
 40
0.2
  9
$TRACEWID
 40
0.05
  9
$TEXTSTYLE
  7
STANDARD
  9
$CLAYER
  8
0
  9
$CELTYPE
  6
BYLAYER
  9
$CECOLOR
 62
   256
  9
$DIMSCALE
 40
1.0
  9
$DIMASZ
 40
3.0
  9
$DIMEXO
 40
1.0
  9
$DIMDLI
 40
6.0
  9
$DIMRND
 40
0.0
  9
$DIMDLE
 40
0.0
  9
$DIMEXE
 40
1.0
  9
$DIMTP
 40
495.0
  9
$DIMTM
 40
0.0
  9
$DIMTXT
 40
3.0
  9
$DIMCEN
 40
0.0
  9
$DIMTSZ
 40
0.0
  9
$DIMTOL
 70
     0
  9
$DIMLIM
 70
     0
  9
$DIMTIH
 70
     0
  9
$DIMTOH
 70
     0
  9
$DIMSE1
 70
     0
  9
$DIMSE2
 70
     0
  9
$DIMTAD
 70
     1
  9
$DIMZIN
 70
     0
  9
$DIMBLK
  1

  9
$DIMASO
 70
     0
  9
$DIMSHO
 70
     0
  9
$DIMPOST
  1

  9
$DIMAPOST
  1

  9
$DIMALT
 70
     0
  9
$DIMALTD
 70
     2
  9
$DIMALTF
 40
25.399999999999999
  9
$DIMLFAC
 40
1.0
  9
$DIMTOFL
 70
     1
  9
$DIMTVP
 40
0.0
  9
$DIMTIX
 70
     1
  9
$DIMSOXD
 70
     0
  9
$DIMSAH
 70
     0
  9
$DIMBLK1
  1

  9
$DIMBLK2
  1

  9
$DIMSTYLE
  2
STANDARD
  9
$DIMCLRD
 70
     0
  9
$DIMCLRE
 70
     0
  9
$DIMCLRT
 70
     4
  9
$DIMTFAC
 40
1.0
  9
$DIMGAP
 40
1.0
  9
$LUNITS
 70
     2
  9
$LUPREC
 70
     1
  9
$SKETCHINC
 40
0.1
  9
$FILLETRAD
 40
2.0
  9
$AUNITS
 70
     0
  9
$AUPREC
 70
     1
  9
$MENU
  1
C:\R13\WIN\SUPPORT\ACAD-I
  9
$ELEVATION
 40
0.0
  9
$PELEVATION
 40
0.0
  9
$THICKNESS
 40
0.0
  9
$LIMCHECK
 70
     0
  9
$BLIPMODE
 70
     0
  9
$CHAMFERA
 40
0.0
  9
$CHAMFERB
 40
0.0
  9
$SKPOLY
 70
     0
  9
$TDCREATE
 40
2451962.4112634258
  9
$TDUPDATE
 40
2457032.443758368
  9
$TDINDWG
 40
0.1345655787
  9
$TDUSRTIMER
 40
0.1345655787
  9
$USRTIMER
 70
     1
  9
$ANGBASE
 50
0.0
  9
$ANGDIR
 70
     0
  9
$PDMODE
 70
     0
  9
$PDSIZE
 40
0.0
  9
$PLINEWID
 40
0.0
  9
$COORDS
 70
     1
  9
$SPLFRAME
 70
     0
  9
$SPLINETYPE
 70
     6
  9
$SPLINESEGS
 70
     8
  9
$ATTDIA
 70
     0
  9
$ATTREQ
 70
     1
  9
$HANDLING
 70
     1
  9
$HANDSEED
  5
50B1
  9
$SURFTAB1
 70
     6
  9
$SURFTAB2
 70
     6
  9
$SURFTYPE
 70
     6
  9
$SURFU
 70
     6
  9
$SURFV
 70
     6
  9
$UCSNAME
  2

  9
$UCSORG
 10
0.0
 20
0.0
 30
0.0
  9
$UCSXDIR
 10
1.0
 20
0.0
 30
0.0
  9
$UCSYDIR
 10
0.0
 20
1.0
 30
0.0
  9
$PUCSNAME
  2

  9
$PUCSORG
 10
0.0
 20
0.0
 30
0.0
  9
$PUCSXDIR
 10
1.0
 20
0.0
 30
0.0
  9
$PUCSYDIR
 10
0.0
 20
1.0
 30
0.0
  9
$USERI1
 70
     4
  9
$USERI2
 70
     1
  9
$USERI3
 70
     0
  9
$USERI4
 70
     0
  9
$USERI5
 70
     0
  9
$USERR1
 40
1.0
  9
$USERR2
 40
3.0
  9
$USERR3
 40
3.0
  9
$USERR4
 40
3.0
  9
$USERR5
 40
10.0
  9
$WORLDVIEW
 70
     1
  9
$SHADEDGE
 70
     3
  9
$SHADEDIF
 70
    70
  9
$TILEMODE
 70
     1
  9
$MAXACTVP
 70
    16
  9
$PLIMCHECK
 70
     0
  9
$PEXTMIN
 10
1.0000000000000000E+020
 20
1.0000000000000000E+020
 30
1.0000000000000000E+020
  9
$PEXTMAX
 10
-1.0000000000000000E+020
 20
-1.0000000000000000E+020
 30
-1.0000000000000000E+020
  9
$PLIMMIN
 10
0.0
 20
0.0
  9
$PLIMMAX
 10
12.0
 20
9.0
  9
$UNITMODE
 70
     0
  9
$VISRETAIN
 70
     0
  9
$PLINEGEN
 70
     0
  9
$PSLTSCALE
 70
     0
  0
ENDSEC
  0
SECTION
  2
TABLES
  0
TABLE
  2
VPORT
 70
     1
  0
VPORT
  2
*ACTIVE
 70
     0
 10
0.0
 20
0.0
 11
1.0
 21
1.0
 12
349.095966620306
 22
200.0
 13
0.0
 23
0.0
 14
10.0
 24
10.0
 15
10.0
 25
10.0
 16
0.0
 26
0.0
 36
1.0
 17
0.0
 27
0.0
 37
0.0
 40
400.0
 41
1.7454798331015291
 42
50.0
 43
0.0
 44
0.0
 50
0.0
 51
0.0
 71
     0
 72
   100
 73
     1
 74
     0
 75
     0
 76
     0
 77
     0
 78
     0
  0
ENDTAB
  0
TABLE
  2
LTYPE
 70
     3
  0
LTYPE
  2
CONTINUOUS
 70
     0
  3
Solid Line
 72
    65
 73
     0
 40
0.0
  0
LTYPE
  2
CENTER
 70
     0
  3
____ _ ____ _ ____ _ ____ _ ____ _ ____ _ ____
 72
    65
 73
     4
 40
2.0
 49
1.25
 49
-0.25
 49
0.25
 49
-0.25
  0
LTYPE
  2
PHANTOM2
 70
     0
  3
___ _ _ ___ _ _ ___ _ _ ___ _ _
 72
    65
 73
     6
 40
1.25
 49
0.625
 49
-0.125
 49
0.125
 49
-0.125
 49
0.125
 49
-0.125
  0
ENDTAB
  0
TABLE
  2
LAYER
 70
     3
  0
LAYER
  2
0
 70
     0
 62
     7
  6
CONTINUOUS
  0
LAYER
  2
1
 70
     0
 62
     1
  6
CENTER
  0
LAYER
  2
3
 70
     0
 62
     3
  6
CONTINUOUS
  0
ENDTAB
  0
TABLE
  2
STYLE
 70
     2
  0
STYLE
  2
STANDARD
 70
     0
 40
0.0
 41
1.0
 50
0.0
 71
     0
 42
0.2
  3
SIMPLEX
  4
BIGFONT
  0
STYLE
  2
STANDARD1
 70
     0
 40
0.0
 41
1.0
 50
0.0
 71
     0
 42
3.0
  3
txt
  4

  0
ENDTAB
  0
TABLE
  2
VIEW
 70
     1
  0
VIEW
  2
OLE1
 70
     0
 40
23.205456353438649
 10
338.59170241122831
 20
147.26976484028091
 41
37.128730165501842
 11
0.0
 21
0.0
 31
1.0
 12
0.0
 22
0.0
 32
0.0
 42
50.0
 43
0.0
 44
0.0
 50
0.0
 71
     0
  0
ENDTAB
  0
TABLE
  2
UCS
 70
     0
  0
ENDTAB
  0
TABLE
  2
APPID
 70
    29
  0
APPID
  2
ACAD
 70
     0
  0
APPID
  2
GENIUS_GENOREF_13
 70
     0
  0
APPID
  2
GENIUS_GENOENT_13
 70
     0
  0
APPID
  2
GENIUS_GENBH_13
 70
     0
  0
APPID
  2
GENIUS_GENOBJ_13
 70
     0
  0
APPID
  2
GENIUS_GENODEF_13
 70
     0
  0
APPID
  2
GENIUS_GENOLIS_13
 70
     0
  0
APPID
  2
GENIUS_GENOBJ-NBEHI-BHF_13
 70
     0
  0
APPID
  2
GENIUS_GENOBJ-NBEHI-BHB_13
 70
     0
  0
APPID
  2
GENIUS_GENOBJ-F-PART_13
 70
     0
  0
APPID
  2
GENIUS_GEFSTDP_13
 70
     0
  0
APPID
  2
GENIUS_GENOBJ-N-RSSYM_13
 70
     0
  0
APPID
  2
GENIUS_GENSYMENT_13
 70
     0
  0
APPID
  2
GENIUS_GENOBJ-N-TIT_13
 70
     0
  0
APPID
  2
GENIUS_GENTITLE_13
 70
     0
  0
APPID
  2
GENIUS_GENZVEED_13
 70
     0
  0
APPID
  2
GENIUS_GENOBJ-N-LEADER_13
 70
     0
  0
APPID
  2
GENIUS_GENOBJ-N-FIL_13
 70
     0
  0
APPID
  2
GENIUS_GENOBJ-N-SEC_13
 70
     0
  0
APPID
  2
GENIUS_GENOBJ-N-CRS_13
 70
     0
  0
APPID
  2
GENIUS_GENOBJ-N-ZOO_13
 70
     0
  0
APPID
  2
GENIUS_GENZOO_13
 70
     0
  0
APPID
  2
GENIUS_GENOBJ-F-TOL_13
 70
     0
  0
APPID
  2
GENIUS_GENFIL_13
 70
     0
  0
APPID
  2
GENIUS_GENOBJ-N-CHA_13
 70
     0
  0
APPID
  2
GENIUS_GENOBJ-N-CEN_13
 70
     0
  0
APPID
  2
ACAD_MLEADERVER
 70
     0
  0
APPID
  2
ACAD_EXEMPT_FROM_CAD_STANDARDS
 70
     0
  0
APPID
  2
ACAD_NAV_VCDISPLAY
 70
     0
  0
ENDTAB
  0
TABLE
  2
DIMSTYLE
 70
     1
  0
DIMSTYLE
  2
STANDARD
 70
     0
  3

  4

  5

  6

  7

 40
1.0
 41
0.18
 42
0.0625
 43
0.38
 44
0.18
 45
0.0
 46
0.0
 47
0.0
 48
0.0
140
0.18
141
0.09
142
0.0
143
25.399999999999999
144
1.0
145
0.0
146
1.0
147
0.09
 71
     0
 72
     0
 73
     1
 74
     1
 75
     0
 76
     0
 77
     0
 78
     0
170
     0
171
     2
172
     0
173
     0
174
     0
175
     0
176
     0
177
     0
178
     0
  0
ENDTAB
  0
ENDSEC
  0
SECTION
  2
BLOCKS
  0
BLOCK
  8
0
  2
$MODEL_SPACE
 70
     0
 10
0.0
 20
0.0
 30
0.0
  3
$MODEL_SPACE
  1

  0
ENDBLK
  5
4119
  8
0
  0
BLOCK
 67
     1
  8
0
  2
$PAPER_SPACE
 70
     0
 10
0.0
 20
0.0
 30
0.0
  3
$PAPER_SPACE
  1

  0
ENDBLK
  5
4117
 67
     1
  8
0
  0
ENDSEC
  0
SECTION
  2
ENTITIES
  0
TEXT
  5
4A34
  8
0
 62
     3
 10
0.0
 20
0.0
 30
0.0
 40
10.0
  1
KA60-20X100
  7
STANDARD1
  0
LINE
  5
4EBA
  8
0
 10
60.000000000000057
 20
177.4999781309921
 30
0.0
 11
60.000000000000057
 21
130.00304008719581
 31
0.0
  0
LINE
  5
4EBB
  8
0
 10
39.99999999999995
 20
177.4999781309921
 30
0.0
 11
39.99999999999995
 21
130.00304008719581
 31
0.0
  0
LINE
  5
4EBC
  8
3
 10
58.650000000000027
 20
130.00304008719581
 30
0.0
 11
58.650000000000027
 21
178.8499781309921
 31
0.0
  0
LINE
  5
4EBD
  8
3
 10
41.349999999999973
 20
178.8499781309921
 30
0.0
 11
41.349999999999973
 21
130.00304008719581
 31
0.0
  0
LINE
  5
4EBE
  8
1
 10
49.999999999999943
 20
184.9999781309921
 30
0.0
 11
49.999999999999943
 21
45.0
 31
0.0
  0
LINE
  5
4EBF
  8
0
 10
80.000000000000057
 20
58.609003688227133
 30
0.0
 11
69.999999999999943
 21
66.999999999999844
 31
0.0
  0
LINE
  5
4EC0
  8
0
 10
29.99999999999995
 20
66.999999999999844
 30
0.0
 11
19.99999999999994
 21
58.609003688227133
 31
0.0
  0
LINE
  5
4EC1
  8
0
 10
19.99999999999994
 20
58.609003688227133
 30
0.0
 11
80.000000000000057
 21
58.609003688227133
 31
0.0
  0
LINE
  5
4EC2
  8
0
 10
19.99999999999994
 20
50.0
 30
0.0
 11
80.000000000000057
 21
50.0
 31
0.0
  0
LINE
  5
4EC3
  8
0
 10
19.99999999999994
 20
58.609003688227133
 30
0.0
 11
19.99999999999994
 21
50.0
 31
0.0
  0
LINE
  5
4EC4
  8
0
 10
80.000000000000057
 20
50.0
 30
0.0
 11
80.000000000000057
 21
58.609003688227133
 31
0.0
  0
LINE
  5
4EC5
  8
0
 10
39.99999999999995
 20
84.999999999999844
 30
0.0
 11
60.000000000000057
 21
84.999999999999844
 31
0.0
  0
LINE
  5
4ECD
  8
0
 10
69.999999999999943
 20
66.999999999999844
 30
0.0
 11
29.99999999999995
 21
66.999999999999844
 31
0.0
  0
LINE
  5
4ECE
  8
3
 10
41.349999999999973
 20
114.0030400871957
 30
0.0
 11
41.349999999999973
 21
84.999999999999844
 31
0.0
  0
LINE
  5
4ECF
  8
0
 10
39.99999999999995
 20
114.0030400871957
 30
0.0
 11
39.99999999999995
 21
80.006102043399352
 31
0.0
  0
LINE
  5
4ED4
  8
3
 10
58.650000000000027
 20
114.0030400871957
 30
0.0
 11
58.650000000000027
 21
84.999999999999844
 31
0.0
  0
LINE
  5
4ED5
  8
0
 10
60.000000000000057
 20
114.0030400871957
 30
0.0
 11
60.000000000000057
 21
80.006102043399352
 31
0.0
  0
LINE
  5
4EDA
  8
1
 10
49.999999999999943
 20
269.99997813099208
 30
0.0
 11
49.999999999999943
 21
199.9999781309921
 31
0.0
  0
CIRCLE
  5
4EDB
  8
0
 10
49.999999999999943
 20
234.99997813099219
 30
0.0
 40
20.0
  0
CIRCLE
  5
4EDC
  8
0
 10
49.999999999999943
 20
234.99997813099219
 30
0.0
 40
30.0
  0
LINE
  5
4EDD
  8
0
 10
39.99999999999995
 20
177.4999781309921
 30
0.0
 11
60.000000000000057
 21
177.4999781309921
 31
0.0
  0
LINE
  5
4EDE
  8
0
 10
57.499999999999943
 20
179.9999781309921
 30
0.0
 11
42.499999999999943
 21
179.9999781309921
 31
0.0
  0
LINE
  5
4EDF
  8
0
 10
42.499999999999943
 20
179.9999781309921
 30
0.0
 11
39.99999999999995
 21
177.4999781309921
 31
0.0
  0
LINE
  5
4EE0
  8
0
 10
60.000000000000057
 20
177.4999781309921
 30
0.0
 11
57.499999999999943
 21
179.9999781309921
 31
0.0
  0
LINE
  5
4EE1
  8
1
 10
14.99999999999994
 20
234.99997813099219
 30
0.0
 11
84.999999999999943
 21
234.99997813099219
 31
0.0
  0
CIRCLE
  5
4EE2
  8
3
 10
49.999999999999943
 20
234.99997813099219
 30
0.0
 40
8.6500000000000021
  0
CIRCLE
  5
4EE4
  8
0
 10
49.999999999999943
 20
234.99997813099219
 30
0.0
 40
10.0
  0
LINE
  5
4EE5
  8
0
 10
41.339745962155632
 20
249.9999781309921
 30
0.0
 11
32.679491924311321
 21
234.99997813099219
 31
0.0
  0
LINE
  5
4EE6
  8
0
 10
32.679491924311321
 20
234.99997813099219
 30
0.0
 11
41.339745962155632
 21
219.9999781309921
 31
0.0
  0
LINE
  5
4EE7
  8
0
 10
41.339745962155632
 20
219.9999781309921
 30
0.0
 11
58.660254037844417
 21
219.9999781309921
 31
0.0
  0
LINE
  5
4EE8
  8
0
 10
58.660254037844417
 20
219.9999781309921
 30
0.0
 11
67.320508075688792
 21
234.99997813099219
 31
0.0
  0
LINE
  5
4EE9
  8
0
 10
67.320508075688792
 20
234.99997813099219
 30
0.0
 11
58.660254037844417
 21
249.9999781309921
 31
0.0
  0
LINE
  5
4EEA
  8
0
 10
58.660254037844417
 20
249.9999781309921
 30
0.0
 11
41.339745962155632
 21
249.9999781309921
 31
0.0
  0
ARC
  5
4F30
  8
0
 10
50.000000000000057
 20
83.256175018544866
 30
0.0
 40
16.25007297514551
 50
237.79593455379
 51
302.20406544621
  0
LINE
  5
4F32
  8
0
 10
67.320508075688849
 20
80.006102043399324
 30
0.0
 11
32.679491924311208
 21
80.006102043399324
 31
0.0
  0
LINE
  5
4F33
  8
0
 10
58.660254037844368
 20
80.006102043399324
 30
0.0
 11
58.660254037844368
 21
69.50608877526787
 31
0.0
  0
LINE
  5
4F34
  8
0
 10
67.320508075688849
 20
69.506115311530891
 30
0.0
 11
67.320508075688849
 21
80.006102043399324
 31
0.0
  0
ARC
  5
4F35
  8
0
 10
62.990373396407279
 20
72.006102043399437
 30
0.0
 40
5.000000000023511
 50
210.00017556250191
 51
330.00017556250202
  0
LINE
  5
4F36
  8
0
 10
41.339745962155632
 20
80.006102043399324
 30
0.0
 11
41.339745962155632
 21
69.50608877526787
 31
0.0
  0
LINE
  5
4F37
  8
0
 10
32.679491924311208
 20
80.006102043399324
 30
0.0
 11
32.679491924311208
 21
69.506115311530777
 31
0.0
  0
ARC
  5
4F38
  8
0
 10
37.009626603592721
 20
72.006102043399437
 30
0.0
 40
5.0000000000235261
 50
209.99982443749809
 51
329.99982443749809
  0
LINE
  5
4F5F
  8
3
 10
41.349999999999973
 20
84.999999999999844
 30
0.0
 11
40.0
 21
82.661731409781865
 31
0.0
  0
LINE
  5
4F60
  8
3
 10
60.0
 20
82.661731409781623
 30
0.0
 11
58.650000000000027
 21
84.999999999999844
 31
0.0
  0
LINE
  5
4FBB
  8
0
 10
67.320508076154681
 20
130.0030400871955
 30
0.0
 11
32.679491923845013
 21
130.00304008719601
 31
0.0
  0
LINE
  5
4FBC
  8
0
 10
64.499999999999844
 20
114.0030400871957
 30
0.0
 11
67.32050807568848
 21
115.631461183946
 31
0.0
  0
ARC
  5
4FBD
  8
0
 10
62.99038105676604
 20
121.95918346706689
 30
0.0
 40
7.6674682452751783
 50
235.6157525319893
 51
295.61575252954628
  0
ARC
  5
4FBE
  8
0
 10
62.99038105676604
 20
121.95918346706689
 30
0.0
 40
7.6674682452751783
 50
304.38424746801252
 51
304.38424746801439
  0
ARC
  5
4FBF
  8
0
 10
49.999999999926423
 20
142.9519692591843
 30
0.0
 40
28.6602540373928
 50
252.41204622587409
 51
287.58795377443329
  0
LINE
  5
4FC0
  8
0
 10
67.320508075688252
 20
115.6314611839461
 30
0.0
 11
67.320508076154681
 21
130.0030400871955
 31
0.0
  0
LINE
  5
4FC1
  8
0
 10
58.660254037943162
 20
130.00304008719559
 30
0.0
 11
58.660254037690123
 21
115.6314611839461
 31
0.0
  0
LINE
  5
4FC2
  8
0
 10
41.339745962056583
 20
130.0030400871959
 30
0.0
 11
41.339745962309593
 21
115.6314611839461
 31
0.0
  0
LINE
  5
4FC3
  8
0
 10
32.679491924311463
 20
115.6314611839461
 30
0.0
 11
32.679491923845013
 21
130.00304008719601
 31
0.0
  0
ARC
  5
4FC4
  8
0
 10
37.009618943233683
 20
121.95918346706689
 30
0.0
 40
7.6674682452751783
 50
235.61575253198561
 51
235.61575253198751
  0
ARC
  5
4FC5
  8
0
 10
37.009618943233683
 20
121.95918346706689
 30
0.0
 40
7.6674682452751783
 50
244.38424747045369
 51
304.3842474680107
  0
LINE
  5
4FC6
  8
0
 10
35.499999999999858
 20
114.0030400871957
 30
0.0
 11
32.679491924311243
 21
115.631461183946
 31
0.0
  0
LINE
  5
4FC7
  8
0
 10
64.499999999999844
 20
114.0030400871955
 30
0.0
 11
35.499999999999183
 21
114.003040087196
 31
0.0
  0
ENDSEC
  0
EOF
