  0
SECTION
  2
HEADER
  9
$ACADVER
  1
AC1009
  9
$INSBASE
 10
0.0
 20
0.0
 30
0.0
  9
$EXTMIN
 10
0.0
 20
-2.960436562073669
 30
0.0
  9
$EXTMAX
 10
156.30000000000001
 20
97.194672090650016
 30
0.0
  9
$LIMMIN
 10
0.0
 20
0.0
  9
$LIMMAX
 10
375.0
 20
270.0
  9
$ORTHOMODE
 70
     1
  9
$REGENMODE
 70
     1
  9
$FILLMODE
 70
     1
  9
$QTEXTMODE
 70
     0
  9
$MIRRTEXT
 70
     0
  9
$DRAGMODE
 70
     2
  9
$LTSCALE
 40
5.0
  9
$OSMODE
 70
    37
  9
$ATTMODE
 70
     1
  9
$TEXTSIZE
 40
0.2
  9
$TRACEWID
 40
0.05
  9
$TEXTSTYLE
  7
STANDARD
  9
$CLAYER
  8
0
  9
$CELTYPE
  6
BYLAYER
  9
$CECOLOR
 62
   256
  9
$DIMSCALE
 40
1.0
  9
$DIMASZ
 40
3.0
  9
$DIMEXO
 40
2.0
  9
$DIMDLI
 40
10.0
  9
$DIMRND
 40
0.0
  9
$DIMDLE
 40
0.0
  9
$DIMEXE
 40
2.0
  9
$DIMTP
 40
0.0
  9
$DIMTM
 40
0.0
  9
$DIMTXT
 40
3.2000000000000002
  9
$DIMCEN
 40
0.09
  9
$DIMTSZ
 40
0.0
  9
$DIMTOL
 70
     0
  9
$DIMLIM
 70
     0
  9
$DIMTIH
 70
     0
  9
$DIMTOH
 70
     0
  9
$DIMSE1
 70
     0
  9
$DIMSE2
 70
     0
  9
$DIMTAD
 70
     1
  9
$DIMZIN
 70
     8
  9
$DIMBLK
  1

  9
$DIMASO
 70
     0
  9
$DIMSHO
 70
     0
  9
$DIMPOST
  1

  9
$DIMAPOST
  1

  9
$DIMALT
 70
     0
  9
$DIMALTD
 70
     2
  9
$DIMALTF
 40
25.399999999999999
  9
$DIMLFAC
 40
1.0
  9
$DIMTOFL
 70
     1
  9
$DIMTVP
 40
1.6000000000000001
  9
$DIMTIX
 70
     0
  9
$DIMSOXD
 70
     0
  9
$DIMSAH
 70
     0
  9
$DIMBLK1
  1

  9
$DIMBLK2
  1

  9
$DIMSTYLE
  2
STANDARD
  9
$DIMCLRD
 70
     0
  9
$DIMCLRE
 70
     0
  9
$DIMCLRT
 70
     0
  9
$DIMTFAC
 40
1.0
  9
$DIMGAP
 40
0.09
  9
$LUNITS
 70
     2
  9
$LUPREC
 70
     1
  9
$SKETCHINC
 40
0.1
  9
$FILLETRAD
 40
0.0
  9
$AUNITS
 70
     0
  9
$AUPREC
 70
     0
  9
$MENU
  1
E:\r13\win\SUPPORT\ACAD
  9
$ELEVATION
 40
0.0
  9
$PELEVATION
 40
0.0
  9
$THICKNESS
 40
0.0
  9
$LIMCHECK
 70
     0
  9
$BLIPMODE
 70
     0
  9
$CHAMFERA
 40
0.0
  9
$CHAMFERB
 40
0.0
  9
$SKPOLY
 70
     0
  9
$TDCREATE
 40
2449840.6171180559
  9
$TDUPDATE
 40
2459242.441217327
  9
$TDINDWG
 40
0.1705083218
  9
$TDUSRTIMER
 40
0.1705083218
  9
$USRTIMER
 70
     1
  9
$ANGBASE
 50
0.0
  9
$ANGDIR
 70
     0
  9
$PDMODE
 70
     0
  9
$PDSIZE
 40
0.0
  9
$PLINEWID
 40
0.0
  9
$COORDS
 70
     1
  9
$SPLFRAME
 70
     0
  9
$SPLINETYPE
 70
     6
  9
$SPLINESEGS
 70
     8
  9
$ATTDIA
 70
     0
  9
$ATTREQ
 70
     1
  9
$HANDLING
 70
     1
  9
$HANDSEED
  5
1CE1
  9
$SURFTAB1
 70
     6
  9
$SURFTAB2
 70
     6
  9
$SURFTYPE
 70
     6
  9
$SURFU
 70
     6
  9
$SURFV
 70
     6
  9
$UCSNAME
  2

  9
$UCSORG
 10
0.0
 20
0.0
 30
0.0
  9
$UCSXDIR
 10
1.0
 20
0.0
 30
0.0
  9
$UCSYDIR
 10
0.0
 20
1.0
 30
0.0
  9
$PUCSNAME
  2

  9
$PUCSORG
 10
0.0
 20
0.0
 30
0.0
  9
$PUCSXDIR
 10
1.0
 20
0.0
 30
0.0
  9
$PUCSYDIR
 10
0.0
 20
1.0
 30
0.0
  9
$USERI1
 70
     0
  9
$USERI2
 70
     1
  9
$USERI3
 70
     0
  9
$USERI4
 70
     0
  9
$USERI5
 70
     0
  9
$USERR1
 40
0.0
  9
$USERR2
 40
0.0
  9
$USERR3
 40
0.0
  9
$USERR4
 40
0.0
  9
$USERR5
 40
0.0
  9
$WORLDVIEW
 70
     1
  9
$SHADEDGE
 70
     3
  9
$SHADEDIF
 70
    70
  9
$TILEMODE
 70
     1
  9
$MAXACTVP
 70
    16
  9
$PLIMCHECK
 70
     0
  9
$PEXTMIN
 10
1.0000000000000000E+020
 20
1.0000000000000000E+020
 30
1.0000000000000000E+020
  9
$PEXTMAX
 10
-1.0000000000000000E+020
 20
-1.0000000000000000E+020
 30
-1.0000000000000000E+020
  9
$PLIMMIN
 10
0.0
 20
0.0
  9
$PLIMMAX
 10
12.0
 20
9.0
  9
$UNITMODE
 70
     0
  9
$VISRETAIN
 70
     0
  9
$PLINEGEN
 70
     0
  9
$PSLTSCALE
 70
     0
  0
ENDSEC
  0
SECTION
  2
TABLES
  0
TABLE
  2
VPORT
 70
     1
  0
VPORT
  2
*ACTIVE
 70
     0
 10
0.0
 20
0.0
 11
1.0
 21
1.0
 12
264.70588235294122
 22
100.0
 13
0.0
 23
0.0
 14
10.0
 24
10.0
 15
10.0
 25
10.0
 16
0.0
 26
0.0
 36
1.0
 17
0.0
 27
0.0
 37
0.0
 40
200.0
 41
2.6470588235294108
 42
50.0
 43
0.0
 44
0.0
 50
0.0
 51
0.0
 71
     0
 72
   100
 73
     1
 74
     0
 75
     0
 76
     0
 77
     0
 78
     0
  0
ENDTAB
  0
TABLE
  2
LTYPE
 70
     4
  0
LTYPE
  2
CONTINUOUS
 70
     0
  3
Solid Line
 72
    65
 73
     0
 40
0.0
  0
LTYPE
  2
CENTER
 70
     0
  3
____ _ ____ _ ____ _ ____ _ ____ _ ____ _ ____
 72
    65
 73
     4
 40
2.0
 49
1.25
 49
-0.25
 49
0.25
 49
-0.25
  0
LTYPE
  2
HIDDEN
 70
     0
  3
Hidden __ __ __ __ __ __ __ __ __ __ __ __ __ _
 72
    65
 73
     2
 40
0.375
 49
0.25
 49
-0.125
  0
LTYPE
  2
PHANTOM2
 70
     0
  3
___ _ _ ___ _ _ ___ _ _ ___ _ _
 72
    65
 73
     6
 40
1.25
 49
0.625
 49
-0.125
 49
0.125
 49
-0.125
 49
0.125
 49
-0.125
  0
ENDTAB
  0
TABLE
  2
LAYER
 70
     4
  0
LAYER
  2
0
 70
     0
 62
     7
  6
CONTINUOUS
  0
LAYER
  2
1
 70
     0
 62
     1
  6
CENTER
  0
LAYER
  2
3
 70
     0
 62
     3
  6
CONTINUOUS
  0
LAYER
  2
2
 70
     0
 62
     2
  6
HIDDEN
  0
ENDTAB
  0
TABLE
  2
STYLE
 70
     2
  0
STYLE
  2
STANDARD
 70
     0
 40
0.0
 41
1.0
 50
0.0
 71
     0
 42
0.2
  3
TXT
  4
BIGFONT
  0
STYLE
  2
STANDARD1
 70
     0
 40
0.0
 41
1.0
 50
0.0
 71
     0
 42
3.0
  3
txt
  4

  0
ENDTAB
  0
TABLE
  2
VIEW
 70
     1
  0
VIEW
  2
ALL
 70
     0
 40
270.0
 10
220.99159700000001
 20
135.0
 41
0.0
 11
0.0
 21
0.0
 31
1.0
 12
0.0
 22
0.0
 32
0.0
 42
0.0
 43
0.0
 44
0.0
 50
0.0
 71
     0
  0
ENDTAB
  0
TABLE
  2
UCS
 70
     0
  0
ENDTAB
  0
TABLE
  2
APPID
 70
     6
  0
APPID
  2
ACAD
 70
     0
  0
APPID
  2
ACAD_EXEMPT_FROM_CAD_STANDARDS
 70
     0
  0
APPID
  2
ACAD_MLEADERVER
 70
     0
  0
APPID
  2
ACAD_NAV_VCDISPLAY
 70
     0
  0
APPID
  2
ACAD_DSTYLE_DIMJAG
 70
     0
  0
APPID
  2
ACAD_DSTYLE_DIMTALN
 70
     0
  0
ENDTAB
  0
TABLE
  2
DIMSTYLE
 70
     1
  0
DIMSTYLE
  2
STANDARD
 70
     0
  3

  4

  5

  6

  7

 40
1.0
 41
0.18
 42
0.0625
 43
0.38
 44
0.18
 45
0.0
 46
0.0
 47
0.0
 48
0.0
140
0.18
141
0.09
142
0.0
143
25.399999999999999
144
1.0
145
0.0
146
1.0
147
0.09
 71
     0
 72
     0
 73
     1
 74
     1
 75
     0
 76
     0
 77
     0
 78
     0
170
     0
171
     2
172
     0
173
     0
174
     0
175
     0
176
     0
177
     0
178
     0
  0
ENDTAB
  0
ENDSEC
  0
SECTION
  2
BLOCKS
  0
BLOCK
  8
0
  2
$MODEL_SPACE
 70
     0
 10
0.0
 20
0.0
 30
0.0
  3
$MODEL_SPACE
  1

  0
ENDBLK
  5
E8
  8
0
  0
BLOCK
 67
     1
  8
0
  2
$PAPER_SPACE
 70
     0
 10
0.0
 20
0.0
 30
0.0
  3
$PAPER_SPACE
  1

  0
ENDBLK
  5
E6
 67
     1
  8
0
  0
ENDSEC
  0
SECTION
  2
ENTITIES
  0
TEXT
  5
E87
  8
0
 62
     3
 10
0.0
 20
0.0
 30
0.0
 40
10.0
  1
KCL05A-SUS
  7
STANDARD1
  0
LINE
  5
1569
  8
0
 10
107.69467209059999
 20
39.005235721999988
 30
0.0
 11
107.66858088310001
 21
40.499999999999993
 31
0.0
  0
LINE
  5
156A
  8
0
 10
92.331419116900008
 20
40.499999999999993
 30
0.0
 11
92.305327909300019
 21
39.005235721999988
 31
0.0
  0
ARC
  5
156B
  8
0
 10
107.3947177821
 20
39.0
 30
0.0
 40
0.3000000000000267
 50
270.0
 51
1.000000000000147
  0
ARC
  5
156C
  8
0
 10
92.605282217900026
 20
39.0
 30
0.0
 40
0.2999999999999983
 50
178.9999999999998
 51
270.0
  0
ARC
  5
156D
  8
0
 10
106.09999999999999
 20
36.899999999999999
 30
0.0
 40
1.400000000000005
 50
270.0
 51
0.0
  0
ARC
  5
156E
  8
0
 10
93.900000000000006
 20
36.899999999999999
 30
0.0
 40
1.400000000000005
 50
180.0
 51
270.0
  0
LINE
  5
156F
  8
0
 10
92.500000000000014
 20
38.719080697363012
 30
0.0
 11
92.5
 21
36.899999999999999
 31
0.0
  0
LINE
  5
1570
  8
0
 10
107.5
 20
36.899999999999999
 30
0.0
 11
107.5
 21
38.719080697362962
 31
0.0
  0
LINE
  5
1571
  8
0
 10
95.696222589398914
 20
40.499999999999993
 30
0.0
 11
92.331419116900008
 21
40.499999999999993
 31
0.0
  0
LINE
  5
1573
  8
0
 10
107.66858088310001
 20
40.499999999999993
 30
0.0
 11
104.3127709524091
 21
40.499999999999993
 31
0.0
  0
LINE
  5
1574
  8
0
 10
92.605282217900026
 20
38.700000000000003
 30
0.0
 11
107.3947177821
 21
38.700000000000003
 31
0.0
  0
LINE
  5
1575
  8
0
 10
93.900000000000006
 20
35.499999999999993
 30
0.0
 11
106.09999999999999
 21
35.499999999999993
 31
0.0
  0
CIRCLE
  5
1579
  8
0
 10
100.0
 20
46.699999999999989
 30
0.0
 40
4.0
  0
POLYLINE
  5
157C
  8
0
 66
     1
 10
0.0
 20
0.0
 30
0.0
 70
   128
  0
VERTEX
  5
1C64
  8
0
 10
143.40000000000001
 20
51.44934679
 30
0.0
  0
VERTEX
  5
1C65
  8
0
 10
141.609439415
 20
51.718274597799983
 30
0.0
  0
VERTEX
  5
1C66
  8
0
 10
139.80000000000001
 20
51.937724660799987
 30
0.0
  0
SEQEND
  5
1C67
  8
0
  0
POLYLINE
  5
157D
  8
0
 66
     1
 10
0.0
 20
0.0
 30
0.0
 70
   128
  0
VERTEX
  5
1C68
  8
0
 10
139.80000000000001
 20
47.988149627199981
 30
0.0
  0
VERTEX
  5
1C69
  8
0
 10
141.60471167310001
 20
47.749374885999998
 30
0.0
  0
VERTEX
  5
1C6A
  8
0
 10
143.40000000000001
 20
47.45620157459998
 30
0.0
  0
SEQEND
  5
1C6B
  8
0
  0
LINE
  5
1580
  8
0
 10
134.8304719704
 20
52.273817866099982
 30
0.0
 11
135.60111475740001
 21
52.247120357599997
 31
0.0
  0
LINE
  5
1581
  8
0
 10
134.8304719704
 20
48.360717604999998
 30
0.0
 11
135.60111475740001
 21
48.330094077999981
 31
0.0
  0
ARC
  5
1582
  8
0
 10
133.0
 20
-11.700000000000021
 30
0.0
 40
63.999999999999908
 50
83.900810818499906
 51
87.670719420899886
  0
ARC
  5
1583
  8
0
 10
132.83346430500001
 20
-11.6060395225
 30
0.0
 40
60.0
 50
83.332409544400136
 51
87.356150358799624
  0
LINE
  5
1584
  8
0
 10
125.0
 20
47.847198565599982
 30
0.0
 11
126.5
 21
48.058751015099993
 31
0.0
  0
LINE
  5
1586
  8
0
 10
125.0
 20
51.826836974699987
 30
0.0
 11
126.5
 21
51.969066272399992
 31
0.0
  0
ARC
  5
1587
  8
0
 10
133.0
 20
-11.700000000000021
 30
0.0
 40
64.000000000003979
 50
88.361052773098777
 51
95.829153279898776
  0
ARC
  5
1588
  8
0
 10
132.83346430500001
 20
-11.6060395225
 30
0.0
 40
59.999999999996128
 50
88.092645883799307
 51
96.059301198499867
  0
LINE
  5
158A
  8
0
 10
148.69999999999999
 20
50.336137808599972
 30
0.0
 11
148.0
 21
50.51736092119998
 31
0.0
  0
ARC
  5
158B
  8
0
 10
133.0
 20
-11.700000000000021
 30
0.0
 40
63.999999999999027
 50
76.445215962799281
 51
80.647964942400904
  0
ARC
  5
158C
  8
0
 10
132.8291572613
 20
-11.6250916718
 30
0.0
 40
60.019512892665041
 50
74.667029803299442
 51
79.855958332001023
  0
POLYLINE
  5
158E
  8
0
 66
     1
 10
0.0
 20
0.0
 30
0.0
 70
   128
  0
VERTEX
  5
1C6C
  8
0
 10
118.0
 20
50.235670614399979
 30
0.0
  0
VERTEX
  5
1C6D
  8
0
 10
119.8597344082
 20
50.617121187499997
 30
0.0
  0
VERTEX
  5
1C6E
  8
0
 10
121.7
 20
51.100000000000001
 30
0.0
  0
SEQEND
  5
1C6F
  8
0
  0
POLYLINE
  5
158F
  8
0
 66
     1
 10
0.0
 20
0.0
 30
0.0
 70
   128
  0
VERTEX
  5
1C70
  8
0
 10
122.59999999999999
 20
47.303030104299999
 30
0.0
  0
VERTEX
  5
1C71
  8
0
 10
120.3234665789
 20
46.685893719199981
 30
0.0
  0
VERTEX
  5
1C72
  8
0
 10
118.0
 20
46.135366998999991
 30
0.0
  0
SEQEND
  5
1C73
  8
0
  0
POLYLINE
  5
1590
  8
0
 66
     1
 10
0.0
 20
0.0
 30
0.0
 70
   128
  0
VERTEX
  5
1C74
  8
0
 10
122.59999999999999
 20
47.303030104299999
 30
0.0
  0
VERTEX
  5
1C75
  8
0
 10
123.79467388640001
 20
47.606271011099977
 30
0.0
  0
VERTEX
  5
1C76
  8
0
 10
125.0
 20
47.847198565599982
 30
0.0
  0
SEQEND
  5
1C77
  8
0
  0
POLYLINE
  5
1591
  8
0
 66
     1
 10
0.0
 20
0.0
 30
0.0
 70
   128
  0
VERTEX
  5
1C78
  8
0
 10
121.7
 20
51.100000000000001
 30
0.0
  0
VERTEX
  5
1C79
  8
0
 10
123.33488963000001
 20
51.533296038999978
 30
0.0
  0
VERTEX
  5
1C7A
  8
0
 10
125.0
 20
51.826836974699987
 30
0.0
  0
SEQEND
  5
1C7B
  8
0
  0
LINE
  5
1592
  8
0
 10
151.878717545
 20
46.709121052199983
 30
0.0
 11
152.17871754500001
 21
47.409121052199978
 31
0.0
  0
ARC
  5
1593
  8
0
 10
150.5
 20
47.29999999999999
 30
0.0
 40
1.500000000000081
 50
250.5287793655001
 51
336.80140948640019
  0
ARC
  5
1594
  8
0
 10
150.80000000000001
 20
47.999999999999993
 30
0.0
 40
1.4999999999998039
 50
336.80140948629952
 51
69.999999999999915
  0
ARC
  5
1595
  8
0
 10
143.33827245149999
 20
31.068240214499991
 30
0.0
 40
20.000000000001769
 50
66.500698545499858
 51
74.44957316430019
  0
POLYLINE
  5
1596
  8
0
 66
     1
 10
0.0
 20
0.0
 30
0.0
 70
   128
  0
VERTEX
  5
1C7C
  8
0
 10
148.69999999999999
 20
46.258051631199983
 30
0.0
  0
VERTEX
  5
1C7D
  8
0
 10
149.37287518080001
 20
46.069326864599972
 30
0.0
  0
VERTEX
  5
1C7E
  8
0
 10
150.0
 20
45.885786437699977
 30
0.0
  0
SEQEND
  5
1C7F
  8
0
  0
ARC
  5
1597
  8
0
 10
100.1890997757
 20
45.906971058399989
 30
0.0
 40
6.7999999999997618
 50
306.14553206849888
 51
317.46776189540083
  0
ARC
  5
1598
  8
0
 10
100.0
 20
45.699999999999989
 30
0.0
 40
6.7499999999999929
 50
59.754660922599783
 51
308.47859514314757
  0
ARC
  5
1599
  8
0
 10
109.9995299596
 20
63.07829596429999
 30
0.0
 40
13.299999999999899
 50
240.2507420025008
 51
266.98506641060078
  0
ARC
  5
159A
  8
0
 10
113.5
 20
34.399999999999999
 30
0.0
 40
10.80000000000001
 50
97.448190560999493
 51
140.22103887099931
  0
ARC
  5
159B
  8
0
 10
119.9399144577
 20
-28.47465418280002
 30
0.0
 40
73.999999998864695
 50
95.614610555699755
 51
96.08160267210063
  0
ARC
  5
159D
  8
0
 10
111.90000000000001
 20
84.699999999999974
 30
0.0
 40
34.999999999999893
 50
265.73981774120028
 51
280.037093783101
  0
ARC
  5
159E
  8
0
 10
102.1026334997
 20
118.4075866851
 30
0.0
 40
73.999999999995595
 50
278.2335022290996
 51
282.40551155980012
  0
LINE
  5
159F
  8
3
 10
92.305327909300019
 20
39.005235721999988
 30
0.0
 11
99.138239440438966
 21
39.005235721999988
 31
0.0
  0
LINE
  5
15A0
  8
3
 10
107.5
 20
36.899999999999999
 30
0.0
 11
92.5
 21
36.899999999999999
 31
0.0
  0
ARC
  5
15A1
  8
0
 10
57.394717782099967
 20
39.0
 30
0.0
 40
0.3000000000000128
 50
270.0
 51
1.000000000000147
  0
ARC
  5
15A2
  8
0
 10
42.60528221789999
 20
39.0
 30
0.0
 40
0.2999999999999983
 50
178.9999999999998
 51
270.0
  0
LINE
  5
15A3
  8
0
 10
57.694672090600001
 20
39.005235722000002
 30
0.0
 11
57.691015926199981
 21
39.214697241700009
 31
0.0
  0
LINE
  5
15A4
  8
0
 10
42.308984073799962
 20
39.214697241700009
 30
0.0
 11
42.30532790929999
 21
39.005235722000002
 31
0.0
  0
ARC
  5
15A5
  8
0
 10
56.099999999999987
 20
36.900000000000013
 30
0.0
 40
1.400000000000005
 50
270.0
 51
0.0
  0
ARC
  5
15A6
  8
0
 10
43.899999999999999
 20
36.900000000000013
 30
0.0
 40
1.400000000000005
 50
180.0
 51
270.0
  0
LINE
  5
15A7
  8
0
 10
42.499999999999972
 20
38.719080697363012
 30
0.0
 11
42.499999999999972
 21
36.900000000000013
 31
0.0
  0
LINE
  5
15A8
  8
0
 10
57.499999999999972
 20
36.900000000000013
 30
0.0
 11
57.499999999999972
 21
38.71908069736299
 31
0.0
  0
LINE
  5
15A9
  8
0
 10
47.999999999999957
 20
50.700000000000003
 30
0.0
 11
47.299999999999983
 21
50.700000000000003
 31
0.0
  0
LINE
  5
15AA
  8
0
 10
52.699999999999989
 20
50.700000000000003
 30
0.0
 11
51.999998944036889
 21
50.700000000000003
 31
0.0
  0
LINE
  5
15AB
  8
0
 10
51.999999999999993
 20
42.700000000000003
 30
0.0
 11
52.699999999999989
 21
42.700000000000003
 31
0.0
  0
LINE
  5
15AC
  8
0
 10
47.299999999999983
 20
42.700000000000003
 30
0.0
 11
47.999520156434308
 21
42.700000000000003
 31
0.0
  0
LINE
  5
15AD
  8
0
 10
47.299999999999983
 20
52.450000000000003
 30
0.0
 11
43.499999999999957
 21
52.450000000000003
 31
0.0
  0
LINE
  5
15AE
  8
0
 10
56.499999999999972
 20
52.450000000000003
 30
0.0
 11
52.699999999999989
 21
52.450000000000003
 31
0.0
  0
LINE
  5
15B1
  8
0
 10
58.999999999999957
 20
52.299999999999997
 30
0.0
 11
56.499999999999972
 21
52.299999999999997
 31
0.0
  0
LINE
  5
15B2
  8
0
 10
52.699999999999989
 20
52.299999999999997
 30
0.0
 11
47.299999999999983
 21
52.299999999999997
 31
0.0
  0
LINE
  5
15B3
  8
0
 10
43.499999999999957
 20
52.299999999999997
 30
0.0
 11
40.999999999999957
 21
52.29999999999999
 31
0.0
  0
LINE
  5
15B4
  8
0
 10
42.60528221789999
 20
38.700000000000003
 30
0.0
 11
57.394717782099967
 21
38.700000000000003
 31
0.0
  0
LINE
  5
15B5
  8
0
 10
56.40290033979997
 20
40.499999999999993
 30
0.0
 11
43.597099660199973
 21
40.499999999999993
 31
0.0
  0
POLYLINE
  5
15B6
  8
0
 66
     1
 10
0.0
 20
0.0
 30
0.0
 70
   128
  0
VERTEX
  5
1C80
  8
0
 10
57.691015926199981
 20
39.214697241700009
 30
0.0
  0
VERTEX
  5
1C81
  8
0
 10
57.54096370489998
 20
39.351454532699989
 30
0.0
  0
VERTEX
  5
1C82
  8
0
 10
57.319709828299978
 20
39.574483379900002
 30
0.0
  0
VERTEX
  5
1C83
  8
0
 10
57.00640405699999
 20
39.890500600299987
 30
0.0
  0
VERTEX
  5
1C84
  8
0
 10
56.723699544099979
 20
40.175875608600002
 30
0.0
  0
VERTEX
  5
1C85
  8
0
 10
56.402900339884013
 20
40.499999999999993
 30
0.0
  0
SEQEND
  5
1C86
  8
0
  0
POLYLINE
  5
15B7
  8
0
 66
     1
 10
0.0
 20
0.0
 30
0.0
 70
   128
  0
VERTEX
  5
1C87
  8
0
 10
43.59709966023658
 20
40.499999999999993
 30
0.0
  0
VERTEX
  5
1C88
  8
0
 10
43.119208841999999
 20
40.017272146099977
 30
0.0
  0
VERTEX
  5
1C89
  8
0
 10
42.725329867899973
 20
39.619898047299998
 30
0.0
  0
VERTEX
  5
1C8A
  8
0
 10
42.455609989099997
 20
39.348001584000002
 30
0.0
  0
VERTEX
  5
1C8B
  8
0
 10
42.308984073799962
 20
39.214697241700009
 30
0.0
  0
SEQEND
  5
1C8C
  8
0
  0
LINE
  5
15B8
  8
0
 10
43.899999999999999
 20
35.5
 30
0.0
 11
56.099999999999987
 21
35.5
 31
0.0
  0
ARC
  5
15BA
  8
0
 10
49.99999947201843
 20
56.368532882342592
 30
0.0
 40
6.0110118055343422
 50
250.5658902548968
 51
289.43412041845261
  0
LINE
  5
15C0
  8
0
 10
43.499999999999957
 20
52.450000000000003
 30
0.0
 11
43.499999999999957
 21
40.401917532600017
 31
0.0
  0
LINE
  5
15C1
  8
0
 10
47.299999999999983
 20
40.499999999999993
 30
0.0
 11
47.299999999999983
 21
52.450000000000003
 31
0.0
  0
LINE
  5
15C2
  8
0
 10
56.499999999999972
 20
40.401893870599977
 30
0.0
 11
56.499999999999972
 21
52.450000000000003
 31
0.0
  0
LINE
  5
15C3
  8
0
 10
52.699999999999989
 20
52.450000000000003
 30
0.0
 11
52.699999999999989
 21
40.499999999999993
 31
0.0
  0
POLYLINE
  5
15C7
  8
3
 66
     1
 10
0.0
 20
0.0
 30
0.0
 70
   128
  0
VERTEX
  5
1C8D
  8
3
 10
43.226943418099978
 20
51.100000000000009
 30
0.0
  0
VERTEX
  5
1C8E
  8
3
 10
43.417599828199997
 20
50.61981877689999
 30
0.0
  0
VERTEX
  5
1C8F
  8
3
 10
43.499999999999957
 20
50.235670614399993
 30
0.0
  0
SEQEND
  5
1C90
  8
3
  0
POLYLINE
  5
15CB
  8
3
 66
     1
 10
0.0
 20
0.0
 30
0.0
 70
   128
  0
VERTEX
  5
1C91
  8
3
 10
56.499999999999972
 20
50.235670614399993
 30
0.0
  0
VERTEX
  5
1C92
  8
3
 10
56.581544096099982
 20
50.617121187499997
 30
0.0
  0
VERTEX
  5
1C93
  8
3
 10
56.773056581899993
 20
51.100000000000009
 30
0.0
  0
SEQEND
  5
1C94
  8
3
  0
POLYLINE
  5
15CC
  8
3
 66
     1
 10
0.0
 20
0.0
 30
0.0
 70
   128
  0
VERTEX
  5
1C95
  8
3
 10
42.599999999999987
 20
51.826836974700001
 30
0.0
  0
VERTEX
  5
1C96
  8
3
 10
42.959514413999983
 20
51.536964811600001
 30
0.0
  0
VERTEX
  5
1C97
  8
3
 10
43.226943418099978
 20
51.100000000000009
 30
0.0
  0
SEQEND
  5
1C98
  8
3
  0
POLYLINE
  5
15CD
  8
3
 66
     1
 10
0.0
 20
0.0
 30
0.0
 70
   128
  0
VERTEX
  5
1C99
  8
3
 10
42.599999999999987
 20
47.847198565599989
 30
0.0
  0
VERTEX
  5
1C9A
  8
3
 10
42.872090144499992
 20
47.606271011099977
 30
0.0
  0
VERTEX
  5
1C9B
  8
3
 10
43.09256116949998
 20
47.303030104300007
 30
0.0
  0
SEQEND
  5
1C9C
  8
3
  0
POLYLINE
  5
15CF
  8
3
 66
     1
 10
0.0
 20
0.0
 30
0.0
 70
   128
  0
VERTEX
  5
1C9D
  8
3
 10
43.499999999999957
 20
46.135366998999999
 30
0.0
  0
VERTEX
  5
1C9E
  8
3
 10
43.381905650300013
 20
46.682295739699988
 30
0.0
  0
VERTEX
  5
1C9F
  8
3
 10
43.09256116949998
 20
47.303030104300007
 30
0.0
  0
SEQEND
  5
1CA0
  8
3
  0
POLYLINE
  5
15D0
  8
3
 66
     1
 10
0.0
 20
0.0
 30
0.0
 70
   128
  0
VERTEX
  5
1CA1
  8
3
 10
56.773056581899993
 20
51.100000000000009
 30
0.0
  0
VERTEX
  5
1CA2
  8
3
 10
57.037323044099992
 20
51.533296038999993
 30
0.0
  0
VERTEX
  5
1CA3
  8
3
 10
57.400000000000013
 20
51.826836974700001
 30
0.0
  0
SEQEND
  5
1CA4
  8
3
  0
POLYLINE
  5
15D2
  8
3
 66
     1
 10
0.0
 20
0.0
 30
0.0
 70
   128
  0
VERTEX
  5
1CA5
  8
3
 10
56.907438830399968
 20
47.303030104300007
 30
0.0
  0
VERTEX
  5
1CA6
  8
3
 10
57.127909855399963
 20
47.606271011099977
 30
0.0
  0
VERTEX
  5
1CA7
  8
3
 10
57.400000000000013
 20
47.847198565599989
 30
0.0
  0
SEQEND
  5
1CA8
  8
3
  0
POLYLINE
  5
15D3
  8
3
 66
     1
 10
0.0
 20
0.0
 30
0.0
 70
   128
  0
VERTEX
  5
1CA9
  8
3
 10
56.907438830399968
 20
47.303030104300007
 30
0.0
  0
VERTEX
  5
1CAA
  8
3
 10
56.619353359199998
 20
46.685893719199989
 30
0.0
  0
VERTEX
  5
1CAB
  8
3
 10
56.499999999999972
 20
46.135366998999999
 30
0.0
  0
SEQEND
  5
1CAC
  8
3
  0
LINE
  5
15D4
  8
3
 10
57.400000000000013
 20
51.826836974700001
 30
0.0
 11
57.888498664799982
 21
51.969066272399999
 31
0.0
  0
LINE
  5
15D5
  8
3
 10
42.111501335199989
 20
51.969066272399999
 30
0.0
 11
42.599999999999987
 21
51.826836974700001
 31
0.0
  0
ARC
  5
15D9
  8
3
 10
40.870574692399963
 20
45.803437301700001
 30
0.0
 40
2.5741676088956731
 50
61.179374888900419
 51
87.118038568889176
  0
ARC
  5
15DA
  8
3
 10
40.666437921899977
 20
49.011961908299988
 30
0.0
 40
3.2913028558830062
 50
63.956389558200172
 51
84.183285865859361
  0
LINE
  5
15DB
  8
3
 10
42.111501335199989
 20
48.0587510151
 30
0.0
 11
42.599999999999987
 21
47.847198565599989
 31
0.0
  0
ARC
  5
15DC
  8
3
 10
59.152922613299978
 20
45.719515135199977
 30
0.0
 40
2.6590961667050981
 50
93.29685602458045
 51
118.39249098159971
  0
ARC
  5
15DD
  8
3
 10
59.304908935499981
 20
49.113466930800001
 30
0.0
 40
3.1875799056752059
 50
95.489037927313206
 51
116.38194283360041
  0
LINE
  5
15DE
  8
3
 10
57.400000000000013
 20
47.847198565599989
 30
0.0
 11
57.888498664799982
 21
48.0587510151
 31
0.0
  0
POLYLINE
  5
15E1
  8
0
 66
     1
 10
0.0
 20
0.0
 30
0.0
 70
   128
  0
VERTEX
  5
1CAD
  8
0
 10
58.999999999999972
 20
47.988149627199981
 30
0.0
  0
VERTEX
  5
1CAE
  8
0
 10
58.891601776199963
 20
47.749374886000012
 30
0.0
  0
VERTEX
  5
1CAF
  8
0
 10
58.699999999999989
 20
47.45620157459998
 30
0.0
  0
SEQEND
  5
1CB0
  8
0
  0
ARC
  5
15E2
  8
0
 10
56.262685692699989
 20
49.166658701499998
 30
0.0
 40
2.9776105547210401
 50
282.35894725620051
 51
324.93961031469939
  0
LINE
  5
15E3
  8
0
 10
56.900000000000013
 20
46.25805163119999
 30
0.0
 11
56.499999999999972
 21
46.0936202209
 31
0.0
  0
LINE
  5
15E4
  8
0
 10
43.499999999999957
 20
46.093801116199977
 30
0.0
 11
43.099999999999987
 21
46.25805163119999
 31
0.0
  0
ARC
  5
15E5
  8
0
 10
43.87562767770001
 20
49.374449110400001
 30
0.0
 40
3.2114687516252931
 50
216.67759679080021
 51
256.02384563829941
  0
POLYLINE
  5
15E6
  8
0
 66
     1
 10
0.0
 20
0.0
 30
0.0
 70
   128
  0
VERTEX
  5
1CB1
  8
0
 10
41.299999999999983
 20
47.45620157459998
 30
0.0
  0
VERTEX
  5
1CB2
  8
0
 10
41.108846318899992
 20
47.748580998099989
 30
0.0
  0
VERTEX
  5
1CB3
  8
0
 10
40.999999999999957
 20
47.988149627199981
 30
0.0
  0
SEQEND
  5
1CB4
  8
0
  0
LINE
  5
15EB
  8
0
 10
40.999999999999957
 20
52.29999999999999
 30
0.0
 11
40.999999999999957
 21
47.988149627199981
 31
0.0
  0
LINE
  5
15EC
  8
0
 10
58.999999999999972
 20
52.29999999999999
 30
0.0
 11
58.999999999999972
 21
47.988149627199981
 31
0.0
  0
LINE
  5
15ED
  8
3
 10
42.30532790929999
 20
39.005235722000002
 30
0.0
 11
57.694672090600001
 21
39.005235722000002
 31
0.0
  0
LINE
  5
15EE
  8
3
 10
57.499999999999972
 20
36.900000000000013
 30
0.0
 11
42.499999999999972
 21
36.900000000000013
 31
0.0
  0
LINE
  5
15F3
  8
0
 10
104.0
 20
82.800000000000011
 30
0.0
 11
104.0
 21
88.200000000000017
 31
0.0
  0
LINE
  5
15F4
  8
0
 10
96.0
 20
88.200000000000017
 30
0.0
 11
96.0
 21
82.800000000000011
 31
0.0
  0
LINE
  5
15F5
  8
0
 10
93.250000000000014
 20
92.0
 30
0.0
 11
93.250000000000014
 21
88.200000000000017
 31
0.0
  0
LINE
  5
15F6
  8
0
 10
93.250000000000014
 20
82.800000000000011
 30
0.0
 11
93.250000000000014
 21
79.0
 31
0.0
  0
LINE
  5
15F7
  8
0
 10
152.30000000000001
 20
84.531306879499994
 30
0.0
 11
152.30000000000001
 21
86.468693120499978
 31
0.0
  0
LINE
  5
15FF
  8
0
 10
118.0
 20
92.0
 30
0.0
 11
93.250000000000014
 21
92.0
 31
0.0
  0
LINE
  5
1601
  8
0
 10
93.250000000000014
 20
88.200000000000017
 30
0.0
 11
103.40000000000001
 21
88.200000000000017
 31
0.0
  0
LINE
  5
1602
  8
0
 10
93.250000000000014
 20
79.0
 30
0.0
 11
118.0
 21
79.0
 31
0.0
  0
LINE
  5
1603
  8
0
 10
103.40000000000001
 20
82.800000000000011
 30
0.0
 11
93.250000000000014
 21
82.800000000000011
 31
0.0
  0
ARC
  5
1605
  8
0
 10
142.96268309140001
 20
84.209566880200015
 30
0.0
 40
10.00000000000019
 50
59.752804683600573
 51
87.493559337800193
  0
ARC
  5
1607
  8
0
 10
142.96268309140001
 20
86.790433119800014
 30
0.0
 40
9.999999999999682
 50
272.50644066219979
 51
300.24719531639943
  0
POLYLINE
  5
1608
  8
0
 66
     1
 10
0.0
 20
0.0
 30
0.0
 70
   128
  0
VERTEX
  5
1CB5
  8
0
 10
143.40000000000001
 20
76.800000000000011
 30
0.0
  0
VERTEX
  5
1CB6
  8
0
 10
141.609439415
 20
76.608792643200005
 30
0.0
  0
VERTEX
  5
1CB7
  8
0
 10
139.80000000000001
 20
76.5
 30
0.0
  0
SEQEND
  5
1CB8
  8
0
  0
LINE
  5
1609
  8
0
 10
139.80000000000001
 20
76.5
 30
0.0
 11
135.60111475740001
 21
76.5
 31
0.0
  0
LINE
  5
160A
  8
0
 10
134.8304719704
 20
76.527372886900025
 30
0.0
 11
135.60111475740001
 21
76.5
 31
0.0
  0
ARC
  5
160B
  8
0
 10
134.10721346540001
 20
103.51768405839999
 30
0.0
 40
26.99999999999957
 50
253.63540282379921
 51
271.5349858279003
  0
ARC
  5
160D
  8
0
 10
134.10721346540001
 20
67.482315941600007
 30
0.0
 40
27.000000000000291
 50
88.465014172099686
 51
106.3645971762008
  0
LINE
  5
160E
  8
0
 10
134.8304719704
 20
94.472627113100032
 30
0.0
 11
135.60111475740001
 21
94.500000000000014
 31
0.0
  0
LINE
  5
160F
  8
0
 10
139.80000000000001
 20
94.500000000000014
 30
0.0
 11
135.60111475740001
 21
94.500000000000014
 31
0.0
  0
POLYLINE
  5
1610
  8
0
 66
     1
 10
0.0
 20
0.0
 30
0.0
 70
   128
  0
VERTEX
  5
1CB9
  8
0
 10
139.80000000000001
 20
94.500000000000014
 30
0.0
  0
VERTEX
  5
1CBA
  8
0
 10
141.60425219140001
 20
94.391640078400002
 30
0.0
  0
VERTEX
  5
1CBB
  8
0
 10
143.40000000000001
 20
94.200000000000017
 30
0.0
  0
SEQEND
  5
1CBC
  8
0
  0
POLYLINE
  5
1611
  8
0
 66
     1
 10
0.0
 20
0.0
 30
0.0
 70
   128
  0
VERTEX
  5
1CBD
  8
0
 10
121.7
 20
78.726943418100035
 30
0.0
  0
VERTEX
  5
1CBE
  8
0
 10
123.33488963000001
 20
78.462676955899994
 30
0.0
  0
VERTEX
  5
1CBF
  8
0
 10
125.0
 20
78.100000000000023
 30
0.0
  0
SEQEND
  5
1CC0
  8
0
  0
POLYLINE
  5
1613
  8
0
 66
     1
 10
0.0
 20
0.0
 30
0.0
 70
   128
  0
VERTEX
  5
1CC1
  8
0
 10
125.0
 20
92.900000000000006
 30
0.0
  0
VERTEX
  5
1CC2
  8
0
 10
123.3515817016
 20
92.540485586000017
 30
0.0
  0
VERTEX
  5
1CC3
  8
0
 10
121.7
 20
92.273056581900036
 30
0.0
  0
SEQEND
  5
1CC4
  8
0
  0
LINE
  5
1614
  8
0
 10
125.0
 20
78.100000000000023
 30
0.0
 11
126.5
 21
77.611501335200003
 31
0.0
  0
LINE
  5
1615
  8
0
 10
126.5
 20
93.388498664800025
 30
0.0
 11
125.0
 21
92.900000000000006
 31
0.0
  0
ARC
  5
1617
  8
0
 10
106.0
 20
83.0
 30
0.0
 40
0.1999999999999602
 50
270.0
 51
0.0
  0
LINE
  5
1618
  8
0
 10
106.2
 20
83.0
 30
0.0
 11
106.2
 21
88.000000003000025
 31
0.0
  0
ARC
  5
1619
  8
0
 10
106.0
 20
88.0
 30
0.0
 40
0.2000000000003013
 50
0.0000008538998507
 51
89.999999999899032
  0
LINE
  5
161B
  8
0
 10
103.40000000000001
 20
82.800000000000011
 30
0.0
 11
106.0
 21
82.800000000000011
 31
0.0
  0
LINE
  5
161C
  8
0
 10
106.0
 20
88.200000000000017
 30
0.0
 11
103.40000000000001
 21
88.200000000000017
 31
0.0
  0
POLYLINE
  5
161E
  8
0
 66
     1
 10
0.0
 20
0.0
 30
0.0
 70
   128
  0
VERTEX
  5
1CC5
  8
0
 10
118.0
 20
79.0
 30
0.0
  0
VERTEX
  5
1CC6
  8
0
 10
119.8597344082
 20
78.918455903900025
 30
0.0
  0
VERTEX
  5
1CC7
  8
0
 10
121.7
 20
78.726943418100035
 30
0.0
  0
SEQEND
  5
1CC8
  8
0
  0
POLYLINE
  5
161F
  8
0
 66
     1
 10
0.0
 20
0.0
 30
0.0
 70
   128
  0
VERTEX
  5
1CC9
  8
0
 10
121.7
 20
92.273056581900036
 30
0.0
  0
VERTEX
  5
1CCA
  8
0
 10
119.8712764221
 20
92.082400171800003
 30
0.0
  0
VERTEX
  5
1CCB
  8
0
 10
118.0
 20
92.0
 30
0.0
  0
SEQEND
  5
1CCC
  8
0
  0
ARC
  5
1622
  8
0
 10
144.81564966049999
 20
85.984251996800026
 30
0.0
 40
7.4999999999997424
 50
29.966521924200471
 51
58.807611145999459
  0
ARC
  5
1624
  8
0
 10
144.81564966049999
 20
85.015748003200031
 30
0.0
 40
7.5000000000002878
 50
301.19238885400051
 51
330.03347807579951
  0
LINE
  5
1625
  8
0
 10
148.69999999999999
 20
78.600000000000023
 30
0.0
 11
148.0
 21
78.151831475900025
 31
0.0
  0
LINE
  5
1626
  8
0
 10
148.69999999999999
 20
92.400000000000006
 30
0.0
 11
148.0
 21
92.848168524100032
 31
0.0
  0
POLYLINE
  5
1628
  8
0
 66
     1
 10
0.0
 20
0.0
 30
0.0
 70
   128
  0
VERTEX
  5
1CCD
  8
0
 10
152.30000000000001
 20
84.531306879499994
 30
0.0
  0
VERTEX
  5
1CCE
  8
0
 10
152.2994908206
 20
84.523689581100029
 30
0.0
  0
VERTEX
  5
1CCF
  8
0
 10
152.29763360909999
 20
84.496213410200028
 30
0.0
  0
VERTEX
  5
1CD0
  8
0
 10
152.28849279409999
 20
84.378083905600022
 30
0.0
  0
VERTEX
  5
1CD1
  8
0
 10
152.2557395199
 20
84.070773947599989
 30
0.0
  0
VERTEX
  5
1CD2
  8
0
 10
152.2081562402
 20
83.750502386600033
 30
0.0
  0
VERTEX
  5
1CD3
  8
0
 10
151.96170973529999
 20
82.740181320800005
 30
0.0
  0
VERTEX
  5
1CD4
  8
0
 10
151.5641817026
 20
81.743544574600008
 30
0.0
  0
VERTEX
  5
1CD5
  8
0
 10
151.313030215
 20
81.269543800199997
 30
0.0
  0
SEQEND
  5
1CD6
  8
0
  0
ARC
  5
1675
  8
0
 10
100.0
 20
85.5
 30
0.0
 40
7.6946720906500161
 50
57.644127263392008
 51
122.35587273660801
  0
ARC
  5
1676
  8
0
 10
100.0
 20
85.5
 30
0.0
 40
7.6946720906500161
 50
151.3100476178216
 51
208.68995238217829
  0
ARC
  5
1677
  8
0
 10
100.0
 20
85.5
 30
0.0
 40
7.6946720906500161
 50
237.64412726339199
 51
302.35587273660798
  0
LINE
  5
167C
  8
3
 10
100.86176055956101
 20
39.005235721999988
 30
0.0
 11
107.69467209059999
 21
39.005235721999988
 31
0.0
  0
LINE
  5
17A8
  8
2
 10
46.899999999999999
 20
35.5
 30
0.0
 11
46.899999999999999
 21
40.499999999999993
 31
0.0
  0
LINE
  5
17A9
  8
2
 10
53.100000000000001
 20
35.5
 30
0.0
 11
53.100000000000001
 21
40.499999999999993
 31
0.0
  0
LINE
  5
17AA
  8
2
 10
96.900000000000006
 20
35.499999999999993
 30
0.0
 11
96.900000000000006
 21
39.703959639895679
 31
0.0
  0
LINE
  5
17AB
  8
2
 10
103.09999999999999
 20
35.499999999999993
 30
0.0
 11
103.09999999999999
 21
39.703959639895679
 31
0.0
  0
LINE
  5
1800
  8
1
 10
100.0
 20
97.194672090650016
 30
0.0
 11
100.0
 21
73.805327909349984
 31
0.0
  0
LINE
  5
1805
  8
1
 10
89.250000000000014
 20
45.699999999999989
 30
0.0
 11
110.75
 21
45.699999999999989
 31
0.0
  0
LINE
  5
1806
  8
1
 10
100.0
 20
56.449999999999989
 30
0.0
 11
100.0
 21
31.499999999999989
 31
0.0
  0
LINE
  5
1808
  8
1
 10
89.250000000000014
 20
46.699999999999989
 30
0.0
 11
110.75
 21
46.699999999999989
 31
0.0
  0
LINE
  5
180D
  8
1
 10
62.999999999999972
 20
46.699999999999989
 30
0.0
 11
36.999999999999972
 21
46.699999999999989
 31
0.0
  0
LINE
  5
180E
  8
1
 10
50.0
 20
31.5
 30
0.0
 11
50.0
 21
56.450000000000003
 31
0.0
  0
ARC
  5
19CB
  8
0
 10
49.99976007821715
 20
37.03006608138881
 30
0.0
 40
6.0124130252429833
 50
70.568171697212904
 51
109.4318283027869
  0
LINE
  5
1AA6
  8
1
 10
88.305327909349984
 20
85.5
 30
0.0
 11
156.30000000000001
 21
85.5
 31
0.0
  0
POLYLINE
  5
1AAA
  8
0
 66
     1
 10
0.0
 20
0.0
 30
0.0
 70
   128
  0
VERTEX
  5
1CD7
  8
0
 10
152.30000000000001
 20
86.468693120499978
 30
0.0
  0
VERTEX
  5
1CD8
  8
0
 10
152.2994908206
 20
86.476310418899971
 30
0.0
  0
VERTEX
  5
1CD9
  8
0
 10
152.29763360909999
 20
86.503786589799972
 30
0.0
  0
VERTEX
  5
1CDA
  8
0
 10
152.28849279409999
 20
86.621916094399978
 30
0.0
  0
VERTEX
  5
1CDB
  8
0
 10
152.2557395199
 20
86.929226052399983
 30
0.0
  0
VERTEX
  5
1CDC
  8
0
 10
152.2081562402
 20
87.249497613399967
 30
0.0
  0
VERTEX
  5
1CDD
  8
0
 10
151.96170973529999
 20
88.259818679199967
 30
0.0
  0
VERTEX
  5
1CDE
  8
0
 10
151.5641817026
 20
89.256455425399992
 30
0.0
  0
VERTEX
  5
1CDF
  8
0
 10
151.313030215
 20
89.730456199799974
 30
0.0
  0
SEQEND
  5
1CE0
  8
0
  0
CIRCLE
  5
1ACC
  8
0
 10
100.0
 20
85.5
 30
0.0
 40
2.0669999999999988
  0
CIRCLE
  5
1ACD
  8
3
 10
100.0
 20
85.5
 30
0.0
 40
2.5
  0
LINE
  5
1AD1
  8
2
 10
52.5
 20
42.700000000000003
 30
0.0
 11
52.5
 21
50.700000000000003
 31
0.0
  0
LINE
  5
1AD2
  8
2
 10
52.067000000000199
 20
42.700000000000003
 30
0.0
 11
52.067000000000213
 21
50.700000000000003
 31
0.0
  0
LINE
  5
1AD3
  8
2
 10
47.932999999999787
 20
42.700000000000003
 30
0.0
 11
47.932999999999787
 21
50.700000000000003
 31
0.0
  0
LINE
  5
1AD4
  8
2
 10
47.5
 20
42.700000000000003
 30
0.0
 11
47.5
 21
50.700000000000003
 31
0.0
  0
ENDSEC
  0
EOF
