  0
SECTION
  2
HEADER
  9
$ACADVER
  1
AC1009
  9
$INSBASE
 10
0.0
 20
0.0
 30
0.0
  9
$EXTMIN
 10
0.0
 20
-2.960436562073669
 30
0.0
  9
$EXTMAX
 10
172.9773084155933134
 20
148.6446720906500047
 30
0.0
  9
$LIMMIN
 10
0.0
 20
0.0
  9
$LIMMAX
 10
375.0
 20
270.0
  9
$ORTHOMODE
 70
     0
  9
$REGENMODE
 70
     1
  9
$FILLMODE
 70
     1
  9
$QTEXTMODE
 70
     0
  9
$MIRRTEXT
 70
     0
  9
$DRAGMODE
 70
     2
  9
$LTSCALE
 40
5.0
  9
$OSMODE
 70
    37
  9
$ATTMODE
 70
     1
  9
$TEXTSIZE
 40
0.2
  9
$TRACEWID
 40
0.05
  9
$TEXTSTYLE
  7
STANDARD
  9
$CLAYER
  8
0
  9
$CELTYPE
  6
BYLAYER
  9
$CECOLOR
 62
   256
  9
$DIMSCALE
 40
1.0
  9
$DIMASZ
 40
3.0
  9
$DIMEXO
 40
2.0
  9
$DIMDLI
 40
10.0
  9
$DIMRND
 40
0.0
  9
$DIMDLE
 40
0.0
  9
$DIMEXE
 40
2.0
  9
$DIMTP
 40
0.0
  9
$DIMTM
 40
0.0
  9
$DIMTXT
 40
3.2000000000000002
  9
$DIMCEN
 40
0.09
  9
$DIMTSZ
 40
0.0
  9
$DIMTOL
 70
     0
  9
$DIMLIM
 70
     0
  9
$DIMTIH
 70
     0
  9
$DIMTOH
 70
     0
  9
$DIMSE1
 70
     0
  9
$DIMSE2
 70
     0
  9
$DIMTAD
 70
     1
  9
$DIMZIN
 70
     8
  9
$DIMBLK
  1

  9
$DIMASO
 70
     0
  9
$DIMSHO
 70
     0
  9
$DIMPOST
  1

  9
$DIMAPOST
  1

  9
$DIMALT
 70
     0
  9
$DIMALTD
 70
     2
  9
$DIMALTF
 40
25.3999999999999986
  9
$DIMLFAC
 40
1.0
  9
$DIMTOFL
 70
     1
  9
$DIMTVP
 40
1.6000000000000001
  9
$DIMTIX
 70
     0
  9
$DIMSOXD
 70
     0
  9
$DIMSAH
 70
     0
  9
$DIMBLK1
  1

  9
$DIMBLK2
  1

  9
$DIMSTYLE
  2
STANDARD
  9
$DIMCLRD
 70
     0
  9
$DIMCLRE
 70
     0
  9
$DIMCLRT
 70
     0
  9
$DIMTFAC
 40
1.0
  9
$DIMGAP
 40
0.09
  9
$LUNITS
 70
     2
  9
$LUPREC
 70
     1
  9
$SKETCHINC
 40
0.1
  9
$FILLETRAD
 40
0.0
  9
$AUNITS
 70
     0
  9
$AUPREC
 70
     0
  9
$MENU
  1
E:\r13\win\SUPPORT\ACAD
  9
$ELEVATION
 40
0.0
  9
$PELEVATION
 40
0.0
  9
$THICKNESS
 40
0.0
  9
$LIMCHECK
 70
     0
  9
$BLIPMODE
 70
     0
  9
$CHAMFERA
 40
0.0
  9
$CHAMFERB
 40
0.0
  9
$SKPOLY
 70
     0
  9
$TDCREATE
 40
2449840.6171180559322238
  9
$TDUPDATE
 40
2460566.5212268522009254
  9
$TDINDWG
 40
0.2539851505
  9
$TDUSRTIMER
 40
0.2539851505
  9
$USRTIMER
 70
     1
  9
$ANGBASE
 50
0.0
  9
$ANGDIR
 70
     0
  9
$PDMODE
 70
     0
  9
$PDSIZE
 40
0.0
  9
$PLINEWID
 40
0.0
  9
$COORDS
 70
     1
  9
$SPLFRAME
 70
     0
  9
$SPLINETYPE
 70
     6
  9
$SPLINESEGS
 70
     8
  9
$ATTDIA
 70
     1
  9
$ATTREQ
 70
     1
  9
$HANDLING
 70
     1
  9
$HANDSEED
  5
3DE5
  9
$SURFTAB1
 70
     6
  9
$SURFTAB2
 70
     6
  9
$SURFTYPE
 70
     6
  9
$SURFU
 70
     6
  9
$SURFV
 70
     6
  9
$UCSNAME
  2

  9
$UCSORG
 10
0.0
 20
0.0
 30
0.0
  9
$UCSXDIR
 10
1.0
 20
0.0
 30
0.0
  9
$UCSYDIR
 10
0.0
 20
1.0
 30
0.0
  9
$PUCSNAME
  2

  9
$PUCSORG
 10
0.0
 20
0.0
 30
0.0
  9
$PUCSXDIR
 10
1.0
 20
0.0
 30
0.0
  9
$PUCSYDIR
 10
0.0
 20
1.0
 30
0.0
  9
$USERI1
 70
     0
  9
$USERI2
 70
     1
  9
$USERI3
 70
     0
  9
$USERI4
 70
     0
  9
$USERI5
 70
     0
  9
$USERR1
 40
0.0
  9
$USERR2
 40
0.0
  9
$USERR3
 40
0.0
  9
$USERR4
 40
0.0
  9
$USERR5
 40
0.0
  9
$WORLDVIEW
 70
     1
  9
$SHADEDGE
 70
     3
  9
$SHADEDIF
 70
    70
  9
$TILEMODE
 70
     1
  9
$MAXACTVP
 70
    16
  9
$PLIMCHECK
 70
     0
  9
$PEXTMIN
 10
1.0000000000000000E+20
 20
1.0000000000000000E+20
 30
1.0000000000000000E+20
  9
$PEXTMAX
 10
-1.0000000000000000E+20
 20
-1.0000000000000000E+20
 30
-1.0000000000000000E+20
  9
$PLIMMIN
 10
0.0
 20
0.0
  9
$PLIMMAX
 10
12.0
 20
9.0
  9
$UNITMODE
 70
     0
  9
$VISRETAIN
 70
     0
  9
$PLINEGEN
 70
     0
  9
$PSLTSCALE
 70
     0
  0
ENDSEC
  0
SECTION
  2
TABLES
  0
TABLE
  2
VPORT
 70
     1
  0
VPORT
  2
*ACTIVE
 70
     0
 10
0.0
 20
0.0
 11
1.0
 21
1.0
 12
119.0160672084783045
 22
76.5348067956593212
 13
0.0
 23
0.0
 14
10.0
 24
10.0
 15
10.0
 25
10.0
 16
0.0
 26
0.0
 36
1.0
 17
0.0
 27
0.0
 37
0.0
 40
160.2926215805154868
 41
2.3485221674876842
 42
50.0
 43
0.0
 44
0.0
 50
0.0
 51
0.0
 71
     0
 72
   100
 73
     1
 74
     0
 75
     0
 76
     0
 77
     0
 78
     0
  0
ENDTAB
  0
TABLE
  2
LTYPE
 70
     4
  0
LTYPE
  2
CONTINUOUS
 70
     0
  3
Solid Line
 72
    65
 73
     0
 40
0.0
  0
LTYPE
  2
CENTER
 70
     0
  3
____ _ ____ _ ____ _ ____ _ ____ _ ____ _ ____
 72
    65
 73
     4
 40
2.0
 49
1.25
 49
-0.25
 49
0.25
 49
-0.25
  0
LTYPE
  2
PHANTOM2
 70
     0
  3
___ _ _ ___ _ _ ___ _ _ ___ _ _
 72
    65
 73
     6
 40
1.25
 49
0.625
 49
-0.125
 49
0.125
 49
-0.125
 49
0.125
 49
-0.125
  0
LTYPE
  2
HIDDEN
 70
     0
  3
Hidden __ __ __ __ __ __ __ __ __ __ __ __ __ _
 72
    65
 73
     2
 40
0.375
 49
0.25
 49
-0.125
  0
ENDTAB
  0
TABLE
  2
LAYER
 70
     5
  0
LAYER
  2
0
 70
     0
 62
     7
  6
CONTINUOUS
  0
LAYER
  2
1
 70
     0
 62
     1
  6
CENTER
  0
LAYER
  2
3
 70
     0
 62
     3
  6
CONTINUOUS
  0
LAYER
  2
DEFPOINTS
 70
     0
 62
     7
  6
CONTINUOUS
  0
LAYER
  2
2
 70
     0
 62
     2
  6
HIDDEN
  0
ENDTAB
  0
TABLE
  2
STYLE
 70
     2
  0
STYLE
  2
STANDARD
 70
     0
 40
0.0
 41
1.0
 50
0.0
 71
     0
 42
0.2
  3
TXT
  4
BIGFONT
  0
STYLE
  2
STANDARD1
 70
     0
 40
0.0
 41
1.0
 50
0.0
 71
     0
 42
3.0
  3
txt
  4

  0
ENDTAB
  0
TABLE
  2
VIEW
 70
     1
  0
VIEW
  2
ALL
 70
     0
 40
270.0
 10
220.9915970000000129
 20
135.0
 41
0.0
 11
0.0
 21
0.0
 31
1.0
 12
0.0
 22
0.0
 32
0.0
 42
0.0
 43
0.0
 44
0.0
 50
0.0
 71
     0
  0
ENDTAB
  0
TABLE
  2
UCS
 70
     0
  0
ENDTAB
  0
TABLE
  2
APPID
 70
     6
  0
APPID
  2
ACAD
 70
     0
  0
APPID
  2
ACAD_EXEMPT_FROM_CAD_STANDARDS
 70
     0
  0
APPID
  2
ACAD_MLEADERVER
 70
     0
  0
APPID
  2
ACAD_NAV_VCDISPLAY
 70
     0
  0
APPID
  2
ACAD_DSTYLE_DIMJAG
 70
     0
  0
APPID
  2
ACAD_DSTYLE_DIMTALN
 70
     0
  0
ENDTAB
  0
TABLE
  2
DIMSTYLE
 70
     1
  0
DIMSTYLE
  2
STANDARD
 70
     0
  3

  4

  5

  6

  7

 40
1.0
 41
0.18
 42
0.0625
 43
0.38
 44
0.18
 45
0.0
 46
0.0
 47
0.0
 48
0.0
140
0.18
141
0.09
142
0.0
143
25.3999999999999986
144
1.0
145
0.0
146
1.0
147
0.09
 71
     0
 72
     0
 73
     1
 74
     1
 75
     0
 76
     0
 77
     0
 78
     0
170
     0
171
     2
172
     0
173
     0
174
     0
175
     0
176
     0
177
     0
178
     0
  0
ENDTAB
  0
ENDSEC
  0
SECTION
  2
BLOCKS
  0
BLOCK
  8
0
  2
$MODEL_SPACE
 70
     0
 10
0.0
 20
0.0
 30
0.0
  3
$MODEL_SPACE
  1

  0
ENDBLK
  5
E8
  8
0
  0
BLOCK
 67
     1
  8
0
  2
$PAPER_SPACE
 70
     0
 10
0.0
 20
0.0
 30
0.0
  3
$PAPER_SPACE
  1

  0
ENDBLK
  5
E6
 67
     1
  8
0
  0
ENDSEC
  0
SECTION
  2
ENTITIES
  0
TEXT
  5
E87
  8
0
 62
     3
 10
0.0
 20
0.0
 30
0.0
 40
10.0
  1
KCL05AX20-SUS
  7
STANDARD1
  0
LINE
  5
22F6
  8
1
 10
116.6773084155934015
 20
91.1500000000000057
 30
0.0
 11
116.6773084155934015
 21
46.0
 31
0.0
  0
LINE
  5
22F9
  8
1
 10
59.0000000000000497
 20
46.0
 30
0.0
 11
59.0000000000000213
 21
91.1500000000000057
 31
0.0
  0
LINE
  5
2FD2
  8
0
 10
118.6868084155934042
 20
50.0
 30
0.0
 11
119.1773084155934015
 21
50.4904999999999973
 31
0.0
  0
LINE
  5
2FD3
  8
0
 10
114.1773084155934015
 20
50.4904999999999973
 30
0.0
 11
114.6678084155933988
 21
50.0
 31
0.0
  0
LINE
  5
2FD4
  8
0
 10
118.6868084155934042
 20
50.0
 30
0.0
 11
114.6678084155933988
 21
50.0
 31
0.0
  0
LINE
  5
2FD5
  8
0
 10
114.1773084155934015
 20
70.0
 30
0.0
 11
114.1773084155934015
 21
50.4904999999999973
 31
0.0
  0
LINE
  5
2FD6
  8
0
 10
119.1773084155934015
 20
50.4904999999999973
 30
0.0
 11
119.1773084155934015
 21
70.0
 31
0.0
  0
LINE
  5
2FD7
  8
0
 10
119.1773084155934015
 20
50.4904999999999973
 30
0.0
 11
114.1773084155934015
 21
50.4904999999999973
 31
0.0
  0
LINE
  5
2FD8
  8
3
 10
118.7443084155933946
 20
50.0574999999999974
 30
0.0
 11
118.7443084155933946
 21
70.0
 31
0.0
  0
LINE
  5
2FD9
  8
3
 10
114.6103084155933942
 20
50.0574999999999477
 30
0.0
 11
114.6103084155933942
 21
70.0
 31
0.0
  0
LINE
  5
3038
  8
0
 10
56.5000000000000284
 20
70.0
 30
0.0
 11
56.5000000000000284
 21
50.4904999999999973
 31
0.0
  0
LINE
  5
3039
  8
0
 10
61.5000000000000284
 20
50.4904999999999973
 30
0.0
 11
61.5000000000000284
 21
70.0
 31
0.0
  0
LINE
  5
303A
  8
0
 10
61.0095000000000312
 20
50.0
 30
0.0
 11
56.9905000000000328
 21
50.0
 31
0.0
  0
LINE
  5
303B
  8
0
 10
61.5000000000000284
 20
50.4904999999999973
 30
0.0
 11
56.5000000000000284
 21
50.4904999999999973
 31
0.0
  0
LINE
  5
303C
  8
0
 10
61.0095000000000312
 20
50.0
 30
0.0
 11
61.5000000000000284
 21
50.4904999999999973
 31
0.0
  0
LINE
  5
303D
  8
0
 10
56.5000000000000284
 20
50.4904999999999973
 30
0.0
 11
56.9905000000000328
 21
50.0
 31
0.0
  0
LINE
  5
3040
  8
3
 10
56.9330000000000211
 20
50.0574999999999974
 30
0.0
 11
56.9330000000000211
 21
70.0
 31
0.0
  0
LINE
  5
3043
  8
3
 10
61.0670000000000286
 20
50.0574999999999477
 30
0.0
 11
61.0670000000000286
 21
70.0
 31
0.0
  0
POLYLINE
  5
3044
  8
0
 66
     1
 10
0.0
 20
0.0
 30
0.0
  0
VERTEX
  5
3D0C
  8
0
 10
60.6970092810591026
 20
84.9294999999694085
 30
0.0
  0
VERTEX
  5
3D0D
  8
0
 10
60.8157314900190187
 20
84.9642893725949762
 30
0.0
  0
VERTEX
  5
3D0E
  8
0
 10
61.0512990865090472
 20
85.0389179288170141
 30
0.0
  0
VERTEX
  5
3D0F
  8
0
 10
61.1573226188351313
 20
85.0748232655108723
 30
0.0
  0
VERTEX
  5
3D10
  8
0
 10
61.2525897217938606
 20
85.1082558837389911
 30
0.0
  0
VERTEX
  5
3D11
  8
0
 10
61.3735573384355604
 20
85.1522472139459126
 30
0.0
  0
VERTEX
  5
3D12
  8
0
 10
61.4584819891573702
 20
85.184125360171933
 30
0.0
  0
VERTEX
  5
3D13
  8
0
 10
61.4973381923633085
 20
85.1989766116915774
 30
0.0
  0
VERTEX
  5
3D14
  8
0
 10
61.4999999997801226
 20
85.199999999884767
 30
0.0
  0
SEQEND
  5
3D15
  8
0
  0
POLYLINE
  5
3045
  8
0
 66
     1
 10
0.0
 20
0.0
 30
0.0
  0
VERTEX
  5
3D16
  8
0
 10
57.3029907189411389
 20
84.9294999999693658
 30
0.0
  0
VERTEX
  5
3D17
  8
0
 10
57.4784789181719518
 20
84.8529826669931708
 30
0.0
  0
VERTEX
  5
3D18
  8
0
 10
57.6741673307785589
 20
84.7759093222658038
 30
0.0
  0
VERTEX
  5
3D19
  8
0
 10
57.8872739078912701
 20
84.7024975525822867
 30
0.0
  0
VERTEX
  5
3D1A
  8
0
 10
58.118134593722111
 20
84.6363190528261669
 30
0.0
  0
VERTEX
  5
3D1B
  8
0
 10
58.3641747051584829
 20
84.5815614594016267
 30
0.0
  0
VERTEX
  5
3D1C
  8
0
 10
58.6204712844483566
 20
84.5426593897259977
 30
0.0
  0
VERTEX
  5
3D1D
  8
0
 10
58.8567117373692312
 20
84.5244500144132758
 30
0.0
  0
VERTEX
  5
3D1E
  8
0
 10
59.0962193935003413
 20
84.5227545156231344
 30
0.0
  0
VERTEX
  5
3D1F
  8
0
 10
59.3332032010157704
 20
84.5377169027589161
 30
0.0
  0
VERTEX
  5
3D20
  8
0
 10
59.6371904254584706
 20
84.5817429292516749
 30
0.0
  0
VERTEX
  5
3D21
  8
0
 10
59.9254593113744534
 20
84.6475795403149647
 30
0.0
  0
VERTEX
  5
3D22
  8
0
 10
60.2155518147542566
 20
84.7365258653220934
 30
0.0
  0
VERTEX
  5
3D23
  8
0
 10
60.4770570668264469
 20
84.8346976942297601
 30
0.0
  0
VERTEX
  5
3D24
  8
0
 10
60.6970092810589321
 20
84.9294999999693658
 30
0.0
  0
SEQEND
  5
3D25
  8
0
  0
POLYLINE
  5
3046
  8
0
 66
     1
 10
0.0
 20
0.0
 30
0.0
  0
VERTEX
  5
3D26
  8
0
 10
57.3029907189413308
 20
77.4704999999694905
 30
0.0
  0
VERTEX
  5
3D27
  8
0
 10
57.0539526967078388
 20
77.3953232489324421
 30
0.0
  0
VERTEX
  5
3D28
  8
0
 10
56.9396410084529165
 20
77.3580686315484343
 30
0.0
  0
VERTEX
  5
3D29
  8
0
 10
56.8346777091512507
 20
77.3224114222271623
 30
0.0
  0
VERTEX
  5
3D2A
  8
0
 10
56.6890492600555689
 20
77.270731741198972
 30
0.0
  0
VERTEX
  5
3D2B
  8
0
 10
56.5783986438268514
 20
77.2298173088616124
 30
0.0
  0
VERTEX
  5
3D2C
  8
0
 10
56.5151641963519396
 20
77.2058199054700367
 30
0.0
  0
VERTEX
  5
3D2D
  8
0
 10
56.5016666116429107
 20
77.2006408539699436
 30
0.0
  0
VERTEX
  5
3D2E
  8
0
 10
56.5000000000000213
 20
77.19999999996935
 30
0.0
  0
SEQEND
  5
3D2F
  8
0
  0
POLYLINE
  5
3047
  8
0
 66
     1
 10
0.0
 20
0.0
 30
0.0
  0
VERTEX
  5
3D30
  8
0
 10
60.6970092810588966
 20
77.4704999999693769
 30
0.0
  0
VERTEX
  5
3D31
  8
0
 10
60.5215210818281193
 20
77.5470173329455577
 30
0.0
  0
VERTEX
  5
3D32
  8
0
 10
60.3258326692214766
 20
77.6240906776728821
 30
0.0
  0
VERTEX
  5
3D33
  8
0
 10
60.1127260921087725
 20
77.6975024473564417
 30
0.0
  0
VERTEX
  5
3D34
  8
0
 10
59.8818654062779316
 20
77.7636809471125332
 30
0.0
  0
VERTEX
  5
3D35
  8
0
 10
59.6358252948415597
 20
77.8184385405371017
 30
0.0
  0
VERTEX
  5
3D36
  8
0
 10
59.3795287155516789
 20
77.8573406102127024
 30
0.0
  0
VERTEX
  5
3D37
  8
0
 10
59.1432882626308114
 20
77.8755499855254527
 30
0.0
  0
VERTEX
  5
3D38
  8
0
 10
58.9037806064997014
 20
77.8772454843156083
 30
0.0
  0
VERTEX
  5
3D39
  8
0
 10
58.6667967989843007
 20
77.8622830971797839
 30
0.0
  0
VERTEX
  5
3D3A
  8
0
 10
58.3628095745416005
 20
77.8182570706870536
 30
0.0
  0
VERTEX
  5
3D3B
  8
0
 10
58.0745406886256177
 20
77.7524204596237496
 30
0.0
  0
VERTEX
  5
3D3C
  8
0
 10
57.7844481852457932
 20
77.6634741346165924
 30
0.0
  0
VERTEX
  5
3D3D
  8
0
 10
57.5229429331735815
 20
77.5653023057089399
 30
0.0
  0
VERTEX
  5
3D3E
  8
0
 10
57.3029907189411389
 20
77.4704999999693769
 30
0.0
  0
SEQEND
  5
3D3F
  8
0
  0
LINE
  5
3048
  8
0
 10
61.7000000000000099
 20
85.19999999996935
 30
0.0
 11
61.5000000000001279
 21
85.19999999996935
 31
0.0
  0
LINE
  5
3049
  8
0
 10
56.5000000000000213
 20
85.19999999996935
 30
0.0
 11
56.3000000000000327
 21
85.19999999996935
 31
0.0
  0
LINE
  5
304A
  8
0
 10
56.3000000000000327
 20
77.19999999996935
 30
0.0
 11
56.5000000000000213
 21
77.19999999996935
 31
0.0
  0
LINE
  5
304B
  8
0
 10
61.5000000000000213
 20
77.19999999996935
 30
0.0
 11
61.7000000000000099
 21
77.19999999996935
 31
0.0
  0
POLYLINE
  5
304C
  8
0
 66
     1
 10
0.0
 20
0.0
 30
0.0
  0
VERTEX
  5
3D40
  8
0
 10
56.5000000000000213
 20
85.19999999996935
 30
0.0
  0
VERTEX
  5
3D41
  8
0
 10
56.5018144552863291
 20
85.1993023109136942
 30
0.0
  0
VERTEX
  5
3D42
  8
0
 10
56.5329666532263815
 20
85.1873796142633637
 30
0.0
  0
VERTEX
  5
3D43
  8
0
 10
56.6032513008813893
 20
85.1608724925114302
 30
0.0
  0
VERTEX
  5
3D44
  8
0
 10
56.7067387555130935
 20
85.1228573191271067
 30
0.0
  0
VERTEX
  5
3D45
  8
0
 10
56.8420862592692089
 20
85.0750273368445846
 30
0.0
  0
VERTEX
  5
3D46
  8
0
 10
57.053248614638612
 20
85.0049010586295566
 30
0.0
  0
VERTEX
  5
3D47
  8
0
 10
57.3029907189411389
 20
84.9294999999693658
 30
0.0
  0
SEQEND
  5
3D48
  8
0
  0
POLYLINE
  5
304D
  8
0
 66
     1
 10
0.0
 20
0.0
 30
0.0
  0
VERTEX
  5
3D49
  8
0
 10
61.4999999999732694
 20
77.1999999999796387
 30
0.0
  0
VERTEX
  5
3D4A
  8
0
 10
61.4999692124630926
 20
77.200011841278382
 30
0.0
  0
VERTEX
  5
3D4B
  8
0
 10
61.4749605484628603
 20
77.2095964975913489
 30
0.0
  0
VERTEX
  5
3D4C
  8
0
 10
61.4145343677063735
 20
77.2324717395779317
 30
0.0
  0
VERTEX
  5
3D4D
  8
0
 10
61.3191064968310897
 20
77.2677637623807527
 30
0.0
  0
VERTEX
  5
3D4E
  8
0
 10
61.240426509474517
 20
77.2960730077613647
 30
0.0
  0
VERTEX
  5
3D4F
  8
0
 10
61.1497976706558504
 20
77.3277708263854322
 30
0.0
  0
VERTEX
  5
3D50
  8
0
 10
60.9337696874441903
 20
77.3992242622201729
 30
0.0
  0
VERTEX
  5
3D51
  8
0
 10
60.6970092810588966
 20
77.4704999999693769
 30
0.0
  0
SEQEND
  5
3D52
  8
0
  0
LINE
  5
3076
  8
0
 10
56.4999999970198203
 20
76.8592713234009182
 30
0.0
 11
61.5000000000000497
 21
76.8592713234009182
 31
0.0
  0
LINE
  5
39C2
  8
0
 10
116.2773084155932963
 20
139.4177925358505945
 30
0.0
 11
116.2773084155932963
 21
134.4822074641494112
 31
0.0
  0
LINE
  5
39C3
  8
0
 10
117.0773084155932935
 20
139.4177925358505945
 30
0.0
 11
117.0773084155932935
 21
134.4822074641494112
 31
0.0
  0
LINE
  5
39D6
  8
0
 10
56.5000000000000497
 20
74.9999999999693046
 30
0.0
 11
56.5000000000000497
 21
77.1999999999693642
 31
0.0
  0
LINE
  5
39D7
  8
0
 10
61.5000000000000497
 20
85.5094999999693215
 30
0.0
 11
61.5000000000000497
 21
85.1999999999693074
 31
0.0
  0
LINE
  5
39D8
  8
0
 10
61.0095000000000596
 20
85.9999999999693046
 30
0.0
 11
56.990500000000047
 21
85.9999999999693046
 31
0.0
  0
LINE
  5
39D9
  8
0
 10
61.5000000000000497
 20
85.5094999999693215
 30
0.0
 11
56.5000000000000497
 21
85.5094999999693215
 31
0.0
  0
LINE
  5
39DA
  8
0
 10
61.0095000000000596
 20
85.9999999999693046
 30
0.0
 11
61.5000000000000497
 21
85.5094999999693215
 31
0.0
  0
LINE
  5
39DB
  8
0
 10
56.5000000000000497
 20
85.5094999999693215
 30
0.0
 11
56.990500000000047
 21
85.9999999999693046
 31
0.0
  0
LINE
  5
39DC
  8
3
 10
56.9330000000000496
 20
85.9424999999693142
 30
0.0
 11
56.9330000000000496
 21
85.0448352021484908
 31
0.0
  0
LINE
  5
39DD
  8
3
 10
61.0670000000000712
 20
85.9424999999693853
 30
0.0
 11
61.0670000000000712
 21
85.0442351123981268
 31
0.0
  0
LINE
  5
39DF
  8
3
 10
56.9330000000000496
 20
77.3558126065369862
 30
0.0
 11
56.9330000000000496
 21
76.8592713234009182
 31
0.0
  0
LINE
  5
39E0
  8
0
 10
56.5000000000000497
 20
85.1999999999693358
 30
0.0
 11
56.5000000000000497
 21
85.5094999999693215
 31
0.0
  0
LINE
  5
39E1
  8
0
 10
61.5000000000000497
 20
77.1999999999693358
 30
0.0
 11
61.5000000000000497
 21
74.9999999999693046
 31
0.0
  0
LINE
  5
39E2
  8
3
 10
61.0670000000000712
 20
77.3551569916382533
 30
0.0
 11
61.067000000000057
 21
76.8592713234009182
 31
0.0
  0
LINE
  5
3BDB
  8
0
 10
109.7773084155329997
 20
70.8000000000000398
 30
0.0
 11
110.5773084155329968
 21
70.0000000000000284
 31
0.0
  0
LINE
  5
3BDC
  8
0
 10
122.7773084156538062
 20
70.0000000000000284
 30
0.0
 11
123.5773084156538033
 21
70.8000000000000398
 31
0.0
  0
LINE
  5
3BDD
  8
0
 10
123.577308415593393
 20
70.8000000000000398
 30
0.0
 11
123.577308415593393
 21
74.2000000000003013
 31
0.0
  0
LINE
  5
3BDE
  8
0
 10
109.7773084155933958
 20
74.2000000000003013
 30
0.0
 11
109.7773084155933958
 21
70.8000000000000398
 31
0.0
  0
LINE
  5
3BDF
  8
0
 10
110.5773084155898971
 20
74.9999999999386375
 30
0.0
 11
109.7773084155947032
 21
74.2000000000003013
 31
0.0
  0
LINE
  5
3BE0
  8
0
 10
123.5773084155921993
 20
74.2000000000003013
 30
0.0
 11
122.7773084155970054
 21
74.9999999999386375
 31
0.0
  0
LINE
  5
3BE1
  8
0
 10
109.7773084155329997
 20
70.8000000000000398
 30
0.0
 11
123.5773084156538033
 21
70.8000000000000398
 31
0.0
  0
LINE
  5
3BE2
  8
0
 10
110.5773084155329968
 20
70.0000000000000284
 30
0.0
 11
122.7773084156538062
 21
70.0000000000000284
 31
0.0
  0
LINE
  5
3BE3
  8
0
 10
123.5773084155926966
 20
74.2000000000003013
 30
0.0
 11
119.3135936808860009
 21
74.1999999999999034
 31
0.0
  0
LINE
  5
3BE4
  8
0
 10
114.0410231503011005
 20
74.1999999999997897
 30
0.0
 11
109.7773084155935948
 21
74.2000000000000739
 31
0.0
  0
ARC
  5
3BE5
  8
0
 10
116.6773084155934015
 20
80.8999999999998352
 30
0.0
 40
7.1999999999998412
 50
248.5215821589204097
 51
291.4784178410831146
  0
LINE
  5
3BE6
  8
0
 10
112.6398838365355033
 20
74.9999999999723457
 30
0.0
 11
110.5773084155898971
 21
74.9999999999386375
 31
0.0
  0
LINE
  5
3BE7
  8
0
 10
114.0410231503011005
 20
74.1999999999997897
 30
0.0
 11
113.8271586928031951
 21
74.2908446044782806
 31
0.0
  0
LINE
  5
3BE8
  8
0
 10
122.7773084155970054
 20
74.9999999999386375
 30
0.0
 11
120.7093613889364008
 21
74.9999999999724025
 31
0.0
  0
CIRCLE
  5
3BE9
  8
0
 10
116.6773084155934015
 20
81.4000000000000057
 30
0.0
 40
4.0000000000190994
  0
ARC
  5
3BEA
  8
0
 10
149.5107727205947015
 20
23.0939604774786602
 30
0.0
 40
59.9999999999968665
 50
88.0926458837862612
 51
96.0593011985113066
  0
LINE
  5
3BEB
  8
0
 10
141.677308415593501
 20
82.5471985655807146
 30
0.0
 11
143.1773084155911988
 21
82.7587510150885635
 31
0.0
  0
LINE
  5
3BEC
  8
0
 10
141.6773084155935862
 20
86.5268369746296742
 30
0.0
 11
143.177308415593302
 21
86.6690662724057859
 31
0.0
  0
ARC
  5
3BED
  8
0
 10
149.676264312604701
 20
23.028540853806291
 30
0.0
 40
63.9715007116974732
 50
88.3593868938339853
 51
95.8308191591495557
  0
ARC
  5
3BEE
  8
0
 10
149.5107727205974868
 20
23.0939604774925904
 30
0.0
 40
59.9999999999827835
 50
79.8568026678171634
 51
83.3324095443788337
  0
POLYLINE
  5
3BEF
  8
0
 66
     1
 10
0.0
 20
0.0
 30
0.0
 70
   128
  0
VERTEX
  5
3D53
  8
0
 10
160.0773084155937056
 20
86.1493467899707781
 30
0.0
  0
VERTEX
  5
3D54
  8
0
 10
158.2776925224262925
 20
86.4194895826073832
 30
0.0
  0
VERTEX
  5
3D55
  8
0
 10
156.4773084155926028
 20
86.6377246607703171
 30
0.0
  0
SEQEND
  5
3D56
  8
0
  0
ARC
  5
3BF0
  8
0
 10
149.5107727205949004
 20
23.0939604774755303
 30
0.0
 40
60.0
 50
83.3324095443771853
 51
87.3561503588273638
  0
POLYLINE
  5
3BF1
  8
0
 66
     1
 10
0.0
 20
0.0
 30
0.0
 70
   128
  0
VERTEX
  5
3D57
  8
0
 10
156.4773084155926028
 20
86.6377246607704308
 30
0.0
  0
VERTEX
  5
3D58
  8
0
 10
154.3804106996929022
 20
86.8269600475012169
 30
0.0
  0
VERTEX
  5
3D59
  8
0
 10
152.278423172985498
 20
86.9471203575180027
 30
0.0
  0
SEQEND
  5
3D5A
  8
0
  0
LINE
  5
3BF2
  8
0
 10
151.5077803859850007
 20
83.0607176049404927
 30
0.0
 11
152.278423172985498
 21
83.0300940779453782
 31
0.0
  0
LINE
  5
3BF3
  8
0
 10
151.5077803859850007
 20
86.9738178661054064
 30
0.0
 11
152.278423172985498
 21
86.9471203575180027
 31
0.0
  0
LINE
  5
3BF4
  8
0
 10
165.3773084155934896
 20
85.0361378085885065
 30
0.0
 11
164.6773084155962863
 21
85.2173609212084386
 31
0.0
  0
ARC
  5
3BF5
  8
0
 10
149.5064656768871885
 20
23.0749083281369991
 30
0.0
 40
60.0195128926624974
 50
74.6670298032623094
 51
79.8559583319877788
  0
ARC
  5
3BF6
  8
0
 10
149.4809497365783955
 20
22.0308330268258992
 30
0.0
 40
64.9882037330541209
 50
76.4771832496034989
 51
80.6159976556506592
  0
POLYLINE
  5
3BF7
  8
0
 66
     1
 10
0.0
 20
0.0
 30
0.0
 70
   128
  0
VERTEX
  5
3D5B
  8
0
 10
134.6773084155933873
 20
84.9356706143874192
 30
0.0
  0
VERTEX
  5
3D5C
  8
0
 10
136.5301336397963041
 20
85.315508351256284
 30
0.0
  0
VERTEX
  5
3D5D
  8
0
 10
138.3773084155932906
 20
85.8000000000000256
 30
0.0
  0
SEQEND
  5
3D5E
  8
0
  0
POLYLINE
  5
3BF8
  8
0
 66
     1
 10
0.0
 20
0.0
 30
0.0
 70
   128
  0
VERTEX
  5
3D5F
  8
0
 10
139.2773084155867878
 20
82.0030301042939129
 30
0.0
  0
VERTEX
  5
3D60
  8
0
 10
136.9844279241928007
 20
81.3817427433780551
 30
0.0
  0
VERTEX
  5
3D61
  8
0
 10
134.6773084155933873
 20
80.8353669990016357
 30
0.0
  0
SEQEND
  5
3D62
  8
0
  0
POLYLINE
  5
3BF9
  8
0
 66
     1
 10
0.0
 20
0.0
 30
0.0
 70
   128
  0
VERTEX
  5
3D63
  8
0
 10
139.2773084155867878
 20
82.0030301042939698
 30
0.0
  0
VERTEX
  5
3D64
  8
0
 10
140.4719812318249126
 20
82.3062734261864932
 30
0.0
  0
VERTEX
  5
3D65
  8
0
 10
141.6773084155935862
 20
82.5471985655807146
 30
0.0
  0
SEQEND
  5
3D66
  8
0
  0
POLYLINE
  5
3BFA
  8
0
 66
     1
 10
0.0
 20
0.0
 30
0.0
 70
   128
  0
VERTEX
  5
3D67
  8
0
 10
138.3773084155932906
 20
85.7999999999999829
 30
0.0
  0
VERTEX
  5
3D68
  8
0
 10
140.0281679672540918
 20
86.2368063986947107
 30
0.0
  0
VERTEX
  5
3D69
  8
0
 10
141.6773084155935862
 20
86.5268369746296742
 30
0.0
  0
SEQEND
  5
3D6A
  8
0
  0
POLYLINE
  5
3BFB
  8
0
 66
     1
 10
0.0
 20
0.0
 30
0.0
 70
   128
  0
VERTEX
  5
3D6B
  8
0
 10
168.5560259606205875
 20
81.4091210521312689
 30
0.0
  0
VERTEX
  5
3D6C
  8
0
 10
168.7273281376998
 20
81.8087999963339882
 30
0.0
  0
VERTEX
  5
3D6D
  8
0
 10
168.8560259606205136
 20
82.1091210521313144
 30
0.0
  0
SEQEND
  5
3D6E
  8
0
  0
ARC
  5
3BFC
  8
0
 10
167.1773084155933873
 20
82.0000000000000142
 30
0.0
 40
1.5000000000000331
 50
250.5287793654811139
 51
336.8014094863534069
  0
ARC
  5
3BFD
  8
0
 10
167.4767597955510894
 20
82.6997625828960139
 30
0.0
 40
1.5004108010706589
 50
336.8179952341720877
 51
69.9834142521840761
  0
ARC
  5
3BFE
  8
0
 10
160.0400629757673983
 20
65.837280325793671
 30
0.0
 40
19.9269244372936711
 50
66.486100028057777
 51
74.464171681737497
  0
ARC
  5
3BFF
  8
0
 10
149.5107727206288928
 20
23.0939604775936012
 30
0.0
 40
59.9999999998771401
 50
73.3748540425739435
 51
74.6661854674320438
  0
LINE
  5
3C00
  8
0
 10
129.3773084155934043
 20
79.8703296142690817
 30
0.0
 11
128.7773084155940069
 21
79.8088748241821406
 31
0.0
  0
ARC
  5
3C01
  8
0
 10
130.1773084155933873
 20
69.0999999999999233
 30
0.0
 40
10.8000000000000806
 50
97.4481905610389134
 51
140.2210388709636959
  0
POLYLINE
  5
3C02
  8
0
 66
     1
 10
0.0
 20
0.0
 30
0.0
 70
   128
  0
VERTEX
  5
3D6F
  8
0
 10
121.8773084155935038
 20
76.0101374805426815
 30
0.0
  0
VERTEX
  5
3D70
  8
0
 10
121.3994170493288038
 20
75.53826010851364
 30
0.0
  0
VERTEX
  5
3D71
  8
0
 10
120.8773084155935038
 20
75.1158255138574589
 30
0.0
  0
SEQEND
  5
3D72
  8
0
  0
POLYLINE
  5
3C03
  8
0
 66
     1
 10
0.0
 20
0.0
 30
0.0
 70
   128
  0
VERTEX
  5
3D73
  8
0
 10
120.8773084155935038
 20
75.1158255138574589
 30
0.0
  0
VERTEX
  5
3D74
  8
0
 10
120.1240780693263019
 20
74.5963564070400196
 30
0.0
  0
VERTEX
  5
3D75
  8
0
 10
119.3400943256886961
 20
74.1999999999999602
 30
0.0
  0
SEQEND
  5
3D76
  8
0
  0
ARC
  5
3C04
  8
0
 10
116.6745193134439944
 20
80.4063746826692665
 30
0.0
 40
6.7459002839676696
 50
59.7069245628799408
 51
245.0335455228585033
  0
ARC
  5
3C05
  8
0
 10
126.6768383752393987
 20
97.7782959642706118
 30
0.0
 40
13.2999999999996206
 50
240.2507420024651879
 51
266.9850664106382965
  0
ARC
  5
3C06
  8
0
 10
128.577308415593393
 20
119.399999999999693
 30
0.0
 40
34.9999999999996376
 50
265.7398177411661209
 51
280.0370937830745106
  0
POLYLINE
  5
3C07
  8
0
 66
     1
 10
0.0
 20
0.0
 30
0.0
 70
   128
  0
VERTEX
  5
3D77
  8
0
 10
134.6773084155933873
 20
80.8353669990016357
 30
0.0
  0
VERTEX
  5
3D78
  8
0
 10
132.0360930717095016
 20
80.3046028415867852
 30
0.0
  0
VERTEX
  5
3D79
  8
0
 10
129.3773084155934043
 20
79.870329614268968
 30
0.0
  0
SEQEND
  5
3D7A
  8
0
  0
LINE
  5
3C08
  8
0
 10
65.9000000000000483
 20
70.8000000000000114
 30
0.0
 11
65.9000000000000483
 21
73.706364335451326
 31
0.0
  0
LINE
  5
3C09
  8
0
 10
52.1000000000000369
 20
73.7063643354512124
 30
0.0
 11
52.1000000000000369
 21
70.8000000000000114
 31
0.0
  0
LINE
  5
3C0A
  8
0
 10
52.0999999999396408
 20
70.8000000000000114
 30
0.0
 11
52.8999999999396522
 21
70.0
 31
0.0
  0
LINE
  5
3C0B
  8
0
 10
65.1000000000604331
 20
70.0
 30
0.0
 11
65.900000000060416
 21
70.8000000000000114
 31
0.0
  0
LINE
  5
3C10
  8
0
 10
56.3000000000000185
 20
87.1499999999999773
 30
0.0
 11
52.5000000000000711
 21
87.1499999999999773
 31
0.0
  0
LINE
  5
3C11
  8
0
 10
65.5000000000000142
 20
87.1499999999999773
 30
0.0
 11
61.7000000000000597
 21
87.1499999999999773
 31
0.0
  0
LINE
  5
3C12
  8
0
 10
61.7000000000001734
 20
87.0000000000001137
 30
0.0
 11
56.3000000000001393
 21
87.0000000000001137
 31
0.0
  0
LINE
  5
3C13
  8
0
 10
52.5000000000001776
 20
87.0000000000001137
 30
0.0
 11
50.0000000000000071
 21
87.0000000000001137
 31
0.0
  0
POLYLINE
  5
3C14
  8
0
 66
     1
 10
0.0
 20
0.0
 30
0.0
 70
   128
  0
VERTEX
  5
3D7B
  8
0
 10
52.6234805732273188
 20
74.1999999999992497
 30
0.0
  0
VERTEX
  5
3D7C
  8
0
 10
52.3517965943648065
 20
73.9409333583662374
 30
0.0
  0
VERTEX
  5
3D7D
  8
0
 10
52.1708617304526712
 20
73.7678804339385437
 30
0.0
  0
VERTEX
  5
3D7E
  8
0
 10
52.1009895524300219
 20
73.7009483155292742
 30
0.0
  0
VERTEX
  5
3D7F
  8
0
 10
52.1066425876419004
 20
73.7063643354512124
 30
0.0
  0
SEQEND
  5
3D80
  8
0
  0
LINE
  5
3C15
  8
0
 10
65.3765194267720204
 20
74.1999999999997613
 30
0.0
 11
52.6234805732269635
 21
74.1999999999990223
 31
0.0
  0
ARC
  5
3C16
  8
0
 10
-79.2263898711874077
 20
-77.7170525418696343
 30
0.0
 40
209.735052460105095
 50
46.217762945442658
 51
46.413006307909292
  0
LINE
  5
3C17
  8
0
 10
52.1000000000000369
 20
70.8000000000000114
 30
0.0
 11
65.9000000000000483
 21
70.8000000000000114
 31
0.0
  0
LINE
  5
3C18
  8
0
 10
52.8999999999396522
 20
70.0
 30
0.0
 11
65.1000000000604047
 21
70.0
 31
0.0
  0
ARC
  5
3C19
  8
0
 10
54.3087301647613074
 20
50.7658996237950717
 30
0.0
 40
25.9162693995551408
 50
64.7189066418315235
 51
68.9210449570838648
  0
ARC
  5
3C1A
  8
0
 10
63.8005107299617436
 20
50.510775904692089
 30
0.0
 40
26.1936126061722803
 50
111.1012114023968991
 51
115.258836998704794
  0
POLYLINE
  5
3C1B
  8
0
 66
     1
 10
0.0
 20
0.0
 30
0.0
 70
   128
  0
VERTEX
  5
3D81
  8
0
 10
54.3703771212092235
 20
74.9479999999956021
 30
0.0
  0
VERTEX
  5
3D82
  8
0
 10
54.5495372687826929
 20
74.9967909034033369
 30
0.0
  0
VERTEX
  5
3D83
  8
0
 10
54.5954568909329083
 20
75.0
 30
0.0
  0
SEQEND
  5
3D84
  8
0
  0
LINE
  5
3C1C
  8
0
 10
63.4045431090906533
 20
74.9999999999693046
 30
0.0
 11
54.595456890909432
 21
74.9999999999693046
 31
0.0
  0
POLYLINE
  5
3C1D
  8
0
 66
     1
 10
0.0
 20
0.0
 30
0.0
 70
   128
  0
VERTEX
  5
3D85
  8
0
 10
63.4045431090683209
 20
75.0000000000032401
 30
0.0
  0
VERTEX
  5
3D86
  8
0
 10
63.5499798019936719
 20
74.9750289615228098
 30
0.0
  0
VERTEX
  5
3D87
  8
0
 10
63.6296228787869182
 20
74.9479999999812776
 30
0.0
  0
SEQEND
  5
3D88
  8
0
  0
LINE
  5
3C1F
  8
0
 10
52.5000000000000711
 20
74.0823411933351252
 30
0.0
 11
52.5000000000000711
 21
87.1492656704530759
 31
0.0
  0
LINE
  5
3C20
  8
0
 10
56.3000000000000185
 20
74.9999999999385949
 30
0.0
 11
56.3000000000000185
 21
87.1492656704530759
 31
0.0
  0
LINE
  5
3C21
  8
0
 10
65.5000000000000142
 20
74.0823411933351252
 30
0.0
 11
65.5000000000000142
 21
87.1492656704530759
 31
0.0
  0
LINE
  5
3C22
  8
0
 10
61.7000000000000597
 20
74.9999999999385949
 30
0.0
 11
61.7000000000000597
 21
87.1492656704530759
 31
0.0
  0
POLYLINE
  5
3C26
  8
0
 66
     1
 10
0.0
 20
0.0
 30
0.0
 70
   128
  0
VERTEX
  5
3D89
  8
0
 10
52.2269434180880268
 20
85.8000000000000114
 30
0.0
  0
VERTEX
  5
3D8A
  8
0
 10
52.4189542384739724
 20
85.3155083512562555
 30
0.0
  0
VERTEX
  5
3D8B
  8
0
 10
52.5000000000000711
 20
84.9356706143873907
 30
0.0
  0
SEQEND
  5
3D8C
  8
0
  0
POLYLINE
  5
3C27
  8
0
 66
     1
 10
0.0
 20
0.0
 30
0.0
 70
   128
  0
VERTEX
  5
3D8D
  8
0
 10
51.6000000000000085
 20
86.5268369746296457
 30
0.0
  0
VERTEX
  5
3D8E
  8
0
 10
51.9595728952917213
 20
86.236806398694668
 30
0.0
  0
VERTEX
  5
3D8F
  8
0
 10
52.2269434180880268
 20
85.7999999999999545
 30
0.0
  0
SEQEND
  5
3D90
  8
0
  0
POLYLINE
  5
3C28
  8
0
 66
     1
 10
0.0
 20
0.0
 30
0.0
 70
   128
  0
VERTEX
  5
3D91
  8
0
 10
51.6000000000000298
 20
82.5471985655806293
 30
0.0
  0
VERTEX
  5
3D92
  8
0
 10
51.8720903638283986
 20
82.3062734261864648
 30
0.0
  0
VERTEX
  5
3D93
  8
0
 10
52.0925611695539104
 20
82.0030301042939413
 30
0.0
  0
SEQEND
  5
3D94
  8
0
  0
POLYLINE
  5
3C29
  8
0
 66
     1
 10
0.0
 20
0.0
 30
0.0
 70
   128
  0
VERTEX
  5
3D95
  8
0
 10
52.5000000000000711
 20
80.8353669990016357
 30
0.0
  0
VERTEX
  5
3D96
  8
0
 10
52.3821882235937295
 20
81.3817427433780267
 30
0.0
  0
VERTEX
  5
3D97
  8
0
 10
52.092561169553889
 20
82.0030301042938845
 30
0.0
  0
SEQEND
  5
3D98
  8
0
  0
LINE
  5
3C2A
  8
0
 10
51.1115013351783531
 20
86.6690662724057574
 30
0.0
 11
51.6000000000000085
 21
86.5268369746296457
 31
0.0
  0
ARC
  5
3C2B
  8
0
 10
49.8705746924279225
 20
80.5034373016559357
 30
0.0
 40
2.5741676088955172
 50
61.1793748889115108
 51
86.3207845477404732
  0
ARC
  5
3C2C
  8
0
 10
49.666437921880302
 20
83.7119619082199051
 30
0.0
 40
3.2913028558825421
 50
63.9563895582328286
 51
84.1832858655137954
  0
ARC
  5
3C2D
  8
0
 10
49.1140804583751702
 20
77.4767033422012901
 30
0.0
 40
5.6470981731988772
 50
63.8826011337612627
 51
69.2857502661844364
  0
POLYLINE
  5
3C2E
  8
0
 66
     1
 10
0.0
 20
0.0
 30
0.0
 70
   128
  0
VERTEX
  5
3D99
  8
0
 10
52.5000000000002416
 20
80.7925792434999721
 30
0.0
  0
VERTEX
  5
3D9A
  8
0
 10
52.3233126067053007
 20
80.8618017884845131
 30
0.0
  0
VERTEX
  5
3D9B
  8
0
 10
52.1000000000000369
 20
80.9580516311377778
 30
0.0
  0
SEQEND
  5
3D9C
  8
0
  0
ARC
  5
3C2F
  8
0
 10
52.8756276776903817
 20
84.0744491103221776
 30
0.0
 40
3.2114687516253522
 50
216.6775967908328084
 51
256.0238456382556933
  0
ARC
  5
3C30
  8
0
 10
51.887083311411331
 20
83.4018295178624953
 30
0.0
 40
2.0175287880416501
 50
200.7162190883285007
 51
218.1267209787075956
  0
LINE
  5
3C31
  8
0
 10
50.0000000000000426
 20
82.6881496271763012
 30
0.0
 11
50.0000000000000426
 21
83.0300940779454635
 31
0.0
  0
LINE
  5
3C32
  8
0
 10
50.0000000000000071
 20
83.0300940779454208
 30
0.0
 11
50.0357598036188591
 21
83.072299453996493
 31
0.0
  0
LINE
  5
3C33
  8
0
 10
50.0000000000000711
 20
87.0000000000001563
 30
0.0
 11
50.0000000000000426
 21
83.0300940779454208
 31
0.0
  0
LINE
  5
3C36
  8
0
 10
112.677308415593302
 20
139.6500000000000057
 30
0.0
 11
112.677308415593302
 21
134.2499999999998863
 31
0.0
  0
LINE
  5
3C37
  8
0
 10
120.6773084155934015
 20
134.2499999999998863
 30
0.0
 11
120.6773084155934015
 21
139.6500000000000057
 31
0.0
  0
LINE
  5
3C38
  8
0
 10
109.9273084155934015
 20
143.4499999999999886
 30
0.0
 11
109.9273084155934015
 21
139.6500000000000057
 31
0.0
  0
LINE
  5
3C39
  8
0
 10
109.9273084155934015
 20
134.2499999999998863
 30
0.0
 11
109.9273084155934015
 21
130.4499999999999886
 31
0.0
  0
LINE
  5
3C3A
  8
0
 10
168.9773084155933134
 20
135.9725253291533136
 30
0.0
 11
168.9773084155933134
 21
137.9277586471731922
 31
0.0
  0
ARC
  5
3C3B
  8
0
 10
116.6654057518980068
 20
136.6535901988191881
 30
0.0
 40
6.6125740574941316
 50
249.7432546800291107
 51
290.2567453199725946
  0
ARC
  5
3C3C
  8
0
 10
116.6892110792885973
 20
137.2464098011807891
 30
0.0
 40
6.6125740574940313
 50
69.743254680027448
 51
110.2567453199724952
  0
ARC
  5
3C3D
  8
0
 10
116.677308415593302
 20
136.9499999999999886
 30
0.0
 40
6.9000000000000004
 50
156.886304854325914
 51
203.044149308394708
  0
ARC
  5
3C3E
  8
0
 10
116.677308415593302
 20
136.9499999999999886
 30
0.0
 40
6.100000000003531
 50
153.6368306549219938
 51
206.4072571701541108
  0
ARC
  5
3C3F
  8
0
 10
116.677308415593302
 20
136.9499999999999886
 30
0.0
 40
6.100000000003555
 50
333.6368306549325098
 51
26.4072571701577417
  0
ARC
  5
3C40
  8
0
 10
159.6394419896442969
 20
135.6576969875420104
 30
0.0
 40
10.0018921459766492
 50
59.7554811394170073
 51
87.490882881941971
  0
ARC
  5
3C41
  8
0
 10
159.6399915069779922
 20
138.2404331198121952
 30
0.0
 40
10.0000000000000195
 50
272.5064406622453816
 51
300.2471953163993135
  0
POLYLINE
  5
3C42
  8
0
 66
     1
 10
0.0
 20
0.0
 30
0.0
 70
   128
  0
VERTEX
  5
3D9D
  8
0
 10
160.0773084155937056
 20
128.25
 30
0.0
  0
VERTEX
  5
3D9E
  8
0
 10
158.2776925224262072
 20
128.0580376972193903
 30
0.0
  0
VERTEX
  5
3D9F
  8
0
 10
156.4773084155924892
 20
127.9500000000000028
 30
0.0
  0
SEQEND
  5
3DA0
  8
0
  0
LINE
  5
3C43
  8
0
 10
156.4773084155924892
 20
127.9500000000000028
 30
0.0
 11
152.278423172985498
 21
127.9500000000000028
 31
0.0
  0
LINE
  5
3C44
  8
0
 10
151.5077803859850007
 20
127.9773728869292029
 30
0.0
 11
152.278423172985498
 21
127.9500000000000028
 31
0.0
  0
ARC
  5
3C45
  8
0
 10
150.7845218810435881
 20
154.9676840584417903
 30
0.0
 40
27.0000000000010196
 50
253.6354028237890077
 51
271.5349858279067803
  0
ARC
  5
3C46
  8
0
 10
150.7845218810431902
 20
118.932315941559807
 30
0.0
 40
26.9999999999991793
 50
88.465014172091557
 51
106.3645971762110065
  0
LINE
  5
3C47
  8
0
 10
151.5077803859850007
 20
145.9226271130706891
 30
0.0
 11
152.2784231729849012
 21
145.9499999999999886
 31
0.0
  0
LINE
  5
3C48
  8
0
 10
156.4773084155937113
 20
145.9499999999999034
 30
0.0
 11
152.2784231729849012
 21
145.9499999999999034
 31
0.0
  0
ARC
  5
3C49
  8
0
 10
155.0420101028583133
 20
106.9764202471749996
 30
0.0
 40
38.9999999999531468
 50
82.5818220252943149
 51
87.8908945932533641
  0
POLYLINE
  5
3C4A
  8
0
 66
     1
 10
0.0
 20
0.0
 30
0.0
 70
   128
  0
VERTEX
  5
3DA1
  8
0
 10
138.3773084155932906
 20
130.1769434180880012
 30
0.0
  0
VERTEX
  5
3DA2
  8
0
 10
140.0281679672540918
 20
129.9095728952916033
 30
0.0
  0
VERTEX
  5
3DA3
  8
0
 10
141.6773084155935862
 20
129.5499999999998977
 30
0.0
  0
SEQEND
  5
3DA4
  8
0
  0
POLYLINE
  5
3C4B
  8
0
 66
     1
 10
0.0
 20
0.0
 30
0.0
 70
   128
  0
VERTEX
  5
3DA5
  8
0
 10
141.677308415593501
 20
144.3499999999999943
 30
0.0
  0
VERTEX
  5
3DA6
  8
0
 10
140.0281679672540918
 20
143.9904271047082034
 30
0.0
  0
VERTEX
  5
3DA7
  8
0
 10
138.3773084155932906
 20
143.7230565819120045
 30
0.0
  0
SEQEND
  5
3DA8
  8
0
  0
LINE
  5
3C4C
  8
0
 10
143.177308415593302
 20
144.8384986648216
 30
0.0
 11
141.677308415593501
 21
144.3499999999999943
 31
0.0
  0
LINE
  5
3C4D
  8
0
 10
141.6773084155935862
 20
129.5499999999998977
 30
0.0
 11
143.177308415593302
 21
129.061501335178292
 31
0.0
  0
ARC
  5
3C4E
  8
0
 10
122.6740418608125935
 20
134.4532665547806971
 30
0.0
 40
0.2032928003461626
 50
270.9206811890917947
 51
359.0793188109179823
  0
LINE
  5
3C4F
  8
0
 10
122.8773084155934043
 20
134.4499999999999886
 30
0.0
 11
122.8773084155934043
 21
139.4499999999999886
 31
0.0
  0
ARC
  5
3C50
  8
0
 10
122.6754828397654933
 20
139.4481744241720094
 30
0.0
 40
0.2018338321128823
 50
0.518244217462684
 51
89.4817557825470971
  0
LINE
  5
3C51
  8
0
 10
109.9273084155934015
 20
134.2499999999998863
 30
0.0
 11
122.6773084155934015
 21
134.2499999999998863
 31
0.0
  0
LINE
  5
3C52
  8
0
 10
122.6773084155934015
 20
139.6500000000000057
 30
0.0
 11
109.927308415593302
 21
139.6500000000000057
 31
0.0
  0
POLYLINE
  5
3C53
  8
0
 66
     1
 10
0.0
 20
0.0
 30
0.0
 70
   128
  0
VERTEX
  5
3DA9
  8
0
 10
134.6773084155933873
 20
130.4499999999999886
 30
0.0
  0
VERTEX
  5
3DAA
  8
0
 10
136.5301336397961904
 20
130.36895423847389
 30
0.0
  0
VERTEX
  5
3DAB
  8
0
 10
138.3773084155932906
 20
130.1769434180880012
 30
0.0
  0
SEQEND
  5
3DAC
  8
0
  0
POLYLINE
  5
3C54
  8
0
 66
     1
 10
0.0
 20
0.0
 30
0.0
 70
   128
  0
VERTEX
  5
3DAD
  8
0
 10
138.3773084155932906
 20
143.7230565819120045
 30
0.0
  0
VERTEX
  5
3DAE
  8
0
 10
136.5301336397961904
 20
143.531045761526002
 30
0.0
  0
VERTEX
  5
3DAF
  8
0
 10
134.6773084155933873
 20
143.4499999999999886
 30
0.0
  0
SEQEND
  5
3DB0
  8
0
  0
LINE
  5
3C55
  8
0
 10
134.6773084155933873
 20
143.4499999999999886
 30
0.0
 11
109.927308415593302
 21
143.4499999999999886
 31
0.0
  0
LINE
  5
3C56
  8
0
 10
134.6773084155933873
 20
130.4499999999999886
 30
0.0
 11
109.9273084155934015
 21
130.4499999999999886
 31
0.0
  0
ARC
  5
3C57
  8
0
 10
161.492958076146607
 20
137.4342519968105876
 30
0.0
 40
7.4999999999991802
 50
29.9665219241979415
 51
58.8076111460014914
  0
ARC
  5
3C58
  8
0
 10
161.4929580761464081
 20
136.4657480031895034
 30
0.0
 40
7.4999999999995062
 50
301.1923888540005123
 51
330.0334780758021225
  0
LINE
  5
3C59
  8
0
 10
165.3773084155934043
 20
130.0500000000000114
 30
0.0
 11
164.677308415596201
 21
129.6018314759029977
 31
0.0
  0
LINE
  5
3C5A
  8
0
 10
165.3773084155934043
 20
143.8499999999999091
 30
0.0
 11
164.677308415596201
 21
144.2981685240968091
 31
0.0
  0
POLYLINE
  5
3C5B
  8
0
 66
     1
 10
0.0
 20
0.0
 30
0.0
 70
   128
  0
VERTEX
  5
3DB1
  8
0
 10
168.9767225442346046
 20
135.9725253291533136
 30
0.0
  0
VERTEX
  5
3DB2
  8
0
 10
168.9767417293151937
 20
135.9728157232991066
 30
0.0
  0
VERTEX
  5
3DB3
  8
0
 10
168.9763714140430011
 20
135.967225371620799
 30
0.0
  0
VERTEX
  5
3DB4
  8
0
 10
168.9754258416803907
 20
135.9532286008850974
 30
0.0
  0
VERTEX
  5
3DB5
  8
0
 10
168.9719455431344954
 20
135.9047253043353862
 30
0.0
  0
VERTEX
  5
3DB6
  8
0
 10
168.9584683700983874
 20
135.7473079911557079
 30
0.0
  0
VERTEX
  5
3DB7
  8
0
 10
168.9440221905146871
 20
135.6103863465976076
 30
0.0
  0
VERTEX
  5
3DB8
  8
0
 10
168.9272136245517117
 20
135.4748673640611969
 30
0.0
  0
VERTEX
  5
3DB9
  8
0
 10
168.9086701479384089
 20
135.3444922481214974
 30
0.0
  0
VERTEX
  5
3DBA
  8
0
 10
168.871121539621214
 20
135.1193810746596
 30
0.0
  0
VERTEX
  5
3DBB
  8
0
 10
168.8247866354356006
 20
134.8864158730837914
 30
0.0
  0
VERTEX
  5
3DBC
  8
0
 10
168.6012605184075142
 20
134.0736701638753061
 30
0.0
  0
VERTEX
  5
3DBD
  8
0
 10
168.3157213246464039
 20
133.3512814911026965
 30
0.0
  0
VERTEX
  5
3DBE
  8
0
 10
167.9903386305817889
 20
132.7195438001544971
 30
0.0
  0
SEQEND
  5
3DBF
  8
0
  0
POLYLINE
  5
3C5C
  8
0
 66
     1
 10
0.0
 20
0.0
 30
0.0
 70
   128
  0
VERTEX
  5
3DC0
  8
0
 10
167.9903386305817889
 20
141.1804561998453948
 30
0.0
  0
VERTEX
  5
3DC1
  8
0
 10
168.2370891886515949
 20
140.7155163167535079
 30
0.0
  0
VERTEX
  5
3DC2
  8
0
 10
168.464438101246202
 20
140.1998380575988961
 30
0.0
  0
VERTEX
  5
3DC3
  8
0
 10
168.6634272628189137
 20
139.6329724526607095
 30
0.0
  0
VERTEX
  5
3DC4
  8
0
 10
168.8243477162959891
 20
139.0156203739765033
 30
0.0
  0
VERTEX
  5
3DC5
  8
0
 10
168.862446754785708
 20
138.8273193373941865
 30
0.0
  0
VERTEX
  5
3DC6
  8
0
 10
168.8948123835567969
 20
138.6436124938759917
 30
0.0
  0
VERTEX
  5
3DC7
  8
0
 10
168.9218345744338023
 20
138.4646858729942096
 30
0.0
  0
VERTEX
  5
3DC8
  8
0
 10
168.9414267934276097
 20
138.3119272030666878
 30
0.0
  0
VERTEX
  5
3DC9
  8
0
 10
168.954371905735286
 20
138.1940570136488873
 30
0.0
  0
VERTEX
  5
3DCA
  8
0
 10
168.9672216662407038
 20
138.0550448654749971
 30
0.0
  0
VERTEX
  5
3DCB
  8
0
 10
168.9717842828607957
 20
137.9974203284450027
 30
0.0
  0
VERTEX
  5
3DCC
  8
0
 10
168.9753021307365088
 20
137.9485743166976874
 30
0.0
  0
VERTEX
  5
3DCD
  8
0
 10
168.9762988914102095
 20
137.9338620873826073
 30
0.0
  0
VERTEX
  5
3DCE
  8
0
 10
168.9767260583365101
 20
137.9274221385880992
 30
0.0
  0
VERTEX
  5
3DCF
  8
0
 10
168.9767038337961083
 20
137.9277586471731922
 30
0.0
  0
SEQEND
  5
3DD0
  8
0
  0
LINE
  5
3C5D
  8
1
 10
116.677308415593302
 20
148.6446720906500047
 30
0.0
 11
116.677308415593302
 21
125.2553279093500009
 31
0.0
  0
LINE
  5
3C5E
  8
1
 10
104.9826363249433001
 20
136.9499999999999886
 30
0.0
 11
172.9773084155933134
 21
136.9499999999999886
 31
0.0
  0
LINE
  5
3C5F
  8
1
 10
105.9273084155934015
 20
80.4000000000000057
 30
0.0
 11
127.4273084155934015
 21
80.4000000000000057
 31
0.0
  0
LINE
  5
3C61
  8
1
 10
105.9273084155934015
 20
81.4000000000000057
 30
0.0
 11
127.4273084155934015
 21
81.4000000000000057
 31
0.0
  0
LINE
  5
3C63
  8
0
 10
65.4999999999998437
 20
87.0000000000001137
 30
0.0
 11
68.0000000000000142
 21
87.0000000000001137
 31
0.0
  0
POLYLINE
  5
3C64
  8
0
 66
     1
 10
0.0
 20
0.0
 30
0.0
 70
   128
  0
VERTEX
  5
3DD1
  8
0
 10
65.7730565819120017
 20
85.8000000000000114
 30
0.0
  0
VERTEX
  5
3DD2
  8
0
 10
65.581045761526056
 20
85.3155083512562555
 30
0.0
  0
VERTEX
  5
3DD3
  8
0
 10
65.4999999999999574
 20
84.9356706143873907
 30
0.0
  0
SEQEND
  5
3DD4
  8
0
  0
POLYLINE
  5
3C65
  8
0
 66
     1
 10
0.0
 20
0.0
 30
0.0
 70
   128
  0
VERTEX
  5
3DD5
  8
0
 10
66.4000000000000199
 20
86.5268369746296457
 30
0.0
  0
VERTEX
  5
3DD6
  8
0
 10
66.0404271047083142
 20
86.236806398694668
 30
0.0
  0
VERTEX
  5
3DD7
  8
0
 10
65.7730565819120017
 20
85.7999999999999545
 30
0.0
  0
SEQEND
  5
3DD8
  8
0
  0
POLYLINE
  5
3C66
  8
0
 66
     1
 10
0.0
 20
0.0
 30
0.0
 70
   128
  0
VERTEX
  5
3DD9
  8
0
 10
66.3999999999999915
 20
82.5471985655806293
 30
0.0
  0
VERTEX
  5
3DDA
  8
0
 10
66.1279096361716228
 20
82.3062734261864648
 30
0.0
  0
VERTEX
  5
3DDB
  8
0
 10
65.907438830446111
 20
82.0030301042939413
 30
0.0
  0
SEQEND
  5
3DDC
  8
0
  0
POLYLINE
  5
3C67
  8
0
 66
     1
 10
0.0
 20
0.0
 30
0.0
 70
   128
  0
VERTEX
  5
3DDD
  8
0
 10
65.4999999999999574
 20
80.8353669990016357
 30
0.0
  0
VERTEX
  5
3DDE
  8
0
 10
65.6178117764062989
 20
81.3817427433780267
 30
0.0
  0
VERTEX
  5
3DDF
  8
0
 10
65.9074388304461394
 20
82.0030301042938845
 30
0.0
  0
SEQEND
  5
3DE0
  8
0
  0
LINE
  5
3C68
  8
0
 10
66.8884986648216824
 20
86.6690662724057574
 30
0.0
 11
66.4000000000000199
 21
86.5268369746296457
 31
0.0
  0
ARC
  5
3C69
  8
0
 10
68.1294253075721059
 20
80.5034373016559357
 30
0.0
 40
2.5741676088955172
 50
93.6792154522595553
 51
118.8206251110885034
  0
ARC
  5
3C6A
  8
0
 10
68.3335620781197264
 20
83.7119619082199051
 30
0.0
 40
3.2913028558825421
 50
95.8167141344878388
 51
116.0436104417671004
  0
ARC
  5
3C6B
  8
0
 10
68.885919541624844
 20
77.4767033422012901
 30
0.0
 40
5.6470981731988772
 50
110.7142497338138014
 51
116.117398866236897
  0
POLYLINE
  5
3C6C
  8
0
 66
     1
 10
0.0
 20
0.0
 30
0.0
 70
   128
  0
VERTEX
  5
3DE1
  8
0
 10
65.4999999999997868
 20
80.7925792434999721
 30
0.0
  0
VERTEX
  5
3DE2
  8
0
 10
65.6766873932947277
 20
80.8618017884845131
 30
0.0
  0
VERTEX
  5
3DE3
  8
0
 10
65.8999999999999915
 20
80.9580516311377778
 30
0.0
  0
SEQEND
  5
3DE4
  8
0
  0
ARC
  5
3C6D
  8
0
 10
65.1243723223096396
 20
84.0744491103221776
 30
0.0
 40
3.2114687516253522
 50
283.976154361746012
 51
323.3224032091648041
  0
ARC
  5
3C6E
  8
0
 10
66.1129166885886974
 20
83.4018295178624953
 30
0.0
 40
2.0175287880416501
 50
321.8732790212948203
 51
339.283780911671272
  0
LINE
  5
3C6F
  8
0
 10
67.9999999999999858
 20
82.6881496271763012
 30
0.0
 11
67.9999999999999858
 21
83.0300940779454635
 31
0.0
  0
LINE
  5
3C70
  8
0
 10
68.0000000000000142
 20
83.0300940779454208
 30
0.0
 11
67.9642401963811551
 21
83.072299453996493
 31
0.0
  0
LINE
  5
3C71
  8
0
 10
67.9999999999999574
 20
87.0000000000001563
 30
0.0
 11
67.9999999999999858
 21
83.0300940779454208
 31
0.0
  0
LINE
  5
3C72
  8
1
 10
71.9999999999999858
 20
81.3999999999999773
 30
0.0
 11
45.9999999999999787
 21
81.4000000000000057
 31
0.0
  0
ARC
  5
3C74
  8
3
 10
116.677308415593302
 20
136.9499999999999886
 30
0.0
 40
2.0669999999999988
 50
101.1581140683986035
 51
258.8418859316013823
  0
CIRCLE
  5
3C75
  8
0
 10
116.677308415593302
 20
136.9499999999999886
 30
0.0
 40
2.5
  0
ARC
  5
3C76
  8
3
 10
116.677308415593302
 20
136.9499999999999886
 30
0.0
 40
2.0669999999999988
 50
281.1581140683981062
 51
78.8418859316018228
  0
ENDSEC
  0
EOF
