  0
SECTION
  2
HEADER
  9
$ACADVER
  1
AC1009
  9
$INSBASE
 10
0.0
 20
0.0
 30
0.0
  9
$EXTMIN
 10
0.0
 20
-2.960436562073669
 30
0.0
  9
$EXTMAX
 10
139.2000018357661
 20
128.64898686276351
 30
0.0
  9
$LIMMIN
 10
0.0
 20
0.0
  9
$LIMMAX
 10
375.0
 20
270.0
  9
$ORTHOMODE
 70
     0
  9
$REGENMODE
 70
     1
  9
$FILLMODE
 70
     1
  9
$QTEXTMODE
 70
     0
  9
$MIRRTEXT
 70
     0
  9
$DRAGMODE
 70
     2
  9
$LTSCALE
 40
5.0
  9
$OSMODE
 70
    37
  9
$ATTMODE
 70
     1
  9
$TEXTSIZE
 40
0.2
  9
$TRACEWID
 40
0.05
  9
$TEXTSTYLE
  7
STANDARD
  9
$CLAYER
  8
0
  9
$CELTYPE
  6
BYLAYER
  9
$CECOLOR
 62
   256
  9
$DIMSCALE
 40
1.0
  9
$DIMASZ
 40
3.0
  9
$DIMEXO
 40
2.0
  9
$DIMDLI
 40
10.0
  9
$DIMRND
 40
0.0
  9
$DIMDLE
 40
0.0
  9
$DIMEXE
 40
2.0
  9
$DIMTP
 40
0.0
  9
$DIMTM
 40
0.0
  9
$DIMTXT
 40
3.2000000000000002
  9
$DIMCEN
 40
0.09
  9
$DIMTSZ
 40
0.0
  9
$DIMTOL
 70
     0
  9
$DIMLIM
 70
     0
  9
$DIMTIH
 70
     0
  9
$DIMTOH
 70
     0
  9
$DIMSE1
 70
     0
  9
$DIMSE2
 70
     0
  9
$DIMTAD
 70
     1
  9
$DIMZIN
 70
     0
  9
$DIMBLK
  1

  9
$DIMASO
 70
     0
  9
$DIMSHO
 70
     0
  9
$DIMPOST
  1

  9
$DIMAPOST
  1

  9
$DIMALT
 70
     0
  9
$DIMALTD
 70
     2
  9
$DIMALTF
 40
25.399999999999999
  9
$DIMLFAC
 40
1.0
  9
$DIMTOFL
 70
     1
  9
$DIMTVP
 40
1.6000000000000001
  9
$DIMTIX
 70
     0
  9
$DIMSOXD
 70
     0
  9
$DIMSAH
 70
     0
  9
$DIMBLK1
  1

  9
$DIMBLK2
  1

  9
$DIMSTYLE
  2
STANDARD
  9
$DIMCLRD
 70
     0
  9
$DIMCLRE
 70
     0
  9
$DIMCLRT
 70
     0
  9
$DIMTFAC
 40
1.0
  9
$DIMGAP
 40
0.09
  9
$LUNITS
 70
     2
  9
$LUPREC
 70
     1
  9
$SKETCHINC
 40
0.1
  9
$FILLETRAD
 40
0.0
  9
$AUNITS
 70
     0
  9
$AUPREC
 70
     1
  9
$MENU
  1
E:\r13\win\SUPPORT\ACAD
  9
$ELEVATION
 40
0.0
  9
$PELEVATION
 40
0.0
  9
$THICKNESS
 40
0.0
  9
$LIMCHECK
 70
     0
  9
$BLIPMODE
 70
     0
  9
$CHAMFERA
 40
0.0
  9
$CHAMFERB
 40
0.0
  9
$SKPOLY
 70
     0
  9
$TDCREATE
 40
2449840.6171180559
  9
$TDUPDATE
 40
2457711.6222562729
  9
$TDINDWG
 40
0.2798537616
  9
$TDUSRTIMER
 40
0.2798537616
  9
$USRTIMER
 70
     1
  9
$ANGBASE
 50
0.0
  9
$ANGDIR
 70
     0
  9
$PDMODE
 70
     0
  9
$PDSIZE
 40
0.0
  9
$PLINEWID
 40
0.0
  9
$COORDS
 70
     1
  9
$SPLFRAME
 70
     0
  9
$SPLINETYPE
 70
     6
  9
$SPLINESEGS
 70
     8
  9
$ATTDIA
 70
     0
  9
$ATTREQ
 70
     1
  9
$HANDLING
 70
     1
  9
$HANDSEED
  5
1F31
  9
$SURFTAB1
 70
     6
  9
$SURFTAB2
 70
     6
  9
$SURFTYPE
 70
     6
  9
$SURFU
 70
     6
  9
$SURFV
 70
     6
  9
$UCSNAME
  2

  9
$UCSORG
 10
0.0
 20
0.0
 30
0.0
  9
$UCSXDIR
 10
1.0
 20
0.0
 30
0.0
  9
$UCSYDIR
 10
0.0
 20
1.0
 30
0.0
  9
$PUCSNAME
  2

  9
$PUCSORG
 10
0.0
 20
0.0
 30
0.0
  9
$PUCSXDIR
 10
1.0
 20
0.0
 30
0.0
  9
$PUCSYDIR
 10
0.0
 20
1.0
 30
0.0
  9
$USERI1
 70
     0
  9
$USERI2
 70
     1
  9
$USERI3
 70
     0
  9
$USERI4
 70
     0
  9
$USERI5
 70
     0
  9
$USERR1
 40
0.0
  9
$USERR2
 40
0.0
  9
$USERR3
 40
0.0
  9
$USERR4
 40
0.0
  9
$USERR5
 40
0.0
  9
$WORLDVIEW
 70
     1
  9
$SHADEDGE
 70
     3
  9
$SHADEDIF
 70
    70
  9
$TILEMODE
 70
     1
  9
$MAXACTVP
 70
    16
  9
$PLIMCHECK
 70
     0
  9
$PEXTMIN
 10
1.0000000000000000E+020
 20
1.0000000000000000E+020
 30
1.0000000000000000E+020
  9
$PEXTMAX
 10
-1.0000000000000000E+020
 20
-1.0000000000000000E+020
 30
-1.0000000000000000E+020
  9
$PLIMMIN
 10
0.0
 20
0.0
  9
$PLIMMAX
 10
12.0
 20
9.0
  9
$UNITMODE
 70
     0
  9
$VISRETAIN
 70
     0
  9
$PLINEGEN
 70
     0
  9
$PSLTSCALE
 70
     0
  0
ENDSEC
  0
SECTION
  2
TABLES
  0
TABLE
  2
VPORT
 70
     1
  0
VPORT
  2
*ACTIVE
 70
     0
 10
0.0
 20
0.0
 11
1.0
 21
1.0
 12
181.62393162393161
 22
100.0
 13
0.0
 23
0.0
 14
10.0
 24
10.0
 15
10.0
 25
10.0
 16
0.0
 26
0.0
 36
1.0
 17
0.0
 27
0.0
 37
0.0
 40
200.0
 41
1.816239316239316
 42
50.0
 43
0.0
 44
0.0
 50
0.0
 51
0.0
 71
     0
 72
   100
 73
     1
 74
     0
 75
     0
 76
     0
 77
     0
 78
     0
  0
ENDTAB
  0
TABLE
  2
LTYPE
 70
     3
  0
LTYPE
  2
CONTINUOUS
 70
     0
  3
Solid Line
 72
    65
 73
     0
 40
0.0
  0
LTYPE
  2
CENTER
 70
     0
  3
____ _ ____ _ ____ _ ____ _ ____ _ ____ _ ____
 72
    65
 73
     4
 40
2.0
 49
1.25
 49
-0.25
 49
0.25
 49
-0.25
  0
LTYPE
  2
PHANTOM2
 70
     0
  3
___ _ _ ___ _ _ ___ _ _ ___ _ _
 72
    65
 73
     6
 40
1.25
 49
0.625
 49
-0.125
 49
0.125
 49
-0.125
 49
0.125
 49
-0.125
  0
ENDTAB
  0
TABLE
  2
LAYER
 70
     3
  0
LAYER
  2
0
 70
     0
 62
     7
  6
CONTINUOUS
  0
LAYER
  2
1
 70
     0
 62
     1
  6
CENTER
  0
LAYER
  2
3
 70
     0
 62
     3
  6
CONTINUOUS
  0
ENDTAB
  0
TABLE
  2
STYLE
 70
     2
  0
STYLE
  2
STANDARD
 70
     0
 40
0.0
 41
1.0
 50
0.0
 71
     0
 42
0.2
  3
TXT
  4
BIGFONT
  0
STYLE
  2
STANDARD1
 70
     0
 40
0.0
 41
1.0
 50
0.0
 71
     0
 42
3.0
  3
txt
  4

  0
ENDTAB
  0
TABLE
  2
VIEW
 70
     1
  0
VIEW
  2
ALL
 70
     0
 40
270.0
 10
220.99159700000001
 20
135.0
 41
0.0
 11
0.0
 21
0.0
 31
1.0
 12
0.0
 22
0.0
 32
0.0
 42
0.0
 43
0.0
 44
0.0
 50
0.0
 71
     0
  0
ENDTAB
  0
TABLE
  2
UCS
 70
     0
  0
ENDTAB
  0
TABLE
  2
APPID
 70
     6
  0
APPID
  2
ACAD
 70
     0
  0
APPID
  2
ACAD_EXEMPT_FROM_CAD_STANDARDS
 70
     0
  0
APPID
  2
ACAD_MLEADERVER
 70
     0
  0
APPID
  2
ACAD_NAV_VCDISPLAY
 70
     0
  0
APPID
  2
ACAD_DSTYLE_DIMJAG
 70
     0
  0
APPID
  2
ACAD_DSTYLE_DIMTALN
 70
     0
  0
ENDTAB
  0
TABLE
  2
DIMSTYLE
 70
     1
  0
DIMSTYLE
  2
STANDARD
 70
     0
  3

  4

  5

  6

  7

 40
1.0
 41
0.18
 42
0.0625
 43
0.38
 44
0.18
 45
0.0
 46
0.0
 47
0.0
 48
0.0
140
0.18
141
0.09
142
0.0
143
25.399999999999999
144
1.0
145
0.0
146
1.0
147
0.09
 71
     0
 72
     0
 73
     1
 74
     1
 75
     0
 76
     0
 77
     0
 78
     0
170
     0
171
     2
172
     0
173
     0
174
     0
175
     0
176
     0
177
     0
178
     0
  0
ENDTAB
  0
ENDSEC
  0
SECTION
  2
BLOCKS
  0
BLOCK
  8
0
  2
$MODEL_SPACE
 70
     0
 10
0.0
 20
0.0
 30
0.0
  3
$MODEL_SPACE
  1

  0
ENDBLK
  5
E8
  8
0
  0
BLOCK
 67
     1
  8
0
  2
$PAPER_SPACE
 70
     0
 10
0.0
 20
0.0
 30
0.0
  3
$PAPER_SPACE
  1

  0
ENDBLK
  5
E6
 67
     1
  8
0
  0
ENDSEC
  0
SECTION
  2
ENTITIES
  0
TEXT
  5
E87
  8
0
 62
     3
 10
0.0
 20
0.0
 30
0.0
 40
10.0
  1
KCLF03X30
  7
STANDARD1
  0
LINE
  5
F79
  8
0
 10
94.022689993001535
 20
73.301295981509014
 30
0.0
 11
94.005282221296653
 21
72.30143219803665
 31
0.0
  0
LINE
  5
F7A
  8
0
 10
105.9946720906787
 20
72.306622876323274
 30
0.0
 11
105.9773100070453
 21
73.301295981509014
 31
0.0
  0
ARC
  5
F7B
  8
0
 10
105.694717782132
 20
72.301387154392046
 30
0.0
 40
0.2999999999997859
 50
318.18968510419933
 51
1.000000000009003
  0
ARC
  5
F7C
  8
0
 10
94.311265921955339
 20
72.303613087112382
 30
0.0
 40
0.3059528172396612
 50
179.4363477279573
 51
221.373967167828
  0
ARC
  5
F7F
  8
0
 10
104.8999999999734
 20
71.001386766992084
 30
0.0
 40
1.1000000000000001
 50
270.0
 51
0.0
  0
ARC
  5
F80
  8
0
 10
95.099999999973448
 20
71.001386766992084
 30
0.0
 40
1.0999999999999941
 50
180.0
 51
270.0
  0
LINE
  5
F81
  8
0
 10
93.999999947873462
 20
72.101386676892091
 30
0.0
 11
93.999999947873462
 21
71.001387148492086
 31
0.0
  0
LINE
  5
F82
  8
0
 10
106.00000005217341
 20
71.001387148492086
 30
0.0
 11
106.00000005217341
 21
72.101386676892091
 31
0.0
  0
LINE
  5
F83
  8
0
 10
96.985037345523466
 20
73.301387354092071
 30
0.0
 11
94.022689993001535
 21
73.301295981509014
 31
0.0
  0
LINE
  5
F85
  8
0
 10
105.9773100070453
 20
73.301295981509014
 30
0.0
 11
103.0883955769234
 21
73.301387354092071
 31
0.0
  0
LINE
  5
F89
  8
0
 10
95.099999941873463
 20
69.901387154392083
 30
0.0
 11
104.9000000580734
 21
69.901387154392083
 31
0.0
  0
LINE
  5
F8A
  8
0
 10
106.00000005217341
 20
72.101386676892091
 30
0.0
 11
93.999999947873462
 21
72.101386676892091
 31
0.0
  0
CIRCLE
  5
F8C
  8
0
 10
100.00000000002341
 20
78.901387154392083
 30
0.0
 40
3.0000000000000062
  0
LINE
  5
F8E
  8
0
 10
127.3000001908234
 20
79.014926435692075
 30
0.0
 11
129.40000034872341
 21
78.751515262392076
 31
0.0
  0
LINE
  5
F8F
  8
0
 10
126.0000005365235
 20
79.15174383369208
 30
0.0
 11
127.3000001908234
 21
79.014926435692075
 31
0.0
  0
POLYLINE
  5
F92
  8
0
 66
     1
 10
0.0
 20
0.0
 30
0.0
 70
   128
  0
VERTEX
  5
1ED7
  8
0
 10
126.0000005365235
 20
82.764522739992074
 30
0.0
  0
VERTEX
  5
1ED8
  8
0
 10
127.7044158429235
 20
82.592278122292072
 30
0.0
  0
VERTEX
  5
1ED9
  8
0
 10
129.40000034872341
 20
82.351237404492096
 30
0.0
  0
SEQEND
  5
1EDA
  8
0
  0
POLYLINE
  5
F94
  8
0
 66
     1
 10
0.0
 20
0.0
 30
0.0
 70
   128
  0
VERTEX
  5
1EDB
  8
0
 10
121.9999998808234
 20
79.296735711892083
 30
0.0
  0
VERTEX
  5
1EDC
  8
0
 10
123.98807927972349
 20
79.276485557692084
 30
0.0
  0
VERTEX
  5
1EDD
  8
0
 10
126.0000005365235
 20
79.15174383369208
 30
0.0
  0
SEQEND
  5
1EDE
  8
0
  0
POLYLINE
  5
F95
  8
0
 66
     1
 10
0.0
 20
0.0
 30
0.0
 70
   128
  0
VERTEX
  5
1EDF
  8
0
 10
121.9999998808234
 20
82.897131665892076
 30
0.0
  0
VERTEX
  5
1EE0
  8
0
 10
123.9882096648234
 20
82.878601606292065
 30
0.0
  0
VERTEX
  5
1EE1
  8
0
 10
126.0000005365235
 20
82.764522739992074
 30
0.0
  0
SEQEND
  5
1EE2
  8
0
  0
ARC
  5
F97
  8
0
 10
122.60000198242339
 20
40.601341138192083
 30
0.0
 40
38.700046043050001
 50
90.8883443048
 51
95.113287263499714
  0
POLYLINE
  5
F98
  8
0
 66
     1
 10
0.0
 20
0.0
 30
0.0
 70
   128
  0
VERTEX
  5
1EE3
  8
0
 10
119.1508494318235
 20
82.760530392892065
 30
0.0
  0
VERTEX
  5
1EE4
  8
0
 10
120.5508638174235
 20
82.851725033792064
 30
0.0
  0
VERTEX
  5
1EE5
  8
0
 10
121.9999998808234
 20
82.897131665892076
 30
0.0
  0
SEQEND
  5
1EE6
  8
0
  0
ARC
  5
F9A
  8
0
 10
134.80000282142339
 20
78.832409298092074
 30
0.0
 40
0.9999917361353228
 50
258.46282777939962
 51
323.13038115009971
  0
LINE
  5
F9B
  8
0
 10
135.5050861836234
 20
80.884743350892066
 30
0.0
 11
135.5999991298234
 21
80.848933299392087
 31
0.0
  0
ARC
  5
F9C
  8
0
 10
118.4274805801234
 20
-0.213515370707924
 30
0.0
 40
79.72372453013827
 50
78.295918026599821
 51
82.089168155099898
  0
ARC
  5
F9D
  8
0
 10
122.5990269342234
 20
40.597324228992079
 30
0.0
 40
42.304166518753739
 50
72.237159385800226
 51
80.748774395499936
  0
ARC
  5
F9F
  8
0
 10
106.4143178792234
 20
130.98129126489201
 30
0.0
 40
49.70000973123723
 50
277.61458314649991
 51
283.48037275509972
  0
LINE
  5
FA0
  8
0
 10
114.8000000045234
 20
77.901387106892074
 30
0.0
 11
113.0000002682234
 21
77.576403258692082
 31
0.0
  0
ARC
  5
FA1
  8
0
 10
122.69854893712341
 20
59.745043644392069
 30
0.0
 40
19.799997049752079
 50
102.53866751999981
 51
113.5104718785
  0
LINE
  5
FA2
  8
0
 10
118.40000040832339
 20
79.072805121492081
 30
0.0
 11
119.1508494318235
 21
79.147377386092089
 31
0.0
  0
LINE
  5
FA3
  8
0
 10
117.99999922522341
 20
82.650525131592076
 30
0.0
 11
119.1508494318235
 21
82.760530392892065
 31
0.0
  0
ARC
  5
FA4
  8
0
 10
109.4130702488234
 20
70.452164813392073
 30
0.0
 40
6.4000000000000217
 50
125.4623053106999
 51
143.02682913059971
  0
ARC
  5
FA5
  8
0
 10
110.4960669944234
 20
101.14086345139209
 30
0.0
 40
20.000000000000611
 50
245.8075178616003
 51
257.30251695589999
  0
ARC
  5
FA6
  8
0
 10
109.1000000000234
 20
101.20138715439209
 30
0.0
 40
19.7999999999995
 50
261.2852579813997
 51
275.7973395407999
  0
ARC
  5
FA8
  8
0
 10
111.3000000000234
 20
66.901387154392069
 30
0.0
 40
10.39999999999991
 50
100.5266185501001
 51
122.5789703927999
  0
ARC
  5
FA9
  8
0
 10
100.1647897445234
 20
78.077633457692073
 30
0.0
 40
5.599999999999997
 50
291.31101888769967
 51
317.59788106140002
  0
ARC
  5
FAA
  8
0
 10
104.9644747955234
 20
127.2304094835921
 30
0.0
 40
50.299999999996921
 50
275.05899387229999
 51
279.19250125659988
  0
POLYLINE
  5
FAB
  8
0
 66
     1
 10
0.0
 20
0.0
 30
0.0
 70
   128
  0
VERTEX
  5
1EE7
  8
0
 10
102.19999998812339
 20
72.860553729592084
 30
0.0
  0
VERTEX
  5
1EE8
  8
0
 10
101.7241258174234
 20
72.678611017092081
 30
0.0
  0
VERTEX
  5
1EE9
  8
0
 10
101.5475737164234
 20
72.623601983592081
 30
0.0
  0
SEQEND
  5
1EEA
  8
0
  0
ARC
  5
FAC
  8
0
 10
100.00000000002341
 20
77.901387154392069
 30
0.0
 40
5.4999999999999973
 50
65.280148817099871
 51
286.34244809404152
  0
ARC
  5
FAD
  8
0
 10
106.4143229178234
 20
130.98128222509209
 30
0.0
 40
49.7000000000019
 50
275.40983578769999
 51
277.61457847389983
  0
POLYLINE
  5
FAE
  8
0
 66
     1
 10
0.0
 20
0.0
 30
0.0
 70
   128
  0
VERTEX
  5
1EEB
  8
0
 10
135.73979437352341
 20
78.490675092292065
 30
0.0
  0
VERTEX
  5
1EEC
  8
0
 10
135.87415441872341
 20
78.860167937792085
 30
0.0
  0
VERTEX
  5
1EED
  8
0
 10
135.98586842422341
 20
79.167378062192071
 30
0.0
  0
VERTEX
  5
1EEE
  8
0
 10
136.07452288272339
 20
79.411178579792065
 30
0.0
  0
VERTEX
  5
1EEF
  8
0
 10
136.13979369402341
 20
79.590675115392074
 30
0.0
  0
SEQEND
  5
1EF0
  8
0
  0
ARC
  5
FAF
  8
0
 10
135.19987295472339
 20
79.932332606492068
 30
0.0
 40
1.0001288848059799
 50
0.004901889900056
 51
66.417157110900249
  0
ARC
  5
FB0
  8
0
 10
135.19928104002341
 20
79.932549472492084
 30
0.0
 40
1.00072080444247
 50
340.02390158869991
 51
359.99248242939979
  0
LINE
  5
FB1
  8
0
 10
135.73979437352341
 20
78.490675092292065
 30
0.0
 11
135.5999991298234
 21
78.232418149092084
 31
0.0
  0
LINE
  5
FB4
  8
0
 10
106.00000005217341
 20
71.001387148492086
 30
0.0
 11
93.999999947873462
 21
71.001387148492086
 31
0.0
  0
LINE
  5
FBA
  8
0
 10
103.0000000260553
 20
117.7989869264634
 30
0.0
 11
103.0000000260553
 21
121.9989867766634
 31
0.0
  0
LINE
  5
FBB
  8
0
 10
96.999999973855267
 20
121.9989867766634
 30
0.0
 11
96.999999973855267
 21
117.7989869264634
 31
0.0
  0
LINE
  5
FBC
  8
0
 10
94.500000029755284
 20
125.64898686276339
 30
0.0
 11
94.500000029755284
 21
121.9989867766634
 31
0.0
  0
LINE
  5
FBD
  8
0
 10
94.500000029755284
 20
117.7989869264634
 30
0.0
 11
94.500000029755284
 21
114.14898684036341
 31
0.0
  0
ARC
  5
FCF
  8
3
 10
99.999999999955264
 20
119.89898685156339
 30
0.0
 40
1.2294999999653551
 50
284.12284065454651
 51
75.877159345454089
  0
LINE
  5
FD1
  8
0
 10
94.500000029755284
 20
121.9989867766634
 30
0.0
 11
103.49999999755531
 21
121.9989867766634
 31
0.0
  0
LINE
  5
FD2
  8
0
 10
113.00000026611001
 20
125.64898686276339
 30
0.0
 11
94.500000029755284
 21
125.64898686276339
 31
0.0
  0
LINE
  5
FD3
  8
0
 10
94.500000029755284
 20
114.14898684036341
 30
0.0
 11
113.0000002665458
 21
114.14898684036341
 31
0.0
  0
LINE
  5
FD4
  8
0
 10
103.5000004861552
 20
117.7989869264634
 30
0.0
 11
94.500000029755284
 21
117.7989869264634
 31
0.0
  0
POLYLINE
  5
FD6
  8
0
 66
     1
 10
0.0
 20
0.0
 30
0.0
 70
   128
  0
VERTEX
  5
1EF1
  8
0
 10
129.40000034865531
 20
126.7989867718634
 30
0.0
  0
VERTEX
  5
1EF2
  8
0
 10
127.7103353291553
 20
126.98557724966351
 30
0.0
  0
VERTEX
  5
1EF3
  8
0
 10
126.0000005364553
 20
127.0989867278635
 30
0.0
  0
SEQEND
  5
1EF4
  8
0
  0
ARC
  5
FD7
  8
0
 10
127.2990826454552
 20
117.0214278241634
 30
0.0
 40
10.000725682219789
 50
34.861032534700669
 51
77.873163132700157
  0
ARC
  5
FD9
  8
0
 10
127.2991313877553
 20
122.7764726072634
 30
0.0
 40
10.00064380597245
 50
282.12665203189988
 51
325.13915230080028
  0
POLYLINE
  5
FDA
  8
0
 66
     1
 10
0.0
 20
0.0
 30
0.0
 70
   128
  0
VERTEX
  5
1EF5
  8
0
 10
126.0000005364553
 20
112.6989869752634
 30
0.0
  0
VERTEX
  5
1EF6
  8
0
 10
127.7044158428553
 20
112.81187398146351
 30
0.0
  0
VERTEX
  5
1EF7
  8
0
 10
129.40000034865531
 20
112.9989869312634
 30
0.0
  0
SEQEND
  5
1EF8
  8
0
  0
POLYLINE
  5
FDB
  8
0
 66
     1
 10
0.0
 20
0.0
 30
0.0
 70
   128
  0
VERTEX
  5
1EF9
  8
0
 10
121.9999998807552
 20
112.9989869312634
 30
0.0
  0
VERTEX
  5
1EFA
  8
0
 10
123.9882096647553
 20
112.7750685790634
 30
0.0
  0
VERTEX
  5
1EFB
  8
0
 10
126.0000005364553
 20
112.6989869752634
 30
0.0
  0
SEQEND
  5
1EFC
  8
0
  0
POLYLINE
  5
FDC
  8
0
 66
     1
 10
0.0
 20
0.0
 30
0.0
 70
   128
  0
VERTEX
  5
1EFD
  8
0
 10
119.1508494317552
 20
113.7989869692635
 30
0.0
  0
VERTEX
  5
1EFE
  8
0
 10
120.55086381735531
 20
113.3388731048635
 30
0.0
  0
VERTEX
  5
1EFF
  8
0
 10
121.9999998807552
 20
112.9989869312634
 30
0.0
  0
SEQEND
  5
1F00
  8
0
  0
LINE
  5
FDD
  8
0
 10
117.99999922515519
 20
113.9430337005634
 30
0.0
 11
119.1508494317552
 21
113.7989869692635
 31
0.0
  0
LINE
  5
FDF
  8
0
 10
119.1508494317552
 20
125.9989867338634
 30
0.0
 11
117.99999922515519
 21
125.8549400025634
 31
0.0
  0
POLYLINE
  5
FE0
  8
0
 66
     1
 10
0.0
 20
0.0
 30
0.0
 70
   128
  0
VERTEX
  5
1F01
  8
0
 10
121.9999998807552
 20
126.7989867718634
 30
0.0
  0
VERTEX
  5
1F02
  8
0
 10
120.56309394535521
 20
126.4625357815635
 30
0.0
  0
VERTEX
  5
1F03
  8
0
 10
119.1508494317552
 20
125.9989867338634
 30
0.0
  0
SEQEND
  5
1F04
  8
0
  0
POLYLINE
  5
FE1
  8
0
 66
     1
 10
0.0
 20
0.0
 30
0.0
 70
   128
  0
VERTEX
  5
1F05
  8
0
 10
126.0000005364553
 20
127.0989867278635
 30
0.0
  0
VERTEX
  5
1F06
  8
0
 10
124.0037720650553
 20
127.02407160566349
 30
0.0
  0
VERTEX
  5
1F07
  8
0
 10
121.9999998807552
 20
126.7989867718634
 30
0.0
  0
SEQEND
  5
1F08
  8
0
  0
ARC
  5
FE3
  8
0
 10
103.5000004861552
 20
117.9989864413634
 30
0.0
 40
0.1999995149041519
 50
269.99989165900001
 51
0.0001083409995516
  0
LINE
  5
FE4
  8
0
 10
103.7000000010553
 20
117.9989868195635
 30
0.0
 11
103.7000000010553
 21
121.7989868835634
 31
0.0
  0
ARC
  5
FE5
  8
0
 10
103.49999999755531
 20
121.79898677316341
 30
0.0
 40
0.2000000035157562
 50
0.0000316363010016
 51
89.999968363699793
  0
ARC
  5
FEB
  8
0
 10
113.98072150215521
 20
77.161942153263453
 30
0.0
 40
37.000044443588273
 50
83.763710700800289
 51
91.518856806099905
  0
ARC
  5
FEC
  8
0
 10
113.9807233760552
 20
162.63598605636341
 30
0.0
 40
36.999999015753353
 50
268.48113842579983
 51
276.23629406730032
  0
ARC
  5
FF1
  8
0
 10
129.69966449785531
 20
119.8711282670634
 30
0.0
 40
6.5003970345949451
 50
0.245551801800319
 51
24.812172430700549
  0
ARC
  5
FF2
  8
0
 10
129.69710831365521
 20
119.9274134796635
 30
0.0
 40
6.5029556537112621
 50
335.19273587929962
 51
359.7495398881
  0
LINE
  5
FF3
  8
0
 10
135.50508618355519
 20
117.06025161576341
 30
0.0
 11
135.59999912975519
 21
117.19898678156351
 31
0.0
  0
LINE
  5
FF4
  8
0
 10
135.50508618355519
 20
122.7377220874634
 30
0.0
 11
135.59999912975519
 21
122.59898692156349
 31
0.0
  0
ARC
  5
FF6
  8
0
 10
44.305282217915313
 20
72.301387541792209
 30
0.0
 40
0.3000000000002638
 50
179.0000000000183
 51
221.81031489576341
  0
ARC
  5
FF9
  8
0
 10
54.900000000023432
 20
71.001387541792099
 30
0.0
 40
1.1000000000000041
 50
270.0
 51
0.0
  0
ARC
  5
FFA
  8
0
 10
45.100000000023428
 20
71.001387541792099
 30
0.0
 40
1.0999999999999981
 50
180.0
 51
270.0
  0
LINE
  5
FFB
  8
0
 10
44.000000000023441
 20
72.101387541792093
 30
0.0
 11
44.000000000023441
 21
71.001387541792099
 31
0.0
  0
LINE
  5
FFC
  8
0
 10
56.000000000023441
 20
71.001387541792099
 30
0.0
 11
56.000000000023441
 21
72.101387541792093
 31
0.0
  0
LINE
  5
FFD
  8
0
 10
48.500000000023441
 20
81.90138754179209
 30
0.0
 11
47.900000000023432
 21
81.90138754179209
 31
0.0
  0
LINE
  5
FFE
  8
0
 10
52.100000000023442
 20
81.90138754179209
 30
0.0
 11
51.499999726668001
 21
81.901387541792104
 31
0.0
  0
LINE
  5
1000
  8
0
 10
47.900000000023432
 20
75.901387541792076
 30
0.0
 11
52.100000000023442
 21
75.901387541792076
 31
0.0
  0
LINE
  5
1001
  8
0
 10
47.900000000023432
 20
83.40138754179209
 30
0.0
 11
44.250000000023441
 21
83.40138754179209
 31
0.0
  0
LINE
  5
1002
  8
0
 10
55.750000000023441
 20
83.40138754179209
 30
0.0
 11
52.100000000023442
 21
83.40138754179209
 31
0.0
  0
LINE
  5
1003
  8
0
 10
57.03028668312345
 20
82.901387541792076
 30
0.0
 11
55.750000000023441
 21
82.901387541792076
 31
0.0
  0
LINE
  5
1004
  8
0
 10
52.100000000023442
 20
82.901387541792076
 30
0.0
 11
47.900000000023432
 21
82.901387541792076
 31
0.0
  0
LINE
  5
1005
  8
0
 10
44.250000000023441
 20
82.901387541792076
 30
0.0
 11
42.968623356923437
 21
82.901387541792076
 31
0.0
  0
LINE
  5
100A
  8
0
 10
55.219276185423439
 20
73.301387541792081
 30
0.0
 11
44.780723814523441
 21
73.301387541792081
 31
0.0
  0
LINE
  5
100C
  8
0
 10
44.780723814523441
 20
73.301387541792081
 30
0.0
 11
44.007029730766021
 21
72.404120546310381
 31
0.0
  0
LINE
  5
100D
  8
0
 10
45.100000000023428
 20
69.901387541792104
 30
0.0
 11
54.900000000023432
 21
69.901387541792104
 31
0.0
  0
LINE
  5
100E
  8
0
 10
56.000000000023441
 20
72.101387541792093
 30
0.0
 11
44.000000000023441
 21
72.101387541792093
 31
0.0
  0
ARC
  5
100F
  8
0
 10
49.99999989314685
 20
85.225762685572434
 30
0.0
 40
3.6471180096008431
 50
245.7145047344309
 51
294.28549894961651
  0
LINE
  5
1015
  8
0
 10
44.250000000023441
 20
83.40138754179209
 30
0.0
 11
44.250000000023441
 21
72.685056816573194
 31
0.0
  0
LINE
  5
1016
  8
0
 10
47.900000000023432
 20
73.301387541792081
 30
0.0
 11
47.900000000023432
 21
83.40138754179209
 31
0.0
  0
LINE
  5
1017
  8
0
 10
52.100000000023442
 20
83.40138754179209
 30
0.0
 11
52.100000000023442
 21
73.301387541792081
 31
0.0
  0
LINE
  5
1018
  8
0
 10
55.750000000023441
 20
72.685056816457049
 30
0.0
 11
55.750000000023441
 21
83.40138754179209
 31
0.0
  0
ARC
  5
101F
  8
3
 10
42.248332550423427
 20
81.728729291092094
 30
0.0
 40
2.0184888815781941
 50
7.4021520156999454
 51
27.172846723400159
  0
ARC
  5
1023
  8
3
 10
57.758812399023441
 20
81.726507313492093
 30
0.0
 40
2.0258603966884081
 50
152.86352942000011
 51
172.56168462299979
  0
LINE
  5
1024
  8
3
 10
55.955953335123439
 20
82.650525463992096
 30
0.0
 11
56.100000000023442
 21
82.760530831792096
 31
0.0
  0
LINE
  5
1026
  8
3
 10
56.001867337123443
 20
79.072805503692081
 30
0.0
 11
56.100000000023442
 21
79.147377773592098
 31
0.0
  0
ARC
  5
1027
  8
3
 10
58.497029012523441
 20
77.923481312092093
 30
0.0
 40
2.7471399460956771
 50
155.26820384140001
 51
172.2499770367327
  0
LINE
  5
1028
  8
3
 10
43.900000000023439
 20
82.760530831792096
 30
0.0
 11
44.044046664823441
 21
82.650525463992096
 31
0.0
  0
ARC
  5
1029
  8
3
 10
41.497094701223453
 20
77.922158696192085
 30
0.0
 40
2.753030868211463
 50
7.7661838930103171
 51
24.705632106400191
  0
LINE
  5
102A
  8
3
 10
43.99813266282343
 20
79.072805503692081
 30
0.0
 11
43.900000000023439
 21
79.147377773592098
 31
0.0
  0
POLYLINE
  5
102C
  8
0
 66
     1
 10
0.0
 20
0.0
 30
0.0
 70
   128
  0
VERTEX
  5
1F09
  8
0
 10
57.03028668312345
 20
82.901387541792076
 30
0.0
  0
VERTEX
  5
1F0A
  8
0
 10
57.123918335223429
 20
82.878602115992095
 30
0.0
  0
VERTEX
  5
1F0B
  8
0
 10
57.180705059723437
 20
82.833639594692087
 30
0.0
  0
VERTEX
  5
1F0C
  8
0
 10
57.200000000023429
 20
82.764523098792097
 30
0.0
  0
SEQEND
  5
1F0D
  8
0
  0
POLYLINE
  5
102D
  8
3
 66
     1
 10
0.0
 20
0.0
 30
0.0
 70
   128
  0
VERTEX
  5
1F0E
  8
3
 10
56.100000000023442
 20
82.760530831792096
 30
0.0
  0
VERTEX
  5
1F0F
  8
3
 10
56.560113965223451
 20
82.851725309992105
 30
0.0
  0
VERTEX
  5
1F10
  8
3
 10
56.900000000023439
 20
82.897132008592095
 30
0.0
  0
SEQEND
  5
1F11
  8
3
  0
POLYLINE
  5
102E
  8
3
 66
     1
 10
0.0
 20
0.0
 30
0.0
 70
   128
  0
VERTEX
  5
1F12
  8
3
 10
43.100000000023442
 20
82.897132008592095
 30
0.0
  0
VERTEX
  5
1F13
  8
3
 10
43.436450998423432
 20
82.852316726992072
 30
0.0
  0
VERTEX
  5
1F14
  8
3
 10
43.900000000023439
 20
82.760530831792096
 30
0.0
  0
SEQEND
  5
1F15
  8
3
  0
POLYLINE
  5
102F
  8
0
 66
     1
 10
0.0
 20
0.0
 30
0.0
 70
   128
  0
VERTEX
  5
1F16
  8
0
 10
42.800000000023452
 20
82.764523098792097
 30
0.0
  0
VERTEX
  5
1F17
  8
0
 10
42.818928410123448
 20
82.833086802192085
 30
0.0
  0
VERTEX
  5
1F18
  8
0
 10
42.874915388323437
 20
82.878088239192095
 30
0.0
  0
VERTEX
  5
1F19
  8
0
 10
42.968623356923437
 20
82.901387541792076
 30
0.0
  0
SEQEND
  5
1F1A
  8
0
  0
POLYLINE
  5
1030
  8
3
 66
     1
 10
0.0
 20
0.0
 30
0.0
 70
   128
  0
VERTEX
  5
1F1B
  8
3
 10
56.100000000023442
 20
79.147377773592098
 30
0.0
  0
VERTEX
  5
1F1C
  8
3
 10
56.560020837223448
 20
79.247081796992077
 30
0.0
  0
VERTEX
  5
1F1D
  8
3
 10
56.900000000023439
 20
79.29673609949208
 30
0.0
  0
SEQEND
  5
1F1E
  8
3
  0
POLYLINE
  5
1031
  8
3
 66
     1
 10
0.0
 20
0.0
 30
0.0
 70
   128
  0
VERTEX
  5
1F1F
  8
3
 10
56.900000000023439
 20
79.29673609949208
 30
0.0
  0
VERTEX
  5
1F20
  8
3
 10
57.12390848652344
 20
79.276485933292093
 30
0.0
  0
VERTEX
  5
1F21
  8
3
 10
57.200000000023429
 20
79.151744219792079
 30
0.0
  0
SEQEND
  5
1F22
  8
3
  0
LINE
  5
1032
  8
0
 10
57.200000000023429
 20
79.151744219792079
 30
0.0
 11
57.12068927332345
 21
79.014926821592084
 31
0.0
  0
LINE
  5
1033
  8
0
 10
42.879310726623437
 20
79.014926821592084
 30
0.0
 11
42.800000000023452
 21
79.151744219792079
 31
0.0
  0
POLYLINE
  5
1034
  8
3
 66
     1
 10
0.0
 20
0.0
 30
0.0
 70
   128
  0
VERTEX
  5
1F23
  8
3
 10
42.800000000023452
 20
79.151744219792079
 30
0.0
  0
VERTEX
  5
1F24
  8
3
 10
42.874859824723437
 20
79.275892467092063
 30
0.0
  0
VERTEX
  5
1F25
  8
3
 10
43.100000000023442
 20
79.29673609949208
 30
0.0
  0
SEQEND
  5
1F26
  8
3
  0
POLYLINE
  5
1035
  8
3
 66
     1
 10
0.0
 20
0.0
 30
0.0
 70
   128
  0
VERTEX
  5
1F27
  8
3
 10
43.100000000023442
 20
79.29673609949208
 30
0.0
  0
VERTEX
  5
1F28
  8
3
 10
43.43646834252344
 20
79.247742674792065
 30
0.0
  0
VERTEX
  5
1F29
  8
3
 10
43.900000000023439
 20
79.147377773592098
 30
0.0
  0
SEQEND
  5
1F2A
  8
3
  0
LINE
  5
1038
  8
0
 10
57.200000000023429
 20
82.764523098792097
 30
0.0
 11
57.200000000023429
 21
79.151744219792079
 31
0.0
  0
LINE
  5
1039
  8
0
 10
42.800000000023452
 20
82.764523098792097
 30
0.0
 11
42.800000000023452
 21
79.151744219792079
 31
0.0
  0
ARC
  5
103A
  8
0
 10
54.544417809123438
 20
82.931233499392093
 30
0.0
 40
4.7977920729964882
 50
284.86162541618842
 51
299.40449686989979
  0
ARC
  5
103B
  8
0
 10
45.532948587223437
 20
83.123583131492083
 30
0.0
 40
5.0034201211315477
 50
240.90513256589981
 51
254.84470990112121
  0
LINE
  5
103C
  8
0
 10
57.12068927332345
 20
79.014926821592084
 30
0.0
 11
56.900000000023439
 21
78.751515647992079
 31
0.0
  0
LINE
  5
103D
  8
0
 10
43.100000000023442
 20
78.751515647992079
 30
0.0
 11
42.879310726623437
 21
79.014926821592084
 31
0.0
  0
LINE
  5
103E
  8
0
 10
56.000000000023441
 20
71.001387541792099
 30
0.0
 11
44.000000000023441
 21
71.001387541792099
 31
0.0
  0
ARC
  5
1096
  8
0
 10
99.999999999955264
 20
119.89898685156339
 30
0.0
 40
6.000000052200007
 50
73.40215656622145
 51
106.59784343377849
  0
ARC
  5
1097
  8
0
 10
99.999999999955264
 20
119.89898685156339
 30
0.0
 40
6.000000052200007
 50
253.40215656622141
 51
286.59784343377851
  0
ARC
  5
1098
  8
0
 10
99.999999999955264
 20
119.89898685156339
 30
0.0
 40
6.0000000521999928
 50
156.44353383552999
 51
203.5564661644699
  0
LINE
  5
10A0
  8
1
 10
90.999999947755285
 20
119.89898685156339
 30
0.0
 11
139.2000018357661
 21
119.8989868516075
 31
0.0
  0
LINE
  5
10A1
  8
1
 10
99.999999999955264
 20
128.64898686276351
 30
0.0
 11
99.999999999955307
 21
111.14898684036341
 31
0.0
  0
CIRCLE
  5
10A8
  8
0
 10
99.999999999955264
 20
119.89898685156339
 30
0.0
 40
1.5
  0
LINE
  5
10BF
  8
1
 10
39.800000000023452
 20
78.901387541792076
 30
0.0
 11
60.200000000023437
 21
78.901387541792076
 31
0.0
  0
POLYLINE
  5
10C1
  8
3
 66
     1
 10
0.0
 20
0.0
 30
0.0
 70
   128
  0
VERTEX
  5
1F2B
  8
3
 10
56.900000000023439
 20
82.897132008592095
 30
0.0
  0
VERTEX
  5
1F2C
  8
3
 10
57.03028668312345
 20
82.901387541792076
 30
0.0
  0
SEQEND
  5
1F2D
  8
3
  0
POLYLINE
  5
10C3
  8
3
 66
     1
 10
0.0
 20
0.0
 30
0.0
 70
   128
  0
VERTEX
  5
1F2E
  8
3
 10
42.968623356923437
 20
82.901387541792076
 30
0.0
  0
VERTEX
  5
1F2F
  8
3
 10
43.100000000023442
 20
82.897132008592095
 30
0.0
  0
SEQEND
  5
1F30
  8
3
  0
LINE
  5
10C7
  8
1
 10
100.00000000002341
 20
36.901387541790861
 30
0.0
 11
100.00000000002341
 21
86.401387154392054
 31
0.0
  0
LINE
  5
10C9
  8
1
 10
108.50000000002341
 20
77.901387154392069
 30
0.0
 11
91.500000000023448
 21
77.901387154392069
 31
0.0
  0
LINE
  5
10CB
  8
1
 10
108.50000000002341
 20
78.901387154392083
 30
0.0
 11
91.500000000023448
 21
78.901387154392083
 31
0.0
  0
ARC
  5
10D6
  8
0
 10
58.497029012523441
 20
77.923481312092093
 30
0.0
 40
2.7471399460956771
 50
172.2499770367327
 51
179.48509124979989
  0
ARC
  5
10D8
  8
0
 10
41.497094701223453
 20
77.922158696192085
 30
0.0
 40
2.753030868211463
 50
0.5472372592998127
 51
7.7661838930103171
  0
LINE
  5
13B9
  8
0
 10
101.4999999999735
 20
69.901387154392083
 30
0.0
 11
101.4999999999735
 21
40.207887154442048
 31
0.0
  0
LINE
  5
13BA
  8
0
 10
101.19350000002341
 20
39.901387154392083
 30
0.0
 11
98.806500000023448
 21
39.901387154392083
 31
0.0
  0
LINE
  5
13BB
  8
0
 10
98.499999999973497
 20
40.207887154442048
 30
0.0
 11
98.499999999973511
 21
69.901387154392083
 31
0.0
  0
LINE
  5
13BC
  8
0
 10
101.4999999999735
 20
40.207887154442048
 30
0.0
 11
101.19350000002341
 21
39.901387154392083
 31
0.0
  0
LINE
  5
13BD
  8
0
 10
98.806500000023448
 20
39.901387154392083
 30
0.0
 11
98.499999999973497
 21
40.207887154442048
 31
0.0
  0
LINE
  5
13BE
  8
0
 10
98.499999999973511
 20
40.207887154442027
 30
0.0
 11
101.4999999999735
 21
40.207887154442083
 31
0.0
  0
LINE
  5
13C0
  8
3
 10
101.2294999999741
 20
69.901387154392083
 30
0.0
 11
101.22949999997419
 21
39.937387154442817
 31
0.0
  0
LINE
  5
13C3
  8
3
 10
98.770499999972728
 20
69.901387154392083
 30
0.0
 11
98.770499999972728
 21
39.937387154442817
 31
0.0
  0
LINE
  5
142D
  8
1
 10
50.000000000023448
 20
36.901387541790861
 30
0.0
 11
50.000000000023427
 21
86.401387154392054
 31
0.0
  0
LINE
  5
142E
  8
0
 10
51.500000000023427
 20
69.901387541792104
 30
0.0
 11
51.500000000023427
 21
40.207887541792132
 31
0.0
  0
LINE
  5
142F
  8
0
 10
51.193500000023413
 20
39.901387541792097
 30
0.0
 11
48.806500000023441
 21
39.901387541792097
 31
0.0
  0
LINE
  5
1430
  8
0
 10
48.500000000023448
 20
40.207887541792132
 30
0.0
 11
48.500000000023448
 21
69.901387541792104
 31
0.0
  0
LINE
  5
1431
  8
0
 10
51.500000000023427
 20
40.207887541792132
 30
0.0
 11
51.193500000023413
 21
39.901387541792097
 31
0.0
  0
LINE
  5
1432
  8
0
 10
48.806500000023441
 20
39.901387541792097
 30
0.0
 11
48.500000000023448
 21
40.207887541792132
 31
0.0
  0
LINE
  5
1433
  8
0
 10
48.500000000023462
 20
40.207887541792097
 30
0.0
 11
51.500000000023427
 21
40.207887541792161
 31
0.0
  0
LINE
  5
1435
  8
3
 10
51.22950000002416
 20
69.901387541792104
 30
0.0
 11
51.229500000024167
 21
39.937387541792901
 31
0.0
  0
LINE
  5
1438
  8
3
 10
48.770500000022693
 20
69.901387541792104
 30
0.0
 11
48.770500000022693
 21
39.937387541792901
 31
0.0
  0
LINE
  5
1439
  8
0
 10
48.500000000023391
 20
73.301387541792053
 30
0.0
 11
48.500000000023412
 21
75.901387541792076
 31
0.0
  0
LINE
  5
143A
  8
0
 10
49.100000000023442
 20
81.901387154392097
 30
0.0
 11
50.900000000023432
 21
81.901387154392097
 31
0.0
  0
LINE
  5
143B
  8
0
 10
51.500000000023398
 20
75.901387541792076
 30
0.0
 11
51.500000000023391
 21
73.301387541792081
 31
0.0
  0
LINE
  5
143C
  8
0
 10
48.935932985793322
 20
81.737320140161955
 30
0.0
 11
49.100000000023442
 21
81.901387154392097
 31
0.0
  0
LINE
  5
143D
  8
0
 10
50.900000000023432
 20
81.901387154392097
 30
0.0
 11
51.0640669642926
 21
81.737320190122915
 31
0.0
  0
ARC
  5
1444
  8
0
 10
50.000000429310838
 20
72.577013896468699
 30
0.0
 40
3.6471165111439059
 50
65.71449966939258
 51
114.2855151281977
  0
LINE
  5
1445
  8
3
 10
48.770500000022679
 20
75.901387154392083
 30
0.0
 11
48.770500000022672
 21
76.010639901181321
 31
0.0
  0
LINE
  5
1446
  8
3
 10
51.229500000024167
 20
75.901387154392069
 30
0.0
 11
51.229500000024153
 21
76.010640208616593
 31
0.0
  0
LINE
  5
1AC6
  8
0
 10
99.699999999955295
 20
121.3686806972333
 30
0.0
 11
99.699999999955295
 21
118.4292930058935
 31
0.0
  0
LINE
  5
1AC7
  8
0
 10
100.2999999999553
 20
121.3686806972333
 30
0.0
 11
100.2999999999553
 21
118.4292930058935
 31
0.0
  0
ARC
  5
1AC8
  8
3
 10
99.999999999955264
 20
119.89898685156339
 30
0.0
 40
1.2294999999653551
 50
104.1228406545444
 51
255.87715934545551
  0
LINE
  5
1D42
  8
0
 10
44.007029730766021
 20
72.404120546310381
 30
0.0
 11
44.005327909368127
 21
72.306623263723282
 31
0.0
  0
ARC
  5
1D43
  8
0
 10
55.694717782131569
 20
72.301387541792209
 30
0.0
 40
0.3000000000002638
 50
318.18968510423667
 51
0.9999999999816569
  0
LINE
  5
1D44
  8
0
 10
55.219276185523441
 20
73.301387541792081
 30
0.0
 11
55.99297026928086
 21
72.404120546310381
 31
0.0
  0
LINE
  5
1D45
  8
0
 10
55.99297026928086
 20
72.404120546310381
 30
0.0
 11
55.994672090678748
 21
72.306623263723282
 31
0.0
  0
ARC
  5
1D62
  8
0
 10
48.087452457505258
 20
73.544311484985045
 30
0.0
 40
0.1906620695522777
 50
86.226616089764377
 51
169.4720725309036
  0
ARC
  5
1D64
  8
0
 10
51.918770838187733
 20
73.552320257781361
 30
0.0
 40
0.1832041234422628
 50
8.4205460552160183
 51
95.880765324114265
  0
LINE
  5
1D66
  8
0
 10
51.900000000023418
 20
73.734560227274471
 30
0.0
 11
51.500000000023419
 21
73.734560227274471
 31
0.0
  0
LINE
  5
1D67
  8
0
 10
48.500000000023419
 20
73.734560227274471
 30
0.0
 11
48.100000000023407
 21
73.734560227274471
 31
0.0
  0
ENDSEC
  0
EOF
