  0
SECTION
  2
HEADER
  9
$ACADVER
  1
AC1009
  9
$INSBASE
 10
0.0
 20
0.0
 30
0.0
  9
$EXTMIN
 10
0.0
 20
-2.960436562073669
 30
0.0
  9
$EXTMAX
 10
139.20000183584619
 20
114.2475993209714
 30
0.0
  9
$LIMMIN
 10
0.0
 20
0.0
  9
$LIMMAX
 10
375.0
 20
270.0
  9
$ORTHOMODE
 70
     1
  9
$REGENMODE
 70
     1
  9
$FILLMODE
 70
     1
  9
$QTEXTMODE
 70
     0
  9
$MIRRTEXT
 70
     0
  9
$DRAGMODE
 70
     2
  9
$LTSCALE
 40
5.0
  9
$OSMODE
 70
    37
  9
$ATTMODE
 70
     1
  9
$TEXTSIZE
 40
0.2
  9
$TRACEWID
 40
0.05
  9
$TEXTSTYLE
  7
STANDARD
  9
$CLAYER
  8
0
  9
$CELTYPE
  6
BYLAYER
  9
$CECOLOR
 62
   256
  9
$DIMSCALE
 40
1.0
  9
$DIMASZ
 40
3.0
  9
$DIMEXO
 40
2.0
  9
$DIMDLI
 40
10.0
  9
$DIMRND
 40
0.0
  9
$DIMDLE
 40
0.0
  9
$DIMEXE
 40
2.0
  9
$DIMTP
 40
0.0
  9
$DIMTM
 40
0.0
  9
$DIMTXT
 40
3.2000000000000002
  9
$DIMCEN
 40
0.09
  9
$DIMTSZ
 40
0.0
  9
$DIMTOL
 70
     0
  9
$DIMLIM
 70
     0
  9
$DIMTIH
 70
     0
  9
$DIMTOH
 70
     0
  9
$DIMSE1
 70
     0
  9
$DIMSE2
 70
     0
  9
$DIMTAD
 70
     1
  9
$DIMZIN
 70
     0
  9
$DIMBLK
  1

  9
$DIMASO
 70
     0
  9
$DIMSHO
 70
     0
  9
$DIMPOST
  1

  9
$DIMAPOST
  1

  9
$DIMALT
 70
     0
  9
$DIMALTD
 70
     2
  9
$DIMALTF
 40
25.399999999999999
  9
$DIMLFAC
 40
1.0
  9
$DIMTOFL
 70
     1
  9
$DIMTVP
 40
1.6000000000000001
  9
$DIMTIX
 70
     0
  9
$DIMSOXD
 70
     0
  9
$DIMSAH
 70
     0
  9
$DIMBLK1
  1

  9
$DIMBLK2
  1

  9
$DIMSTYLE
  2
STANDARD
  9
$DIMCLRD
 70
     0
  9
$DIMCLRE
 70
     0
  9
$DIMCLRT
 70
     0
  9
$DIMTFAC
 40
1.0
  9
$DIMGAP
 40
0.09
  9
$LUNITS
 70
     2
  9
$LUPREC
 70
     4
  9
$SKETCHINC
 40
0.1
  9
$FILLETRAD
 40
0.0
  9
$AUNITS
 70
     0
  9
$AUPREC
 70
     0
  9
$MENU
  1
E:\r13\win\SUPPORT\ACAD
  9
$ELEVATION
 40
0.0
  9
$PELEVATION
 40
0.0
  9
$THICKNESS
 40
0.0
  9
$LIMCHECK
 70
     0
  9
$BLIPMODE
 70
     0
  9
$CHAMFERA
 40
0.0
  9
$CHAMFERB
 40
0.0
  9
$SKPOLY
 70
     0
  9
$TDCREATE
 40
2449840.6171180559
  9
$TDUPDATE
 40
2457711.6222671298
  9
$TDINDWG
 40
0.1791032755
  9
$TDUSRTIMER
 40
0.1791032755
  9
$USRTIMER
 70
     1
  9
$ANGBASE
 50
0.0
  9
$ANGDIR
 70
     0
  9
$PDMODE
 70
     0
  9
$PDSIZE
 40
0.0
  9
$PLINEWID
 40
0.0
  9
$COORDS
 70
     1
  9
$SPLFRAME
 70
     0
  9
$SPLINETYPE
 70
     6
  9
$SPLINESEGS
 70
     8
  9
$ATTDIA
 70
     0
  9
$ATTREQ
 70
     1
  9
$HANDLING
 70
     1
  9
$HANDSEED
  5
1DD9
  9
$SURFTAB1
 70
     6
  9
$SURFTAB2
 70
     6
  9
$SURFTYPE
 70
     6
  9
$SURFU
 70
     6
  9
$SURFV
 70
     6
  9
$UCSNAME
  2

  9
$UCSORG
 10
0.0
 20
0.0
 30
0.0
  9
$UCSXDIR
 10
1.0
 20
0.0
 30
0.0
  9
$UCSYDIR
 10
0.0
 20
1.0
 30
0.0
  9
$PUCSNAME
  2

  9
$PUCSORG
 10
0.0
 20
0.0
 30
0.0
  9
$PUCSXDIR
 10
1.0
 20
0.0
 30
0.0
  9
$PUCSYDIR
 10
0.0
 20
1.0
 30
0.0
  9
$USERI1
 70
     0
  9
$USERI2
 70
     1
  9
$USERI3
 70
     0
  9
$USERI4
 70
     0
  9
$USERI5
 70
     0
  9
$USERR1
 40
0.0
  9
$USERR2
 40
0.0
  9
$USERR3
 40
0.0
  9
$USERR4
 40
0.0
  9
$USERR5
 40
0.0
  9
$WORLDVIEW
 70
     1
  9
$SHADEDGE
 70
     3
  9
$SHADEDIF
 70
    70
  9
$TILEMODE
 70
     1
  9
$MAXACTVP
 70
    16
  9
$PLIMCHECK
 70
     0
  9
$PEXTMIN
 10
1.0000000000000000E+020
 20
1.0000000000000000E+020
 30
1.0000000000000000E+020
  9
$PEXTMAX
 10
-1.0000000000000000E+020
 20
-1.0000000000000000E+020
 30
-1.0000000000000000E+020
  9
$PLIMMIN
 10
0.0
 20
0.0
  9
$PLIMMAX
 10
12.0
 20
9.0
  9
$UNITMODE
 70
     0
  9
$VISRETAIN
 70
     0
  9
$PLINEGEN
 70
     0
  9
$PSLTSCALE
 70
     0
  0
ENDSEC
  0
SECTION
  2
TABLES
  0
TABLE
  2
VPORT
 70
     1
  0
VPORT
  2
*ACTIVE
 70
     0
 10
0.0
 20
0.0
 11
1.0
 21
1.0
 12
181.62840721608049
 22
100.0
 13
0.0
 23
0.0
 14
10.0
 24
10.0
 15
10.0
 25
10.0
 16
0.0
 26
0.0
 36
1.0
 17
0.0
 27
0.0
 37
0.0
 40
200.0492841676631
 41
1.816239316239316
 42
50.0
 43
0.0
 44
0.0
 50
0.0
 51
0.0
 71
     0
 72
   100
 73
     1
 74
     0
 75
     0
 76
     0
 77
     0
 78
     0
  0
ENDTAB
  0
TABLE
  2
LTYPE
 70
     3
  0
LTYPE
  2
CONTINUOUS
 70
     0
  3
Solid Line
 72
    65
 73
     0
 40
0.0
  0
LTYPE
  2
CENTER
 70
     0
  3
____ _ ____ _ ____ _ ____ _ ____ _ ____ _ ____
 72
    65
 73
     4
 40
2.0
 49
1.25
 49
-0.25
 49
0.25
 49
-0.25
  0
LTYPE
  2
PHANTOM2
 70
     0
  3
___ _ _ ___ _ _ ___ _ _ ___ _ _
 72
    65
 73
     6
 40
1.25
 49
0.625
 49
-0.125
 49
0.125
 49
-0.125
 49
0.125
 49
-0.125
  0
ENDTAB
  0
TABLE
  2
LAYER
 70
     3
  0
LAYER
  2
0
 70
     0
 62
     7
  6
CONTINUOUS
  0
LAYER
  2
1
 70
     0
 62
     1
  6
CENTER
  0
LAYER
  2
3
 70
     0
 62
     3
  6
CONTINUOUS
  0
ENDTAB
  0
TABLE
  2
STYLE
 70
     2
  0
STYLE
  2
STANDARD
 70
     0
 40
0.0
 41
1.0
 50
0.0
 71
     0
 42
0.2
  3
TXT
  4
BIGFONT
  0
STYLE
  2
STANDARD1
 70
     0
 40
0.0
 41
1.0
 50
0.0
 71
     0
 42
3.0
  3
txt
  4

  0
ENDTAB
  0
TABLE
  2
VIEW
 70
     1
  0
VIEW
  2
ALL
 70
     0
 40
270.0
 10
220.99159700000001
 20
135.0
 41
0.0
 11
0.0
 21
0.0
 31
1.0
 12
0.0
 22
0.0
 32
0.0
 42
0.0
 43
0.0
 44
0.0
 50
0.0
 71
     0
  0
ENDTAB
  0
TABLE
  2
UCS
 70
     0
  0
ENDTAB
  0
TABLE
  2
APPID
 70
     4
  0
APPID
  2
ACAD
 70
     0
  0
APPID
  2
ACAD_EXEMPT_FROM_CAD_STANDARDS
 70
     0
  0
APPID
  2
ACAD_MLEADERVER
 70
     0
  0
APPID
  2
ACAD_NAV_VCDISPLAY
 70
     0
  0
ENDTAB
  0
TABLE
  2
DIMSTYLE
 70
     1
  0
DIMSTYLE
  2
STANDARD
 70
     0
  3

  4

  5

  6

  7

 40
1.0
 41
0.18
 42
0.0625
 43
0.38
 44
0.18
 45
0.0
 46
0.0
 47
0.0
 48
0.0
140
0.18
141
0.09
142
0.0
143
25.399999999999999
144
1.0
145
0.0
146
1.0
147
0.09
 71
     0
 72
     0
 73
     1
 74
     1
 75
     0
 76
     0
 77
     0
 78
     0
170
     0
171
     2
172
     0
173
     0
174
     0
175
     0
176
     0
177
     0
178
     0
  0
ENDTAB
  0
ENDSEC
  0
SECTION
  2
BLOCKS
  0
BLOCK
  8
0
  2
$MODEL_SPACE
 70
     0
 10
0.0
 20
0.0
 30
0.0
  3
$MODEL_SPACE
  1

  0
ENDBLK
  5
E8
  8
0
  0
BLOCK
 67
     1
  8
0
  2
$PAPER_SPACE
 70
     0
 10
0.0
 20
0.0
 30
0.0
  3
$PAPER_SPACE
  1

  0
ENDBLK
  5
E6
 67
     1
  8
0
  0
ENDSEC
  0
SECTION
  2
ENTITIES
  0
TEXT
  5
E87
  8
0
 62
     3
 10
0.0
 20
0.0
 30
0.0
 40
10.0
  1
KCLF04AX15
  7
STANDARD1
  0
LINE
  5
F79
  8
0
 10
94.022691587915887
 20
58.899999812299988
 30
0.0
 11
94.005327909368134
 21
57.905235334531199
 31
0.0
  0
LINE
  5
F7A
  8
0
 10
105.9946720906787
 20
57.905235334531199
 30
0.0
 11
105.9773084156167
 21
58.899999612600013
 31
0.0
  0
ARC
  5
F7B
  8
0
 10
105.69471778213151
 20
57.899999612600112
 30
0.0
 40
0.3000000000002382
 50
318.1896851042369
 51
0.9999999999817084
  0
ARC
  5
F7C
  8
0
 10
94.305282217915007
 20
57.89999961259997
 30
0.0
 40
0.2999999999999586
 50
178.99999999998749
 51
221.81044642108961
  0
ARC
  5
F7F
  8
0
 10
104.8999999999734
 20
56.599999225200001
 30
0.0
 40
1.1000000000000001
 50
270.0
 51
0.0
  0
ARC
  5
F80
  8
0
 10
95.099999999973448
 20
56.599999225200001
 30
0.0
 40
1.0999999999999941
 50
180.0
 51
270.0
  0
LINE
  5
F81
  8
0
 10
93.999999947873462
 20
57.699999135100022
 30
0.0
 11
93.999999947873462
 21
56.59999960670001
 31
0.0
  0
LINE
  5
F82
  8
0
 10
106.00000005217341
 20
56.59999960670001
 30
0.0
 11
106.00000005217341
 21
57.699999135100022
 31
0.0
  0
LINE
  5
F83
  8
0
 10
96.985037345523466
 20
58.899999812299988
 30
0.0
 11
94.022691587915887
 21
58.899999812299988
 31
0.0
  0
LINE
  5
F85
  8
0
 10
105.9773084156167
 20
58.899999612600013
 30
0.0
 11
103.0883955769234
 21
58.899999812299988
 31
0.0
  0
LINE
  5
F89
  8
0
 10
95.099999941873463
 20
55.499999612600007
 30
0.0
 11
104.9000000580734
 21
55.499999612600007
 31
0.0
  0
LINE
  5
F8A
  8
0
 10
106.00000005217341
 20
57.699999135100022
 30
0.0
 11
93.999999947873462
 21
57.699999135100022
 31
0.0
  0
CIRCLE
  5
F8C
  8
0
 10
100.00000000002341
 20
64.499999612600007
 30
0.0
 40
3.0000000000000062
  0
LINE
  5
F8E
  8
0
 10
127.3000001908234
 20
64.613538893899999
 30
0.0
 11
129.40000034872341
 21
64.3501277206
 31
0.0
  0
LINE
  5
F8F
  8
0
 10
126.0000005365235
 20
64.750356291900005
 30
0.0
 11
127.3000001908234
 21
64.613538893899999
 31
0.0
  0
POLYLINE
  5
F92
  8
0
 66
     1
 10
0.0
 20
0.0
 30
0.0
 70
   128
  0
VERTEX
  5
1D7F
  8
0
 10
126.0000005365235
 20
68.363135198199998
 30
0.0
  0
VERTEX
  5
1D80
  8
0
 10
127.7044158429235
 20
68.190890580499996
 30
0.0
  0
VERTEX
  5
1D81
  8
0
 10
129.40000034872341
 20
67.949849862700006
 30
0.0
  0
SEQEND
  5
1D82
  8
0
  0
POLYLINE
  5
F94
  8
0
 66
     1
 10
0.0
 20
0.0
 30
0.0
 70
   128
  0
VERTEX
  5
1D83
  8
0
 10
121.9999998808234
 20
64.895348170099993
 30
0.0
  0
VERTEX
  5
1D84
  8
0
 10
123.98807927972349
 20
64.875098015899994
 30
0.0
  0
VERTEX
  5
1D85
  8
0
 10
126.0000005365235
 20
64.750356291900005
 30
0.0
  0
SEQEND
  5
1D86
  8
0
  0
POLYLINE
  5
F95
  8
0
 66
     1
 10
0.0
 20
0.0
 30
0.0
 70
   128
  0
VERTEX
  5
1D87
  8
0
 10
121.9999998808234
 20
68.495744124099986
 30
0.0
  0
VERTEX
  5
1D88
  8
0
 10
123.9882096648234
 20
68.477214064499975
 30
0.0
  0
VERTEX
  5
1D89
  8
0
 10
126.0000005365235
 20
68.363135198199998
 30
0.0
  0
SEQEND
  5
1D8A
  8
0
  0
ARC
  5
F97
  8
0
 10
122.60000198242339
 20
26.199953596400011
 30
0.0
 40
38.700046043050001
 50
90.888344304800015
 51
95.113287263499714
  0
POLYLINE
  5
F98
  8
0
 66
     1
 10
0.0
 20
0.0
 30
0.0
 70
   128
  0
VERTEX
  5
1D8B
  8
0
 10
119.1508494318235
 20
68.359142851099989
 30
0.0
  0
VERTEX
  5
1D8C
  8
0
 10
120.5508638174235
 20
68.450337491999974
 30
0.0
  0
VERTEX
  5
1D8D
  8
0
 10
121.9999998808234
 20
68.495744124099986
 30
0.0
  0
SEQEND
  5
1D8E
  8
0
  0
ARC
  5
F9A
  8
0
 10
134.80000282142339
 20
64.431021756299984
 30
0.0
 40
0.9999917361353228
 50
258.46282777939962
 51
323.13038115009982
  0
LINE
  5
F9B
  8
0
 10
135.5050861836234
 20
66.483355809100004
 30
0.0
 11
135.5999991298234
 21
66.447545757600011
 31
0.0
  0
ARC
  5
F9C
  8
0
 10
118.4274805801234
 20
-14.6149029125
 30
0.0
 40
79.72372453013827
 50
78.295918026599821
 51
82.089168155099898
  0
ARC
  5
F9D
  8
0
 10
122.5990269342234
 20
26.1959366872
 30
0.0
 40
42.304166518753739
 50
72.237159385800211
 51
80.748774395499936
  0
ARC
  5
F9F
  8
0
 10
106.4143178792234
 20
116.5799037231
 30
0.0
 40
49.70000973123723
 50
277.61458314649991
 51
283.48037275509978
  0
LINE
  5
FA0
  8
0
 10
114.8000000045234
 20
63.499999565099998
 30
0.0
 11
113.0000002682234
 21
63.175015716900013
 31
0.0
  0
ARC
  5
FA1
  8
0
 10
122.69854893712341
 20
45.343656102599986
 30
0.0
 40
19.799997049752079
 50
102.53866751999981
 51
113.5104718785
  0
LINE
  5
FA2
  8
0
 10
118.40000040832339
 20
64.671417579700005
 30
0.0
 11
119.1508494318235
 21
64.745989844300013
 31
0.0
  0
LINE
  5
FA3
  8
0
 10
117.99999922522341
 20
68.2491375898
 30
0.0
 11
119.1508494318235
 21
68.359142851099989
 31
0.0
  0
ARC
  5
FA4
  8
0
 10
109.4130702488234
 20
56.050777271599998
 30
0.0
 40
6.4000000000000217
 50
125.4623053106999
 51
143.02682913059971
  0
ARC
  5
FA5
  8
0
 10
110.4960669944234
 20
86.739475909600003
 30
0.0
 40
20.000000000000611
 50
245.8075178616003
 51
257.30251695589999
  0
ARC
  5
FA6
  8
0
 10
109.1000000000234
 20
86.799999612600004
 30
0.0
 40
19.7999999999995
 50
261.2852579813997
 51
275.7973395407999
  0
ARC
  5
FA8
  8
0
 10
111.3000000000234
 20
52.499999612599993
 30
0.0
 40
10.39999999999991
 50
100.5266185501001
 51
122.5789703927999
  0
ARC
  5
FA9
  8
0
 10
100.1647897445234
 20
63.676245915899997
 30
0.0
 40
5.599999999999997
 50
291.31101888769967
 51
317.59788106140007
  0
ARC
  5
FAA
  8
0
 10
104.9644747955234
 20
112.82902194179999
 30
0.0
 40
50.299999999996921
 50
275.05899387229999
 51
279.19250125659988
  0
POLYLINE
  5
FAB
  8
0
 66
     1
 10
0.0
 20
0.0
 30
0.0
 70
   128
  0
VERTEX
  5
1D8F
  8
0
 10
102.19999998812339
 20
58.459166187800008
 30
0.0
  0
VERTEX
  5
1D90
  8
0
 10
101.7241258174234
 20
58.277223475299998
 30
0.0
  0
VERTEX
  5
1D91
  8
0
 10
101.5475737164234
 20
58.222214441800013
 30
0.0
  0
SEQEND
  5
1D92
  8
0
  0
ARC
  5
FAC
  8
0
 10
100.00000000002341
 20
63.499999612599993
 30
0.0
 40
5.4999999999999973
 50
65.280148817099857
 51
286.34244809404152
  0
ARC
  5
FAD
  8
0
 10
106.4143229178234
 20
116.5798946833
 30
0.0
 40
49.7000000000019
 50
275.40983578769999
 51
277.61457847389983
  0
POLYLINE
  5
FAE
  8
0
 66
     1
 10
0.0
 20
0.0
 30
0.0
 70
   128
  0
VERTEX
  5
1D93
  8
0
 10
135.73979437352341
 20
64.089287550500003
 30
0.0
  0
VERTEX
  5
1D94
  8
0
 10
135.87415441872341
 20
64.458780396000009
 30
0.0
  0
VERTEX
  5
1D95
  8
0
 10
135.98586842422341
 20
64.765990520399995
 30
0.0
  0
VERTEX
  5
1D96
  8
0
 10
136.07452288272339
 20
65.009791038000003
 30
0.0
  0
VERTEX
  5
1D97
  8
0
 10
136.13979369402341
 20
65.189287573599998
 30
0.0
  0
SEQEND
  5
1D98
  8
0
  0
ARC
  5
FAF
  8
0
 10
135.19987295472339
 20
65.530945064699992
 30
0.0
 40
1.0001288848059799
 50
0.004901889900056
 51
66.417157110900277
  0
ARC
  5
FB0
  8
0
 10
135.19928104002341
 20
65.531161930700009
 30
0.0
 40
1.00072080444247
 50
340.02390158869991
 51
359.99248242939979
  0
LINE
  5
FB1
  8
0
 10
135.73979437352341
 20
64.089287550500003
 30
0.0
 11
135.5999991298234
 21
63.831030607300001
 31
0.0
  0
LINE
  5
FB4
  8
0
 10
106.00000005217341
 20
56.59999960670001
 30
0.0
 11
93.999999947873462
 21
56.59999960670001
 31
0.0
  0
LINE
  5
FBA
  8
0
 10
103.0000000260553
 20
103.39759938467139
 30
0.0
 11
103.0000000260553
 21
107.5975992348714
 31
0.0
  0
LINE
  5
FBB
  8
0
 10
96.999999973855267
 20
107.5975992348714
 30
0.0
 11
96.999999973855267
 21
103.39759938467139
 31
0.0
  0
LINE
  5
FBC
  8
0
 10
94.500000029755284
 20
111.2475993209714
 30
0.0
 11
94.500000029755284
 21
107.5975992348714
 31
0.0
  0
LINE
  5
FBD
  8
0
 10
94.500000029755284
 20
103.39759938467139
 30
0.0
 11
94.500000029755284
 21
99.747599298571387
 31
0.0
  0
LINE
  5
FD1
  8
0
 10
94.500000029755284
 20
107.5975992348714
 30
0.0
 11
103.49999999755531
 21
107.5975992348714
 31
0.0
  0
LINE
  5
FD2
  8
0
 10
113.00000026611001
 20
111.2475993209714
 30
0.0
 11
94.500000029755284
 21
111.2475993209714
 31
0.0
  0
LINE
  5
FD3
  8
0
 10
94.500000029755284
 20
99.747599298571387
 30
0.0
 11
113.0000002665458
 21
99.747599298571387
 31
0.0
  0
LINE
  5
FD4
  8
0
 10
103.5000004861552
 20
103.39759938467139
 30
0.0
 11
94.500000029755284
 21
103.39759938467139
 31
0.0
  0
POLYLINE
  5
FD6
  8
0
 66
     1
 10
0.0
 20
0.0
 30
0.0
 70
   128
  0
VERTEX
  5
1D99
  8
0
 10
129.40000034865531
 20
112.39759923007129
 30
0.0
  0
VERTEX
  5
1D9A
  8
0
 10
127.7103353291553
 20
112.5841897078714
 30
0.0
  0
VERTEX
  5
1D9B
  8
0
 10
126.0000005364553
 20
112.6975991860714
 30
0.0
  0
SEQEND
  5
1D9C
  8
0
  0
ARC
  5
FD7
  8
0
 10
127.2990826454552
 20
102.62004028237141
 30
0.0
 40
10.000725682219789
 50
34.861032534700669
 51
77.873163132700157
  0
ARC
  5
FD9
  8
0
 10
127.2991313877553
 20
108.3750850654714
 30
0.0
 40
10.00064380597245
 50
282.12665203189988
 51
325.13915230080028
  0
POLYLINE
  5
FDA
  8
0
 66
     1
 10
0.0
 20
0.0
 30
0.0
 70
   128
  0
VERTEX
  5
1D9D
  8
0
 10
126.0000005364553
 20
98.297599433471376
 30
0.0
  0
VERTEX
  5
1D9E
  8
0
 10
127.7044158428553
 20
98.410486439671416
 30
0.0
  0
VERTEX
  5
1D9F
  8
0
 10
129.40000034865531
 20
98.597599389471398
 30
0.0
  0
SEQEND
  5
1DA0
  8
0
  0
POLYLINE
  5
FDB
  8
0
 66
     1
 10
0.0
 20
0.0
 30
0.0
 70
   128
  0
VERTEX
  5
1DA1
  8
0
 10
121.9999998807552
 20
98.597599389471398
 30
0.0
  0
VERTEX
  5
1DA2
  8
0
 10
123.9882096647553
 20
98.373681037271396
 30
0.0
  0
VERTEX
  5
1DA3
  8
0
 10
126.0000005364553
 20
98.297599433471376
 30
0.0
  0
SEQEND
  5
1DA4
  8
0
  0
POLYLINE
  5
FDC
  8
0
 66
     1
 10
0.0
 20
0.0
 30
0.0
 70
   128
  0
VERTEX
  5
1DA5
  8
0
 10
119.1508494317552
 20
99.397599427471405
 30
0.0
  0
VERTEX
  5
1DA6
  8
0
 10
120.55086381735531
 20
98.937485563071405
 30
0.0
  0
VERTEX
  5
1DA7
  8
0
 10
121.9999998807552
 20
98.597599389471398
 30
0.0
  0
SEQEND
  5
1DA8
  8
0
  0
LINE
  5
FDD
  8
0
 10
117.99999922515519
 20
99.541646158771385
 30
0.0
 11
119.1508494317552
 21
99.397599427471405
 31
0.0
  0
LINE
  5
FDF
  8
0
 10
119.1508494317552
 20
111.5975991920714
 30
0.0
 11
117.99999922515519
 21
111.45355246077141
 31
0.0
  0
POLYLINE
  5
FE0
  8
0
 66
     1
 10
0.0
 20
0.0
 30
0.0
 70
   128
  0
VERTEX
  5
1DA9
  8
0
 10
121.9999998807552
 20
112.39759923007129
 30
0.0
  0
VERTEX
  5
1DAA
  8
0
 10
120.56309394535521
 20
112.0611482397714
 30
0.0
  0
VERTEX
  5
1DAB
  8
0
 10
119.1508494317552
 20
111.5975991920714
 30
0.0
  0
SEQEND
  5
1DAC
  8
0
  0
POLYLINE
  5
FE1
  8
0
 66
     1
 10
0.0
 20
0.0
 30
0.0
 70
   128
  0
VERTEX
  5
1DAD
  8
0
 10
126.0000005364553
 20
112.6975991860714
 30
0.0
  0
VERTEX
  5
1DAE
  8
0
 10
124.0037720650553
 20
112.6226840638714
 30
0.0
  0
VERTEX
  5
1DAF
  8
0
 10
121.9999998807552
 20
112.39759923007129
 30
0.0
  0
SEQEND
  5
1DB0
  8
0
  0
ARC
  5
FE3
  8
0
 10
103.5000004861552
 20
103.59759889957139
 30
0.0
 40
0.1999995149041519
 50
269.99989165900001
 51
0.0001083409995516
  0
LINE
  5
FE4
  8
0
 10
103.7000000010553
 20
103.59759927777139
 30
0.0
 11
103.7000000010553
 21
107.3975993417714
 31
0.0
  0
ARC
  5
FE5
  8
0
 10
103.49999999755531
 20
107.3975992313714
 30
0.0
 40
0.2000000035157562
 50
0.0000316363010016
 51
89.999968363699793
  0
ARC
  5
FEB
  8
0
 10
113.98072150215521
 20
62.760554611471392
 30
0.0
 40
37.000044443588273
 50
83.763710700800289
 51
91.518856806099947
  0
ARC
  5
FEC
  8
0
 10
113.9807233760552
 20
148.23459851457139
 30
0.0
 40
36.999999015753353
 50
268.48113842579983
 51
276.23629406730032
  0
ARC
  5
FF1
  8
0
 10
129.69966449785531
 20
105.46974072527139
 30
0.0
 40
6.5003970345949451
 50
0.245551801800319
 51
24.81217243070056
  0
ARC
  5
FF2
  8
0
 10
129.69710831365521
 20
105.5260259378714
 30
0.0
 40
6.5029556537112621
 50
335.19273587929962
 51
359.74953988810012
  0
LINE
  5
FF3
  8
0
 10
135.50508618355519
 20
102.6588640739714
 30
0.0
 11
135.59999912975519
 21
102.7975992397714
 31
0.0
  0
LINE
  5
FF4
  8
0
 10
135.50508618355519
 20
108.33633454567141
 30
0.0
 11
135.59999912975519
 21
108.1975993797714
 31
0.0
  0
ARC
  5
FF6
  8
0
 10
44.305282217915043
 20
57.899999999999999
 30
0.0
 40
0.2999999999999705
 50
178.99999999999289
 51
221.8103148957843
  0
ARC
  5
FF9
  8
0
 10
54.900000000023432
 20
56.600000000000023
 30
0.0
 40
1.1000000000000041
 50
270.0
 51
0.0
  0
ARC
  5
FFA
  8
0
 10
45.100000000023421
 20
56.600000000000023
 30
0.0
 40
1.0999999999999981
 50
180.0
 51
270.0
  0
LINE
  5
FFB
  8
0
 10
44.000000000023427
 20
57.700000000000017
 30
0.0
 11
44.000000000023427
 21
56.600000000000023
 31
0.0
  0
LINE
  5
FFC
  8
0
 10
56.000000000023427
 20
56.600000000000023
 30
0.0
 11
56.000000000023427
 21
57.700000000000017
 31
0.0
  0
LINE
  5
FFD
  8
0
 10
47.999999999944968
 20
67.5
 30
0.0
 11
47.900000000023432
 21
67.500000000000014
 31
0.0
  0
LINE
  5
FFE
  8
0
 10
52.100000000023442
 20
67.500000000000014
 30
0.0
 11
52.000000000072461
 21
67.499999999947491
 31
0.0
  0
LINE
  5
1000
  8
0
 10
47.900000000023432
 20
61.5
 30
0.0
 11
52.100000000023442
 21
61.5
 31
0.0
  0
LINE
  5
1001
  8
0
 10
47.900000000023432
 20
69.000000000000014
 30
0.0
 11
44.250000000023441
 21
69.000000000000014
 31
0.0
  0
LINE
  5
1002
  8
0
 10
55.750000000023441
 20
69.000000000000014
 30
0.0
 11
52.100000000023442
 21
69.000000000000014
 31
0.0
  0
LINE
  5
1003
  8
0
 10
57.03028668312345
 20
68.500000000000014
 30
0.0
 11
55.750000000023441
 21
68.500000000000014
 31
0.0
  0
LINE
  5
1004
  8
0
 10
52.100000000023442
 20
68.500000000000014
 30
0.0
 11
47.900000000023432
 21
68.500000000000014
 31
0.0
  0
LINE
  5
1005
  8
0
 10
44.250000000023441
 20
68.500000000000014
 30
0.0
 11
42.968623356923437
 21
68.500000000000014
 31
0.0
  0
LINE
  5
100A
  8
0
 10
55.219276185423439
 20
58.899999999999999
 30
0.0
 11
44.780723814523441
 21
58.899999999999999
 31
0.0
  0
LINE
  5
100C
  8
0
 10
44.780723814523441
 20
58.899999999999999
 30
0.0
 11
44.007113329260363
 21
58.00752235904946
 31
0.0
  0
LINE
  5
100D
  8
0
 10
45.100000000023421
 20
55.500000000000007
 30
0.0
 11
54.900000000023432
 21
55.500000000000007
 31
0.0
  0
LINE
  5
100E
  8
0
 10
56.000000000023427
 20
57.700000000000017
 30
0.0
 11
44.000000000023427
 21
57.700000000000017
 31
0.0
  0
LINE
  5
1015
  8
0
 10
44.250000000023441
 20
69.000000000000014
 30
0.0
 11
44.250000000023441
 21
58.283669274781118
 31
0.0
  0
LINE
  5
1016
  8
0
 10
47.900000000023432
 20
58.899999999999999
 30
0.0
 11
47.900000000023432
 21
69.000000000000014
 31
0.0
  0
LINE
  5
1017
  8
0
 10
52.100000000023442
 20
69.000000000000014
 30
0.0
 11
52.100000000023442
 21
58.899999999999999
 31
0.0
  0
LINE
  5
1018
  8
0
 10
55.750000000023441
 20
58.283669274664973
 30
0.0
 11
55.750000000023441
 21
69.000000000000014
 31
0.0
  0
ARC
  5
101F
  8
3
 10
42.248332550423427
 20
67.327341749300004
 30
0.0
 40
2.0184888815781941
 50
7.4021520156999454
 51
27.172846723400159
  0
ARC
  5
1023
  8
3
 10
57.758812399023441
 20
67.325119771700017
 30
0.0
 40
2.0258603966884081
 50
152.86352942000011
 51
172.56168462299979
  0
LINE
  5
1024
  8
3
 10
55.955953335123439
 20
68.249137922200006
 30
0.0
 11
56.100000000023442
 21
68.35914329000002
 31
0.0
  0
LINE
  5
1026
  8
3
 10
56.001867337123443
 20
64.671417961900005
 30
0.0
 11
56.100000000023442
 21
64.745990231800022
 31
0.0
  0
ARC
  5
1027
  8
3
 10
58.497029012523441
 20
63.522093770300017
 30
0.0
 40
2.7471399460956771
 50
155.26820384140001
 51
172.2499770367327
  0
LINE
  5
1028
  8
3
 10
43.900000000023439
 20
68.35914329000002
 30
0.0
 11
44.044046664823441
 21
68.249137922200006
 31
0.0
  0
ARC
  5
1029
  8
3
 10
41.497094701223453
 20
63.520771154400009
 30
0.0
 40
2.753030868211463
 50
7.7661838930103171
 51
24.705632106400191
  0
LINE
  5
102A
  8
3
 10
43.99813266282343
 20
64.671417961900005
 30
0.0
 11
43.900000000023439
 21
64.745990231800022
 31
0.0
  0
POLYLINE
  5
102C
  8
0
 66
     1
 10
0.0
 20
0.0
 30
0.0
 70
   128
  0
VERTEX
  5
1DB1
  8
0
 10
57.03028668312345
 20
68.500000000000014
 30
0.0
  0
VERTEX
  5
1DB2
  8
0
 10
57.123918335223429
 20
68.477214574200019
 30
0.0
  0
VERTEX
  5
1DB3
  8
0
 10
57.180705059723437
 20
68.432252052900012
 30
0.0
  0
VERTEX
  5
1DB4
  8
0
 10
57.200000000023429
 20
68.363135557000007
 30
0.0
  0
SEQEND
  5
1DB5
  8
0
  0
POLYLINE
  5
102D
  8
3
 66
     1
 10
0.0
 20
0.0
 30
0.0
 70
   128
  0
VERTEX
  5
1DB6
  8
3
 10
56.100000000023442
 20
68.35914329000002
 30
0.0
  0
VERTEX
  5
1DB7
  8
3
 10
56.560113965223451
 20
68.450337768200015
 30
0.0
  0
VERTEX
  5
1DB8
  8
3
 10
56.900000000023439
 20
68.495744466800005
 30
0.0
  0
SEQEND
  5
1DB9
  8
3
  0
POLYLINE
  5
102E
  8
3
 66
     1
 10
0.0
 20
0.0
 30
0.0
 70
   128
  0
VERTEX
  5
1DBA
  8
3
 10
43.100000000023442
 20
68.495744466800005
 30
0.0
  0
VERTEX
  5
1DBB
  8
3
 10
43.436450998423432
 20
68.450929185199996
 30
0.0
  0
VERTEX
  5
1DBC
  8
3
 10
43.900000000023439
 20
68.35914329000002
 30
0.0
  0
SEQEND
  5
1DBD
  8
3
  0
POLYLINE
  5
102F
  8
0
 66
     1
 10
0.0
 20
0.0
 30
0.0
 70
   128
  0
VERTEX
  5
1DBE
  8
0
 10
42.800000000023452
 20
68.363135557000007
 30
0.0
  0
VERTEX
  5
1DBF
  8
0
 10
42.818928410123448
 20
68.431699260400009
 30
0.0
  0
VERTEX
  5
1DC0
  8
0
 10
42.874915388323437
 20
68.47670069740002
 30
0.0
  0
VERTEX
  5
1DC1
  8
0
 10
42.968623356923437
 20
68.500000000000014
 30
0.0
  0
SEQEND
  5
1DC2
  8
0
  0
POLYLINE
  5
1030
  8
3
 66
     1
 10
0.0
 20
0.0
 30
0.0
 70
   128
  0
VERTEX
  5
1DC3
  8
3
 10
56.100000000023442
 20
64.745990231800022
 30
0.0
  0
VERTEX
  5
1DC4
  8
3
 10
56.560020837223448
 20
64.845694255200002
 30
0.0
  0
VERTEX
  5
1DC5
  8
3
 10
56.900000000023439
 20
64.895348557700004
 30
0.0
  0
SEQEND
  5
1DC6
  8
3
  0
POLYLINE
  5
1031
  8
3
 66
     1
 10
0.0
 20
0.0
 30
0.0
 70
   128
  0
VERTEX
  5
1DC7
  8
3
 10
56.900000000023439
 20
64.895348557700004
 30
0.0
  0
VERTEX
  5
1DC8
  8
3
 10
57.12390848652344
 20
64.875098391500018
 30
0.0
  0
VERTEX
  5
1DC9
  8
3
 10
57.200000000023429
 20
64.750356678000003
 30
0.0
  0
SEQEND
  5
1DCA
  8
3
  0
LINE
  5
1032
  8
0
 10
57.200000000023429
 20
64.750356678000003
 30
0.0
 11
57.12068927332345
 21
64.613539279800008
 31
0.0
  0
LINE
  5
1033
  8
0
 10
42.879310726623437
 20
64.613539279800008
 30
0.0
 11
42.800000000023452
 21
64.750356678000003
 31
0.0
  0
POLYLINE
  5
1034
  8
3
 66
     1
 10
0.0
 20
0.0
 30
0.0
 70
   128
  0
VERTEX
  5
1DCB
  8
3
 10
42.800000000023452
 20
64.750356678000003
 30
0.0
  0
VERTEX
  5
1DCC
  8
3
 10
42.874859824723437
 20
64.874504925300002
 30
0.0
  0
VERTEX
  5
1DCD
  8
3
 10
43.100000000023442
 20
64.895348557700004
 30
0.0
  0
SEQEND
  5
1DCE
  8
3
  0
POLYLINE
  5
1035
  8
3
 66
     1
 10
0.0
 20
0.0
 30
0.0
 70
   128
  0
VERTEX
  5
1DCF
  8
3
 10
43.100000000023442
 20
64.895348557700004
 30
0.0
  0
VERTEX
  5
1DD0
  8
3
 10
43.43646834252344
 20
64.846355133000003
 30
0.0
  0
VERTEX
  5
1DD1
  8
3
 10
43.900000000023439
 20
64.745990231800022
 30
0.0
  0
SEQEND
  5
1DD2
  8
3
  0
LINE
  5
1038
  8
0
 10
57.200000000023429
 20
68.363135557000007
 30
0.0
 11
57.200000000023429
 21
64.750356678000003
 31
0.0
  0
LINE
  5
1039
  8
0
 10
42.800000000023452
 20
68.363135557000007
 30
0.0
 11
42.800000000023452
 21
64.750356678000003
 31
0.0
  0
ARC
  5
103A
  8
0
 10
54.544417809123438
 20
68.529845957600017
 30
0.0
 40
4.7977920729964882
 50
284.86162541618842
 51
299.40449686989979
  0
ARC
  5
103B
  8
0
 10
45.532948587223437
 20
68.722195589700007
 30
0.0
 40
5.0034201211315477
 50
240.90513256589981
 51
254.84470990112121
  0
LINE
  5
103C
  8
0
 10
57.12068927332345
 20
64.613539279800008
 30
0.0
 11
56.900000000023439
 21
64.350128106200003
 31
0.0
  0
LINE
  5
103D
  8
0
 10
43.100000000023442
 20
64.350128106200003
 30
0.0
 11
42.879310726623437
 21
64.613539279800008
 31
0.0
  0
LINE
  5
103E
  8
0
 10
56.000000000023427
 20
56.600000000000023
 30
0.0
 11
44.000000000023427
 21
56.600000000000023
 31
0.0
  0
ARC
  5
1096
  8
0
 10
99.999999999955264
 20
105.4975993097714
 30
0.0
 40
6.000000052200007
 50
73.40215656622145
 51
106.59784343377849
  0
ARC
  5
1097
  8
0
 10
99.999999999955264
 20
105.4975993097714
 30
0.0
 40
6.000000052200007
 50
253.40215656622141
 51
286.59784343377851
  0
ARC
  5
1098
  8
0
 10
99.999999999955264
 20
105.4975993097714
 30
0.0
 40
6.0000000521999928
 50
156.44353383552999
 51
203.5564661644699
  0
LINE
  5
10A0
  8
1
 10
90.999999947755285
 20
105.4975993097714
 30
0.0
 11
139.20000183584619
 21
105.497599309827
 31
0.0
  0
LINE
  5
10A1
  8
1
 10
99.999999999955264
 20
114.2475993209714
 30
0.0
 11
99.999999999955307
 21
96.747599298571373
 31
0.0
  0
LINE
  5
10BE
  8
1
 10
49.999999999871079
 20
72.000000000000014
 30
0.0
 11
50.000000000255199
 21
37.700000125899692
 31
0.0
  0
LINE
  5
10BF
  8
1
 10
39.800000000023452
 20
64.5
 30
0.0
 11
60.200000000023437
 21
64.5
 31
0.0
  0
POLYLINE
  5
10C1
  8
3
 66
     1
 10
0.0
 20
0.0
 30
0.0
 70
   128
  0
VERTEX
  5
1DD3
  8
3
 10
56.900000000023439
 20
68.495744466800005
 30
0.0
  0
VERTEX
  5
1DD4
  8
3
 10
57.03028668312345
 20
68.500000000000014
 30
0.0
  0
SEQEND
  5
1DD5
  8
3
  0
POLYLINE
  5
10C3
  8
3
 66
     1
 10
0.0
 20
0.0
 30
0.0
 70
   128
  0
VERTEX
  5
1DD6
  8
3
 10
42.968623356923437
 20
68.500000000000014
 30
0.0
  0
VERTEX
  5
1DD7
  8
3
 10
43.100000000023442
 20
68.495744466800005
 30
0.0
  0
SEQEND
  5
1DD8
  8
3
  0
LINE
  5
10C7
  8
1
 10
100.00000000002341
 20
37.700000125899692
 30
0.0
 11
100.00000000002341
 21
71.999999612599993
 31
0.0
  0
LINE
  5
10C9
  8
1
 10
108.50000000002341
 20
63.499999612599993
 30
0.0
 11
91.500000000023448
 21
63.499999612599993
 31
0.0
  0
LINE
  5
10CB
  8
1
 10
108.50000000002341
 20
64.499999612600007
 30
0.0
 11
91.500000000023448
 21
64.499999612600007
 31
0.0
  0
ARC
  5
10D6
  8
0
 10
58.497029012523441
 20
63.522093770300017
 30
0.0
 40
2.7471399460956771
 50
172.2499770367327
 51
179.48509124979989
  0
ARC
  5
10D8
  8
0
 10
41.497094701223453
 20
63.520771154400009
 30
0.0
 40
2.753030868211463
 50
0.5472372592998127
 51
7.7661838930103171
  0
ARC
  5
1407
  8
3
 10
99.999999999955264
 20
105.4975993097714
 30
0.0
 40
1.6209999999999991
 50
104.2859425515191
 51
255.7140574484809
  0
CIRCLE
  5
1408
  8
0
 10
99.999999999955264
 20
105.4975993097714
 30
0.0
 40
2.0
  0
LINE
  5
1505
  8
0
 10
47.999999999953509
 20
55.500000000000007
 30
0.0
 11
48.000000000002949
 21
40.929499999999983
 31
0.0
  0
LINE
  5
1507
  8
3
 10
48.379000000001398
 20
55.500000000000007
 30
0.0
 11
48.37900000000139
 21
40.550500000368352
 31
0.0
  0
LINE
  5
150A
  8
3
 10
51.620999999998602
 20
55.500000000000007
 30
0.0
 11
51.620999999998602
 21
40.550499999975173
 31
0.0
  0
LINE
  5
150C
  8
0
 10
47.999999999812459
 20
40.929499999999983
 30
0.0
 11
51.999999999812438
 21
40.929500000000047
 31
0.0
  0
LINE
  5
150D
  8
0
 10
52.000000000023483
 20
40.929500000000047
 30
0.0
 11
51.570500000023458
 21
40.500000000000007
 31
0.0
  0
LINE
  5
150E
  8
0
 10
51.570500000023451
 20
40.5
 30
0.0
 11
48.429500000372379
 21
40.500000000000021
 31
0.0
  0
LINE
  5
150F
  8
0
 10
51.999999999953523
 20
55.5
 30
0.0
 11
52.00000000000297
 21
40.929499999979541
 31
0.0
  0
LINE
  5
1519
  8
0
 10
48.186174655246383
 20
67.427962962298238
 30
0.0
 11
48.259882116085691
 21
67.500000000000014
 31
0.0
  0
LINE
  5
151B
  8
3
 10
48.37900000000139
 20
61.499999999999993
 30
0.0
 11
48.37900000000139
 21
61.641063520327229
 31
0.0
  0
LINE
  5
151C
  8
3
 10
51.620999999998602
 20
61.499999999999993
 30
0.0
 11
51.620999999998602
 21
61.640111304251398
 31
0.0
  0
LINE
  5
1521
  8
0
 10
51.740117883821121
 20
67.500000000000028
 30
0.0
 11
48.259882116085713
 21
67.500000000000028
 31
0.0
  0
ARC
  5
1525
  8
0
 10
49.99987158601494
 20
59.160613126542238
 30
0.0
 40
2.927877774195609
 50
59.737653380208542
 51
120.2695098129732
  0
LINE
  5
1569
  8
0
 10
97.999999999926985
 20
55.499999612600007
 30
0.0
 11
97.999999999976453
 21
40.929499612597048
 31
0.0
  0
LINE
  5
156A
  8
0
 10
97.999999999973483
 20
40.929499612600011
 30
0.0
 11
98.429500000023438
 21
40.499999612600007
 31
0.0
  0
LINE
  5
156B
  8
3
 10
98.378999999974894
 20
55.4999996126
 30
0.0
 11
98.378999999974894
 21
40.55049961264271
 31
0.0
  0
LINE
  5
156E
  8
3
 10
101.6209999999721
 20
55.4999996126
 30
0.0
 11
101.6209999999721
 21
40.550499612554532
 31
0.0
  0
LINE
  5
1570
  8
0
 10
98.000000000023491
 20
40.929499612599962
 30
0.0
 11
102.00000000002341
 21
40.929499612600033
 31
0.0
  0
LINE
  5
1571
  8
0
 10
101.9999999999735
 20
40.929499612600011
 30
0.0
 11
101.5705000000234
 21
40.499999612600007
 31
0.0
  0
LINE
  5
1572
  8
0
 10
101.5705000000234
 20
40.499999612600007
 30
0.0
 11
98.429500000023467
 21
40.499999612600007
 31
0.0
  0
LINE
  5
1573
  8
0
 10
101.999999999927
 20
55.499999612600007
 30
0.0
 11
101.9999999999764
 21
40.929499612602967
 31
0.0
  0
LINE
  5
15C2
  8
0
 10
51.999999999931831
 20
61.5
 30
0.0
 11
51.999999999931831
 21
58.899999999999999
 31
0.0
  0
LINE
  5
15C3
  8
0
 10
47.999999999944997
 20
61.5
 30
0.0
 11
47.999999999944997
 21
58.899999999999999
 31
0.0
  0
LINE
  5
1BC0
  8
0
 10
99.599999999955259
 20
103.53800751554481
 30
0.0
 11
99.599999999955259
 21
107.4571911039979
 31
0.0
  0
LINE
  5
1BC1
  8
0
 10
100.3999999999552
 20
103.53800751554481
 30
0.0
 11
100.3999999999552
 21
107.4571911039979
 31
0.0
  0
ARC
  5
1BC2
  8
3
 10
99.999999999955264
 20
105.4975993097714
 30
0.0
 40
1.6209999999999991
 50
284.28594255151762
 51
75.71405744848245
  0
LINE
  5
1C66
  8
0
 10
48.000000000402238
 20
40.929499999947687
 30
0.0
 11
48.429500000413512
 21
40.499999999958888
 31
0.0
  0
LINE
  5
1C67
  8
0
 10
44.007113329260363
 20
58.00752235904946
 30
0.0
 11
44.005327909368162
 21
57.905235721931227
 31
0.0
  0
ARC
  5
1C68
  8
0
 10
55.694717782196861
 20
57.900000000149561
 30
0.0
 40
0.2999999999999705
 50
318.18968510572051
 51
1.000000001511681
  0
LINE
  5
1C69
  8
0
 10
55.219276185562201
 20
58.900000000137062
 30
0.0
 11
55.992886670848712
 21
58.007522359206838
 31
0.0
  0
LINE
  5
1C6A
  8
0
 10
55.992886670848712
 20
58.007522359206838
 30
0.0
 11
55.994672090743599
 21
57.905235722088648
 31
0.0
  0
POLYLINE
  5
1C6E
  8
0
 66
     1
 10
0.0
 20
0.0
 30
0.0
 70
     2
  0
VERTEX
  5
1C6F
  8
0
 10
48.524021820218152
 20
61.689315507097561
 30
0.0
 42
0.0042673496812936
  0
VERTEX
  5
1CEC
  8
0
 10
48.395296701640291
 20
61.646636398647502
 30
0.0
 42
0.0042673496813021
 70
     1
  0
VERTEX
  5
1C70
  8
0
 10
48.267318802257819
 20
61.601766367216257
 30
0.0
 42
0.0045004365379511
  0
VERTEX
  5
1CEB
  8
0
 10
48.13320139874758
 20
61.552086259280372
 30
0.0
 42
0.0045004365379506
 70
     1
  0
VERTEX
  5
1C71
  8
0
 10
47.999999999944997
 20
61.5
 30
0.0
  0
SEQEND
  5
1C72
  8
0
  0
POLYLINE
  5
1C75
  8
0
 66
     1
 10
0.0
 20
0.0
 30
0.0
 70
     2
  0
VERTEX
  5
1C76
  8
0
 10
51.475978179794382
 20
61.689315507136328
 30
0.0
 42
-0.0042673496817374
  0
VERTEX
  5
1CEE
  8
0
 10
51.604703298374261
 20
61.646636398689232
 30
0.0
 42
-0.004267349681668
 70
     1
  0
VERTEX
  5
1C78
  8
0
 10
51.732681197757003
 20
61.601766367261767
 30
0.0
 42
-0.0045004365373866
  0
VERTEX
  5
1CED
  8
0
 10
51.866798601267867
 20
61.552086259329819
 30
0.0
 42
-0.004500436537421
 70
     1
  0
VERTEX
  5
1C7A
  8
0
 10
52.00000000007249
 20
61.50000000005253
 30
0.0
  0
SEQEND
  5
1C7B
  8
0
  0
ARC
  5
1C7C
  8
0
 10
49.999871586014898
 20
69.839386873457755
 30
0.0
 40
2.927877774195609
 50
239.73049018702719
 51
300.2623466197918
  0
POLYLINE
  5
1C7D
  8
0
 66
     1
 10
0.0
 20
0.0
 30
0.0
 70
     2
  0
VERTEX
  5
1C7E
  8
0
 10
48.524021820218117
 20
67.310684492902439
 30
0.0
 42
-0.0042673496807212
  0
VERTEX
  5
1CF0
  8
0
 10
48.395296701639381
 20
67.353363601352612
 30
0.0
 42
-0.0042673496806633
 70
     1
  0
VERTEX
  5
1C80
  8
0
 10
48.26731880225779
 20
67.398233632783729
 30
0.0
 42
-0.0045004365391592
  0
VERTEX
  5
1CEF
  8
0
 10
48.13320139874758
 20
67.447913740719969
 30
0.0
 42
-0.0045004365391426
 70
     1
  0
VERTEX
  5
1C82
  8
0
 10
47.999999999944968
 20
67.5
 30
0.0
  0
SEQEND
  5
1C83
  8
0
  0
POLYLINE
  5
1C84
  8
0
 66
     1
 10
0.0
 20
0.0
 30
0.0
 70
     2
  0
VERTEX
  5
1C85
  8
0
 10
51.475978179794353
 20
67.310684492863686
 30
0.0
 42
0.0042673496809708
  0
VERTEX
  5
1CF2
  8
0
 10
51.604703298373799
 20
67.353363601310434
 30
0.0
 42
0.004267349680936
 70
     1
  0
VERTEX
  5
1C87
  8
0
 10
51.732681197756982
 20
67.398233632738254
 30
0.0
 42
0.0045004365383916
  0
VERTEX
  5
1CF1
  8
0
 10
51.866798601267867
 20
67.447913740670515
 30
0.0
 42
0.0045004365384165
 70
     1
  0
VERTEX
  5
1C89
  8
0
 10
52.000000000072461
 20
67.499999999947491
 30
0.0
  0
SEQEND
  5
1C8A
  8
0
  0
LINE
  5
1C8F
  8
0
 10
51.81382534461568
 20
67.427962962345759
 30
0.0
 11
51.740117883774481
 21
67.500000000045603
 31
0.0
  0
LINE
  5
1C90
  8
3
 10
48.379000000001398
 20
67.358941355487659
 30
0.0
 11
48.379000000001398
 21
67.500952216075859
 31
0.0
  0
LINE
  5
1C91
  8
3
 10
51.620999999998617
 20
67.358941355440393
 30
0.0
 11
51.62099999999861
 21
67.500000000000028
 31
0.0
  0
LINE
  5
1C92
  8
0
 10
51.430806930932818
 20
67.285000000000025
 30
0.0
 11
48.568936241096957
 21
67.285000000000025
 31
0.0
  0
ENDSEC
  0
EOF
