  0
SECTION
  2
HEADER
  9
$ACADVER
  1
AC1009
  9
$INSBASE
 10
0.0
 20
0.0
 30
0.0
  9
$EXTMIN
 10
0.0
 20
-2.960436562073669
 30
0.0
  9
$EXTMAX
 10
174.0
 20
144.65000000000001
 30
0.0
  9
$LIMMIN
 10
0.0
 20
0.0
  9
$LIMMAX
 10
375.0
 20
270.0
  9
$ORTHOMODE
 70
     1
  9
$REGENMODE
 70
     1
  9
$FILLMODE
 70
     1
  9
$QTEXTMODE
 70
     0
  9
$MIRRTEXT
 70
     0
  9
$DRAGMODE
 70
     2
  9
$LTSCALE
 40
5.0
  9
$OSMODE
 70
    37
  9
$ATTMODE
 70
     1
  9
$TEXTSIZE
 40
0.2
  9
$TRACEWID
 40
0.05
  9
$TEXTSTYLE
  7
STANDARD
  9
$CLAYER
  8
0
  9
$CELTYPE
  6
BYLAYER
  9
$CECOLOR
 62
   256
  9
$DIMSCALE
 40
1.0
  9
$DIMASZ
 40
3.0
  9
$DIMEXO
 40
2.0
  9
$DIMDLI
 40
10.0
  9
$DIMRND
 40
0.0
  9
$DIMDLE
 40
0.0
  9
$DIMEXE
 40
2.0
  9
$DIMTP
 40
0.0
  9
$DIMTM
 40
0.0
  9
$DIMTXT
 40
3.2000000000000002
  9
$DIMCEN
 40
0.09
  9
$DIMTSZ
 40
0.0
  9
$DIMTOL
 70
     0
  9
$DIMLIM
 70
     0
  9
$DIMTIH
 70
     0
  9
$DIMTOH
 70
     0
  9
$DIMSE1
 70
     0
  9
$DIMSE2
 70
     0
  9
$DIMTAD
 70
     1
  9
$DIMZIN
 70
     8
  9
$DIMBLK
  1

  9
$DIMASO
 70
     0
  9
$DIMSHO
 70
     0
  9
$DIMPOST
  1

  9
$DIMAPOST
  1

  9
$DIMALT
 70
     0
  9
$DIMALTD
 70
     2
  9
$DIMALTF
 40
25.399999999999999
  9
$DIMLFAC
 40
1.0
  9
$DIMTOFL
 70
     1
  9
$DIMTVP
 40
1.6000000000000001
  9
$DIMTIX
 70
     0
  9
$DIMSOXD
 70
     0
  9
$DIMSAH
 70
     0
  9
$DIMBLK1
  1

  9
$DIMBLK2
  1

  9
$DIMSTYLE
  2
STANDARD
  9
$DIMCLRD
 70
   256
  9
$DIMCLRE
 70
   256
  9
$DIMCLRT
 70
   256
  9
$DIMTFAC
 40
1.0
  9
$DIMGAP
 40
0.5
  9
$LUNITS
 70
     2
  9
$LUPREC
 70
     1
  9
$SKETCHINC
 40
0.1
  9
$FILLETRAD
 40
0.0
  9
$AUNITS
 70
     0
  9
$AUPREC
 70
     1
  9
$MENU
  1
E:\r13\win\SUPPORT\ACAD
  9
$ELEVATION
 40
0.0
  9
$PELEVATION
 40
0.0
  9
$THICKNESS
 40
0.0
  9
$LIMCHECK
 70
     0
  9
$BLIPMODE
 70
     0
  9
$CHAMFERA
 40
0.0
  9
$CHAMFERB
 40
0.0
  9
$SKPOLY
 70
     0
  9
$TDCREATE
 40
2449840.6171180559
  9
$TDUPDATE
 40
2457711.6222828468
  9
$TDINDWG
 40
0.286078125
  9
$TDUSRTIMER
 40
0.286078125
  9
$USRTIMER
 70
     1
  9
$ANGBASE
 50
0.0
  9
$ANGDIR
 70
     0
  9
$PDMODE
 70
     0
  9
$PDSIZE
 40
0.0
  9
$PLINEWID
 40
0.0
  9
$COORDS
 70
     1
  9
$SPLFRAME
 70
     0
  9
$SPLINETYPE
 70
     6
  9
$SPLINESEGS
 70
     8
  9
$ATTDIA
 70
     0
  9
$ATTREQ
 70
     1
  9
$HANDLING
 70
     1
  9
$HANDSEED
  5
362D
  9
$SURFTAB1
 70
     6
  9
$SURFTAB2
 70
     6
  9
$SURFTYPE
 70
     6
  9
$SURFU
 70
     6
  9
$SURFV
 70
     6
  9
$UCSNAME
  2

  9
$UCSORG
 10
0.0
 20
0.0
 30
0.0
  9
$UCSXDIR
 10
1.0
 20
0.0
 30
0.0
  9
$UCSYDIR
 10
0.0
 20
1.0
 30
0.0
  9
$PUCSNAME
  2

  9
$PUCSORG
 10
0.0
 20
0.0
 30
0.0
  9
$PUCSXDIR
 10
1.0
 20
0.0
 30
0.0
  9
$PUCSYDIR
 10
0.0
 20
1.0
 30
0.0
  9
$USERI1
 70
     0
  9
$USERI2
 70
     1
  9
$USERI3
 70
     0
  9
$USERI4
 70
     0
  9
$USERI5
 70
     0
  9
$USERR1
 40
0.0
  9
$USERR2
 40
0.0
  9
$USERR3
 40
0.0
  9
$USERR4
 40
0.0
  9
$USERR5
 40
0.0
  9
$WORLDVIEW
 70
     1
  9
$SHADEDGE
 70
     3
  9
$SHADEDIF
 70
    70
  9
$TILEMODE
 70
     1
  9
$MAXACTVP
 70
    16
  9
$PLIMCHECK
 70
     0
  9
$PEXTMIN
 10
1.0000000000000000E+020
 20
1.0000000000000000E+020
 30
1.0000000000000000E+020
  9
$PEXTMAX
 10
-1.0000000000000000E+020
 20
-1.0000000000000000E+020
 30
-1.0000000000000000E+020
  9
$PLIMMIN
 10
0.0
 20
0.0
  9
$PLIMMAX
 10
12.0
 20
9.0
  9
$UNITMODE
 70
     0
  9
$VISRETAIN
 70
     0
  9
$PLINEGEN
 70
     0
  9
$PSLTSCALE
 70
     0
  0
ENDSEC
  0
SECTION
  2
TABLES
  0
TABLE
  2
VPORT
 70
     1
  0
VPORT
  2
*ACTIVE
 70
     0
 10
0.0
 20
0.0
 11
1.0
 21
1.0
 12
181.62393162393161
 22
100.0
 13
0.0
 23
0.0
 14
10.0
 24
10.0
 15
10.0
 25
10.0
 16
0.0
 26
0.0
 36
1.0
 17
0.0
 27
0.0
 37
0.0
 40
200.0
 41
1.816239316239316
 42
50.0
 43
0.0
 44
0.0
 50
0.0
 51
0.0
 71
     0
 72
   100
 73
     1
 74
     0
 75
     0
 76
     0
 77
     0
 78
     0
  0
ENDTAB
  0
TABLE
  2
LTYPE
 70
     3
  0
LTYPE
  2
CONTINUOUS
 70
     0
  3
Solid Line
 72
    65
 73
     0
 40
0.0
  0
LTYPE
  2
CENTER
 70
     0
  3
____ _ ____ _ ____ _ ____ _ ____ _ ____ _ ____
 72
    65
 73
     4
 40
2.0
 49
1.25
 49
-0.25
 49
0.25
 49
-0.25
  0
LTYPE
  2
PHANTOM2
 70
     0
  3
___ _ _ ___ _ _ ___ _ _ ___ _ _
 72
    65
 73
     6
 40
1.25
 49
0.625
 49
-0.125
 49
0.125
 49
-0.125
 49
0.125
 49
-0.125
  0
ENDTAB
  0
TABLE
  2
LAYER
 70
     4
  0
LAYER
  2
0
 70
     0
 62
     7
  6
CONTINUOUS
  0
LAYER
  2
1
 70
     0
 62
     1
  6
CENTER
  0
LAYER
  2
3
 70
     0
 62
     3
  6
CONTINUOUS
  0
LAYER
  2
DEFPOINTS
 70
     0
 62
     7
  6
CONTINUOUS
  0
ENDTAB
  0
TABLE
  2
STYLE
 70
     2
  0
STYLE
  2
STANDARD
 70
     0
 40
0.0
 41
1.0
 50
0.0
 71
     0
 42
0.2
  3
TXT
  4
BIGFONT
  0
STYLE
  2
STANDARD1
 70
     0
 40
0.0
 41
1.0
 50
0.0
 71
     0
 42
3.0
  3
txt
  4

  0
ENDTAB
  0
TABLE
  2
VIEW
 70
     1
  0
VIEW
  2
ALL
 70
     0
 40
270.0
 10
220.99159700000001
 20
135.0
 41
0.0
 11
0.0
 21
0.0
 31
1.0
 12
0.0
 22
0.0
 32
0.0
 42
0.0
 43
0.0
 44
0.0
 50
0.0
 71
     0
  0
ENDTAB
  0
TABLE
  2
UCS
 70
     0
  0
ENDTAB
  0
TABLE
  2
APPID
 70
     6
  0
APPID
  2
ACAD
 70
     0
  0
APPID
  2
ACAD_EXEMPT_FROM_CAD_STANDARDS
 70
     0
  0
APPID
  2
ACAD_MLEADERVER
 70
     0
  0
APPID
  2
ACAD_NAV_VCDISPLAY
 70
     0
  0
APPID
  2
ACAD_DSTYLE_DIMJAG
 70
     0
  0
APPID
  2
ACAD_DSTYLE_DIMTALN
 70
     0
  0
ENDTAB
  0
TABLE
  2
DIMSTYLE
 70
     1
  0
DIMSTYLE
  2
STANDARD
 70
     0
  3

  4

  5

  6

  7

 40
1.0
 41
0.18
 42
0.0625
 43
0.38
 44
0.18
 45
0.0
 46
0.0
 47
0.0
 48
0.0
140
0.18
141
0.09
142
0.0
143
25.399999999999999
144
1.0
145
0.0
146
1.0
147
0.09
 71
     0
 72
     0
 73
     1
 74
     1
 75
     0
 76
     0
 77
     0
 78
     0
170
     0
171
     2
172
     0
173
     0
174
     0
175
     0
176
     0
177
     0
178
     0
  0
ENDTAB
  0
ENDSEC
  0
SECTION
  2
BLOCKS
  0
BLOCK
  8
0
  2
$MODEL_SPACE
 70
     0
 10
0.0
 20
0.0
 30
0.0
  3
$MODEL_SPACE
  1

  0
ENDBLK
  5
E8
  8
0
  0
BLOCK
 67
     1
  8
0
  2
$PAPER_SPACE
 70
     0
 10
0.0
 20
0.0
 30
0.0
  3
$PAPER_SPACE
  1

  0
ENDBLK
  5
E6
 67
     1
  8
0
  0
ENDSEC
  0
SECTION
  2
ENTITIES
  0
TEXT
  5
E87
  8
0
 62
     3
 10
0.0
 20
0.0
 30
0.0
 40
10.0
  1
KCLF04X20
  7
STANDARD1
  0
ARC
  5
205F
  8
0
 10
116.7
 20
75.199999999999989
 30
0.0
 40
6.7500000000000044
 50
233.00095525276649
 51
306.99904474723297
  0
LINE
  5
2061
  8
1
 10
116.6999999999999
 20
86.949999999999974
 30
0.0
 11
116.7
 21
39.999999999999972
 31
0.0
  0
LINE
  5
2062
  8
1
 10
104.9926305260319
 20
76.199999999999989
 30
0.0
 11
128.40736947396809
 21
76.199999999999989
 31
0.0
  0
LINE
  5
2063
  8
1
 10
104.95
 20
75.199999999999989
 30
0.0
 11
128.44999999999999
 21
75.199999999999989
 31
0.0
  0
LINE
  5
2065
  8
0
 10
112.3962225893989
 20
70.0
 30
0.0
 11
109.0384011428421
 21
70.0
 31
0.0
  0
LINE
  5
2066
  8
0
 10
109.0384011428421
 20
70.0
 30
0.0
 11
109.0069820259713
 21
68.199999999999989
 31
0.0
  0
LINE
  5
2067
  8
0
 10
124.39301797402869
 20
68.199999999999989
 30
0.0
 11
124.3615988571579
 21
70.0
 31
0.0
  0
LINE
  5
2069
  8
0
 10
124.3615988571579
 20
70.0
 30
0.0
 11
121.0127709524842
 21
70.0
 31
0.0
  0
LINE
  5
206A
  8
0
 10
123.0
 20
64.999999999999972
 30
0.0
 11
110.40000000000001
 21
64.999999999999972
 31
0.0
  0
ARC
  5
206B
  8
0
 10
110.40000000000001
 20
66.399999999999963
 30
0.0
 40
1.399999999999997
 50
179.99999914622629
 51
270.0
  0
ARC
  5
206C
  8
0
 10
123.0
 20
66.399999999999963
 30
0.0
 40
1.399999999999999
 50
270.0
 51
0.0000008537736463
  0
LINE
  5
206D
  8
0
 10
109.0
 20
68.199999999999989
 30
0.0
 11
109.0
 21
66.399999999999963
 31
0.0
  0
LINE
  5
206E
  8
0
 10
124.40000000000001
 20
66.399999999999963
 30
0.0
 11
124.40000000000001
 21
68.199999999999989
 31
0.0
  0
LINE
  5
2070
  8
0
 10
124.40000000000001
 20
68.199999999999989
 30
0.0
 11
109.0
 21
68.199999999999989
 31
0.0
  0
LINE
  5
2075
  8
0
 10
118.2705
 20
44.999999999999972
 30
0.0
 11
118.7
 21
45.42949999999999
 31
0.0
  0
LINE
  5
2076
  8
0
 10
114.7
 20
45.42949999999999
 30
0.0
 11
115.12949999999999
 21
44.999999999999972
 31
0.0
  0
LINE
  5
2077
  8
0
 10
118.2705
 20
44.999999999999972
 30
0.0
 11
115.12949999999999
 21
44.999999999999972
 31
0.0
  0
LINE
  5
2078
  8
0
 10
114.7
 20
64.999999999999972
 30
0.0
 11
114.7
 21
45.42949999999999
 31
0.0
  0
LINE
  5
2079
  8
0
 10
118.7
 20
45.42949999999999
 30
0.0
 11
118.7
 21
64.999999999999972
 31
0.0
  0
LINE
  5
207A
  8
0
 10
118.7
 20
45.42949999999999
 30
0.0
 11
114.7
 21
45.42949999999999
 31
0.0
  0
LINE
  5
207D
  8
3
 10
118.32099999999861
 20
45.05049999999855
 30
0.0
 11
118.32099999999861
 21
64.999999999999972
 31
0.0
  0
LINE
  5
2080
  8
3
 10
115.0790000000014
 20
45.050499999998522
 30
0.0
 11
115.0790000000014
 21
64.999999999999972
 31
0.0
  0
CIRCLE
  5
2081
  8
0
 10
116.7
 20
76.199999999999989
 30
0.0
 40
4.0
  0
ARC
  5
2083
  8
0
 10
118.8026334996902
 20
147.90758668508269
 30
0.0
 40
73.999999999988745
 50
278.23350222912097
 51
282.40551155976851
  0
ARC
  5
2084
  8
0
 10
128.59999999999999
 20
114.2000000000005
 30
0.0
 40
35.000000000000533
 50
265.73981774116612
 51
280.03709378307371
  0
ARC
  5
2085
  8
0
 10
116.88909977566119
 20
75.406971058313275
 30
0.0
 40
6.7999999999998471
 50
306.14553206847069
 51
317.46776189537923
  0
ARC
  5
2086
  8
0
 10
130.19999999999999
 20
63.89999999999997
 30
0.0
 40
10.80000000000002
 50
97.448190561037237
 51
140.22103887096191
  0
ARC
  5
2087
  8
0
 10
116.7
 20
75.199999999999989
 30
0.0
 40
6.75
 50
59.754660922563147
 51
233.00095525276649
  0
ARC
  5
2088
  8
0
 10
116.6999999999892
 20
75.200000000014001
 30
0.0
 40
6.7500000000177076
 50
306.9990447472353
 51
308.47859513329598
  0
ARC
  5
208A
  8
0
 10
126.6995299596461
 20
92.578295964270694
 30
0.0
 40
13.29999999999982
 50
240.25074200246539
 51
266.9850664106383
  0
ARC
  5
208B
  8
0
 10
136.63991445747831
 20
1.0253458189299911
 30
0.0
 40
73.999999997076685
 50
95.614610555670268
 51
96.081602672095684
  0
LINE
  5
208C
  8
0
 10
165.40000000000001
 20
75.758051631137704
 30
0.0
 11
166.69999999999931
 21
75.385786437627075
 31
0.0
  0
POLYLINE
  5
208D
  8
0
 66
     1
 10
0.0
 20
0.0
 30
0.0
  0
VERTEX
  5
3436
  8
0
 10
165.40000000000001
 20
79.836137808588461
 30
0.0
  0
VERTEX
  5
3437
  8
0
 10
165.93179267060879
 20
79.680165414879824
 30
0.0
  0
VERTEX
  5
3438
  8
0
 10
166.43066374979611
 20
79.519159281662638
 30
0.0
  0
VERTEX
  5
3439
  8
0
 10
166.90644357134991
 20
79.351948466491365
 30
0.0
  0
VERTEX
  5
343A
  8
0
 10
167.34148805264999
 20
79.187129598237362
 30
0.0
  0
VERTEX
  5
343B
  8
0
 10
167.6950129911487
 20
79.044558146091475
 30
0.0
  0
VERTEX
  5
343C
  8
0
 10
168.01303021498839
 20
78.909538931178872
 30
0.0
  0
SEQEND
  5
343D
  8
0
  0
POLYLINE
  5
208E
  8
0
 66
     1
 10
0.0
 20
0.0
 30
0.0
  0
VERTEX
  5
343E
  8
0
 10
168.5787175450271
 20
76.209121052131252
 30
0.0
  0
VERTEX
  5
343F
  8
0
 10
168.49985560868669
 20
76.051187268279804
 30
0.0
  0
VERTEX
  5
3440
  8
0
 10
168.40968613349889
 20
75.913061750503175
 30
0.0
  0
VERTEX
  5
3441
  8
0
 10
168.1926714896646
 20
75.675454174518805
 30
0.0
  0
VERTEX
  5
3442
  8
0
 10
168.02742465842331
 20
75.548806200794331
 30
0.0
  0
VERTEX
  5
3443
  8
0
 10
167.84419160627809
 20
75.445371942413374
 30
0.0
  0
VERTEX
  5
3444
  8
0
 10
167.63686033574581
 20
75.364999594966903
 30
0.0
  0
VERTEX
  5
3445
  8
0
 10
167.4113360362517
 20
75.314962263179254
 30
0.0
  0
VERTEX
  5
3446
  8
0
 10
167.0730665523528
 20
75.305380349430465
 30
0.0
  0
VERTEX
  5
3447
  8
0
 10
166.88854140629761
 20
75.332697580103456
 30
0.0
  0
VERTEX
  5
3448
  8
0
 10
166.69999999999931
 20
75.385786437627019
 30
0.0
  0
SEQEND
  5
3449
  8
0
  0
LINE
  5
208F
  8
0
 10
168.878717545027
 20
76.909121052131241
 30
0.0
 11
168.5787175450271
 21
76.209121052131252
 31
0.0
  0
POLYLINE
  5
2090
  8
0
 66
     1
 10
0.0
 20
0.0
 30
0.0
  0
VERTEX
  5
344A
  8
0
 10
168.01303021498839
 20
78.909538931178872
 30
0.0
  0
VERTEX
  5
344B
  8
0
 10
168.31869525336401
 20
78.757469712560408
 30
0.0
  0
VERTEX
  5
344C
  8
0
 10
168.5674785253922
 20
78.554300833207606
 30
0.0
  0
VERTEX
  5
344D
  8
0
 10
168.75943247230009
 20
78.314757539220494
 30
0.0
  0
VERTEX
  5
344E
  8
0
 10
168.88333609625789
 20
78.081644414928206
 30
0.0
  0
VERTEX
  5
344F
  8
0
 10
168.9655344278226
 20
77.819701174329566
 30
0.0
  0
VERTEX
  5
3450
  8
0
 10
168.98239509906321
 20
77.729139194100995
 30
0.0
  0
VERTEX
  5
3451
  8
0
 10
168.99113540248931
 20
77.66283492083349
 30
0.0
  0
VERTEX
  5
3452
  8
0
 10
168.99770899763911
 20
77.582871939707388
 30
0.0
  0
VERTEX
  5
3453
  8
0
 10
168.9992730656376
 20
77.546693411243012
 30
0.0
  0
VERTEX
  5
3454
  8
0
 10
168.999992719522
 20
77.504673476315304
 30
0.0
  0
VERTEX
  5
3455
  8
0
 10
168.99964589029409
 20
77.467408532958814
 30
0.0
  0
VERTEX
  5
3456
  8
0
 10
168.9981326597549
 20
77.425176649529732
 30
0.0
  0
VERTEX
  5
3457
  8
0
 10
168.99127644869719
 20
77.338461912970985
 30
0.0
  0
VERTEX
  5
3458
  8
0
 10
168.9681588733342
 20
77.190508231049847
 30
0.0
  0
VERTEX
  5
3459
  8
0
 10
168.93568406919471
 20
77.065475830979608
 30
0.0
  0
VERTEX
  5
345A
  8
0
 10
168.8787175450272
 20
76.909121052130558
 30
0.0
  0
SEQEND
  5
345B
  8
0
  0
POLYLINE
  5
2091
  8
0
 66
     1
 10
0.0
 20
0.0
 30
0.0
  0
VERTEX
  5
345C
  8
0
 10
141.70000000000019
 20
81.326836974629686
 30
0.0
  0
VERTEX
  5
345D
  8
0
 10
140.87526496469729
 20
81.199578086408565
 30
0.0
  0
VERTEX
  5
345E
  8
0
 10
140.05158170163071
 20
81.036964811562086
 30
0.0
  0
VERTEX
  5
345F
  8
0
 10
139.2229260462949
 20
80.836585983620239
 30
0.0
  0
VERTEX
  5
3460
  8
0
 10
138.39999999999989
 20
80.599999999999966
 30
0.0
  0
SEQEND
  5
3461
  8
0
  0
POLYLINE
  5
2092
  8
0
 66
     1
 10
0.0
 20
0.0
 30
0.0
  0
VERTEX
  5
3462
  8
0
 10
141.70000000000019
 20
77.347198565580641
 30
0.0
  0
VERTEX
  5
3463
  8
0
 10
140.50044848784771
 20
77.107578981390645
 30
0.0
  0
VERTEX
  5
3464
  8
0
 10
139.2999999999933
 20
76.803030104293896
 30
0.0
  0
SEQEND
  5
3465
  8
0
  0
POLYLINE
  5
2094
  8
0
 66
     1
 10
0.0
 20
0.0
 30
0.0
  0
VERTEX
  5
3466
  8
0
 10
134.69999999999999
 20
75.635366999001604
 30
0.0
  0
VERTEX
  5
3467
  8
0
 10
135.8578743941637
 20
75.899824878532939
 30
0.0
  0
VERTEX
  5
3468
  8
0
 10
137.00929818024139
 20
76.182295739640665
 30
0.0
  0
VERTEX
  5
3469
  8
0
 10
138.15960831827419
 20
76.484155074542912
 30
0.0
  0
VERTEX
  5
346A
  8
0
 10
139.2999999999933
 20
76.803030104293896
 30
0.0
  0
SEQEND
  5
346B
  8
0
  0
POLYLINE
  5
2095
  8
0
 66
     1
 10
0.0
 20
0.0
 30
0.0
  0
VERTEX
  5
346C
  8
0
 10
134.69999999999999
 20
79.735670614387374
 30
0.0
  0
VERTEX
  5
346D
  8
0
 10
135.633032270802
 20
79.91391076251989
 30
0.0
  0
VERTEX
  5
346E
  8
0
 10
136.55973440822501
 20
80.117121187456604
 30
0.0
  0
VERTEX
  5
346F
  8
0
 10
137.48444795046311
 20
80.346402238492317
 30
0.0
  0
VERTEX
  5
3470
  8
0
 10
138.39999999999989
 20
80.599999999999966
 30
0.0
  0
SEQEND
  5
3471
  8
0
  0
POLYLINE
  5
2096
  8
0
 66
     1
 10
0.0
 20
0.0
 30
0.0
  0
VERTEX
  5
3472
  8
0
 10
160.10000000000031
 20
76.956201574527569
 30
0.0
  0
VERTEX
  5
3473
  8
0
 10
160.9464138559149
 20
76.798476911484556
 30
0.0
  0
VERTEX
  5
3474
  8
0
 10
161.7816692589229
 20
76.630503407807424
 30
0.0
  0
VERTEX
  5
3475
  8
0
 10
162.62384869846829
 20
76.448545032278901
 30
0.0
  0
VERTEX
  5
3476
  8
0
 10
163.4422402269808
 20
76.25958351323311
 30
0.0
  0
VERTEX
  5
3477
  8
0
 10
163.95052252573311
 20
76.136110901437974
 30
0.0
  0
VERTEX
  5
3478
  8
0
 10
164.44533759068639
 20
76.011393620308525
 30
0.0
  0
VERTEX
  5
3479
  8
0
 10
164.93095827681881
 20
75.884622454417951
 30
0.0
  0
VERTEX
  5
347A
  8
0
 10
165.40000000000001
 20
75.758051631137704
 30
0.0
  0
SEQEND
  5
347B
  8
0
  0
POLYLINE
  5
2097
  8
0
 66
     1
 10
0.0
 20
0.0
 30
0.0
  0
VERTEX
  5
347C
  8
0
 10
160.10000000000031
 20
80.949346789970775
 30
0.0
  0
VERTEX
  5
347D
  8
0
 10
160.94238130468361
 20
80.804812373921038
 30
0.0
  0
VERTEX
  5
347E
  8
0
 10
161.77399767355519
 20
80.650764356362274
 30
0.0
  0
VERTEX
  5
347F
  8
0
 10
162.61275597297609
 20
80.483796190491546
 30
0.0
  0
VERTEX
  5
3480
  8
0
 10
163.42819387758129
 20
80.310292695359678
 30
0.0
  0
VERTEX
  5
3481
  8
0
 10
164.07380231294971
 20
80.165004666625663
 30
0.0
  0
VERTEX
  5
3482
  8
0
 10
164.70000000000289
 20
80.017360921208407
 30
0.0
  0
SEQEND
  5
3483
  8
0
  0
LINE
  5
2099
  8
0
 10
164.70000000000289
 20
80.017360921208407
 30
0.0
 11
165.40000000000001
 21
79.836137808588461
 31
0.0
  0
POLYLINE
  5
209A
  8
0
 66
     1
 10
0.0
 20
0.0
 30
0.0
  0
VERTEX
  5
3484
  8
0
 10
143.19999999999769
 20
77.558751015088518
 30
0.0
  0
VERTEX
  5
3485
  8
0
 10
144.53468605204941
 20
77.685282799844856
 30
0.0
  0
VERTEX
  5
3486
  8
0
 10
145.8890744697953
 20
77.783094652041768
 30
0.0
  0
VERTEX
  5
3487
  8
0
 10
147.25708101342141
 20
77.850762252668659
 30
0.0
  0
VERTEX
  5
3488
  8
0
 10
148.67632328089911
 20
77.887734041245182
 30
0.0
  0
VERTEX
  5
3489
  8
0
 10
150.10317403076789
 20
77.891151873854227
 30
0.0
  0
VERTEX
  5
348A
  8
0
 10
151.5304719703916
 20
77.860717604940419
 30
0.0
  0
SEQEND
  5
348B
  8
0
  0
POLYLINE
  5
209B
  8
0
 66
     1
 10
0.0
 20
0.0
 30
0.0
  0
VERTEX
  5
348C
  8
0
 10
143.1999999999999
 20
81.469066272405769
 30
0.0
  0
VERTEX
  5
348D
  8
0
 10
144.53534874392949
 20
81.591194192287048
 30
0.0
  0
VERTEX
  5
348E
  8
0
 10
145.89018607007529
 20
81.686425442081514
 30
0.0
  0
VERTEX
  5
348F
  8
0
 10
147.2585220412131
 20
81.753414180767209
 30
0.0
  0
VERTEX
  5
3490
  8
0
 10
148.6772416788553
 20
81.791731322984845
 30
0.0
  0
VERTEX
  5
3491
  8
0
 10
150.10356103593571
 20
81.798631531465219
 30
0.0
  0
VERTEX
  5
3492
  8
0
 10
151.5304719703916
 20
81.773817866105276
 30
0.0
  0
SEQEND
  5
3493
  8
0
  0
POLYLINE
  5
209D
  8
0
 66
     1
 10
0.0
 20
0.0
 30
0.0
  0
VERTEX
  5
3494
  8
0
 10
141.70000000000019
 20
77.347198565580641
 30
0.0
  0
VERTEX
  5
3495
  8
0
 10
142.4443603273279
 20
77.464252194992113
 30
0.0
  0
VERTEX
  5
3496
  8
0
 10
143.19999999999769
 20
77.558751015088518
 30
0.0
  0
SEQEND
  5
3497
  8
0
  0
POLYLINE
  5
209E
  8
0
 66
     1
 10
0.0
 20
0.0
 30
0.0
  0
VERTEX
  5
3498
  8
0
 10
141.70000000000019
 20
81.326836974629686
 30
0.0
  0
VERTEX
  5
3499
  8
0
 10
142.44447575442041
 20
81.411685006926845
 30
0.0
  0
VERTEX
  5
349A
  8
0
 10
143.1999999999999
 20
81.469066272405769
 30
0.0
  0
SEQEND
  5
349B
  8
0
  0
POLYLINE
  5
209F
  8
0
 66
     1
 10
0.0
 20
0.0
 30
0.0
  0
VERTEX
  5
349C
  8
0
 10
156.4999999999996
 20
77.488149627176227
 30
0.0
  0
VERTEX
  5
349D
  8
0
 10
158.30471167315349
 20
77.249374885991585
 30
0.0
  0
VERTEX
  5
349E
  8
0
 10
160.10000000000031
 20
76.956201574527597
 30
0.0
  0
SEQEND
  5
349F
  8
0
  0
POLYLINE
  5
20A0
  8
0
 66
     1
 10
0.0
 20
0.0
 30
0.0
  0
VERTEX
  5
34A0
  8
0
 10
156.4999999999996
 20
81.437724660770215
 30
0.0
  0
VERTEX
  5
34A1
  8
0
 10
158.30425219139579
 20
81.21897858075971
 30
0.0
  0
VERTEX
  5
34A2
  8
0
 10
160.10000000000031
 20
80.949346789970775
 30
0.0
  0
SEQEND
  5
34A3
  8
0
  0
ARC
  5
20A2
  8
0
 10
149.5334643049963
 20
17.893960477392181
 30
0.0
 40
60.000000000083389
 50
83.33240954438206
 51
87.356150358825715
  0
ARC
  5
20A3
  8
0
 10
149.70000000000149
 20
17.80000000001975
 30
0.0
 40
63.999999999980183
 50
83.900810818467917
 51
87.670719420867286
  0
LINE
  5
20A5
  8
0
 10
151.5304719703916
 20
77.860717604940419
 30
0.0
 11
152.3011147573921
 21
77.830094077945375
 31
0.0
  0
LINE
  5
20A6
  8
0
 10
151.5304719703916
 20
81.773817866105276
 30
0.0
 11
152.3011147573921
 21
81.747120357517858
 31
0.0
  0
LINE
  5
20F5
  8
1
 10
104.0
 20
131.94999999999999
 30
0.0
 11
174.0
 21
131.94999999999999
 31
0.0
  0
LINE
  5
20F6
  8
1
 10
116.7
 20
144.65000000000001
 30
0.0
 11
116.7
 21
119.2499999999999
 31
0.0
  0
ARC
  5
20FC
  8
0
 10
116.7
 20
131.94999999999999
 30
0.0
 40
7.7000000000000082
 50
57.581604052526522
 51
122.4183959474741
  0
ARC
  5
20FD
  8
0
 10
116.7
 20
131.94999999999999
 30
0.0
 40
7.6999999999999957
 50
151.23768780927779
 51
208.76231219072221
  0
ARC
  5
20FE
  8
0
 10
116.7
 20
131.94999999999999
 30
0.0
 40
7.7000000000000108
 50
237.58160405252579
 51
302.41839594747341
  0
LINE
  5
2101
  8
0
 10
120.7
 20
129.25
 30
0.0
 11
120.7
 21
134.65000000000001
 31
0.0
  0
LINE
  5
2102
  8
0
 10
112.7
 20
134.65000000000001
 30
0.0
 11
112.7
 21
129.25
 31
0.0
  0
POLYLINE
  5
2104
  8
0
 66
     1
 10
0.0
 20
0.0
 30
0.0
  0
VERTEX
  5
34A4
  8
0
 10
168.01303021498839
 20
127.7195438001545
 30
0.0
  0
VERTEX
  5
34A5
  8
0
 10
168.2476137078506
 20
128.1599551270323
 30
0.0
  0
VERTEX
  5
34A6
  8
0
 10
168.45019383259481
 20
128.6095650750562
 30
0.0
  0
VERTEX
  5
34A7
  8
0
 10
168.6207927128637
 20
129.0648135316639
 30
0.0
  0
VERTEX
  5
34A8
  8
0
 10
168.75943247230009
 20
129.52214038429329
 30
0.0
  0
VERTEX
  5
34A9
  8
0
 10
168.84667893692011
 20
129.8832505075373
 30
0.0
  0
VERTEX
  5
34AA
  8
0
 10
168.91535933421869
 20
130.24403130064499
 30
0.0
  0
VERTEX
  5
34AB
  8
0
 10
168.9655344278226
 20
130.6001748090581
 30
0.0
  0
VERTEX
  5
34AC
  8
0
 10
168.98239509906321
 20
130.76026054300269
 30
0.0
  0
VERTEX
  5
34AD
  8
0
 10
168.99113540248939
 20
130.85984956112139
 30
0.0
  0
VERTEX
  5
34AE
  8
0
 10
168.99770899763911
 20
130.94730024659569
 30
0.0
  0
VERTEX
  5
34AF
  8
0
 10
168.9992730656376
 20
130.97038880940789
 30
0.0
  0
VERTEX
  5
34B0
  8
0
 10
168.99999271952211
 20
130.98138349617381
 30
0.0
  0
VERTEX
  5
34B1
  8
0
 10
168.99999999999989
 20
130.98149600637859
 30
0.0
  0
SEQEND
  5
34B2
  8
0
  0
LINE
  5
2105
  8
0
 10
169.0
 20
130.9807151525178
 30
0.0
 11
169.0
 21
132.919363641101
 31
0.0
  0
POLYLINE
  5
2106
  8
0
 66
     1
 10
0.0
 20
0.0
 30
0.0
  0
VERTEX
  5
34B3
  8
0
 10
168.99999999999989
 20
132.9185039936211
 30
0.0
  0
VERTEX
  5
34B4
  8
0
 10
168.9999877607236
 20
132.91869312050909
 30
0.0
  0
VERTEX
  5
34B5
  8
0
 10
168.99949082062679
 20
132.92631041893139
 30
0.0
  0
VERTEX
  5
34B6
  8
0
 10
168.99763360912519
 20
132.95378658978979
 30
0.0
  0
VERTEX
  5
34B7
  8
0
 10
168.9935806845084
 20
133.00906806405339
 30
0.0
  0
VERTEX
  5
34B8
  8
0
 10
168.98849279409899
 20
133.07191609444291
 30
0.0
  0
VERTEX
  5
34B9
  8
0
 10
168.96834347269211
 20
133.2743230665792
 30
0.0
  0
VERTEX
  5
34BA
  8
0
 10
168.9414877886949
 20
133.48556921631649
 30
0.0
  0
VERTEX
  5
34BB
  8
0
 10
168.9081562401721
 20
133.6994976133935
 30
0.0
  0
VERTEX
  5
34BC
  8
0
 10
168.80359704579681
 20
134.20417233053379
 30
0.0
  0
VERTEX
  5
34BD
  8
0
 10
168.66170973525581
 20
134.70981867920739
 30
0.0
  0
VERTEX
  5
34BE
  8
0
 10
168.48205204277011
 20
135.2120439479726
 30
0.0
  0
VERTEX
  5
34BF
  8
0
 10
168.26418170256031
 20
135.7064554253879
 30
0.0
  0
VERTEX
  5
34C0
  8
0
 10
168.14334540588499
 20
135.9447512759275
 30
0.0
  0
VERTEX
  5
34C1
  8
0
 10
168.01303021498839
 20
136.18045619984551
 30
0.0
  0
SEQEND
  5
34C2
  8
0
  0
POLYLINE
  5
2107
  8
0
 66
     1
 10
0.0
 20
0.0
 30
0.0
  0
VERTEX
  5
34C3
  8
0
 10
164.70000000000289
 20
124.6018314759031
 30
0.0
  0
VERTEX
  5
34C4
  8
0
 10
165.05473104430621
 20
124.8186863370245
 30
0.0
  0
VERTEX
  5
34C5
  8
0
 10
165.40000000000001
 20
125.05
 30
0.0
  0
SEQEND
  5
34C6
  8
0
  0
POLYLINE
  5
2108
  8
0
 66
     1
 10
0.0
 20
0.0
 30
0.0
  0
VERTEX
  5
34C7
  8
0
 10
165.40000000000001
 20
138.84999999999991
 30
0.0
  0
VERTEX
  5
34C8
  8
0
 10
165.05534362593809
 20
139.08092142438491
 30
0.0
  0
VERTEX
  5
34C9
  8
0
 10
164.70000000000289
 20
139.29816852409689
 30
0.0
  0
SEQEND
  5
34CA
  8
0
  0
POLYLINE
  5
2109
  8
0
 66
     1
 10
0.0
 20
0.0
 30
0.0
  0
VERTEX
  5
34CB
  8
0
 10
168.01303021498839
 20
136.18045619984551
 30
0.0
  0
VERTEX
  5
34CC
  8
0
 10
167.66942657025899
 20
136.7214959173626
 30
0.0
  0
VERTEX
  5
34CD
  8
0
 10
167.28235138722201
 20
137.22957797067559
 30
0.0
  0
VERTEX
  5
34CE
  8
0
 10
166.99297988102799
 20
137.55757184494939
 30
0.0
  0
VERTEX
  5
34CF
  8
0
 10
166.6850033501328
 20
137.86815802237979
 30
0.0
  0
VERTEX
  5
34D0
  8
0
 10
166.35977138296369
 20
138.1600257208116
 30
0.0
  0
VERTEX
  5
34D1
  8
0
 10
165.89537868357601
 20
138.52259936575081
 30
0.0
  0
VERTEX
  5
34D2
  8
0
 10
165.40000000000001
 20
138.84999999999991
 30
0.0
  0
SEQEND
  5
34D3
  8
0
  0
POLYLINE
  5
210A
  8
0
 66
     1
 10
0.0
 20
0.0
 30
0.0
  0
VERTEX
  5
34D4
  8
0
 10
165.40000000000001
 20
125.05
 30
0.0
  0
VERTEX
  5
34D5
  8
0
 10
165.93179267060879
 20
125.4038060742503
 30
0.0
  0
VERTEX
  5
34D6
  8
0
 10
166.43066374979611
 20
125.80071168357659
 30
0.0
  0
VERTEX
  5
34D7
  8
0
 10
166.75215287775509
 20
126.0965221803594
 30
0.0
  0
VERTEX
  5
34D8
  8
0
 10
167.05620811602759
 20
126.4108726991998
 30
0.0
  0
VERTEX
  5
34D9
  8
0
 10
167.34148805264999
 20
126.7424433307001
 30
0.0
  0
VERTEX
  5
34DA
  8
0
 10
167.6950129911487
 20
127.2153987436013
 30
0.0
  0
VERTEX
  5
34DB
  8
0
 10
168.01303021498839
 20
127.7195438001545
 30
0.0
  0
SEQEND
  5
34DC
  8
0
  0
POLYLINE
  5
210C
  8
0
 66
     1
 10
0.0
 20
0.0
 30
0.0
  0
VERTEX
  5
34DD
  8
0
 10
134.69999999999999
 20
125.45
 30
0.0
  0
VERTEX
  5
34DE
  8
0
 10
135.6322965711955
 20
125.42311078524349
 30
0.0
  0
VERTEX
  5
34DF
  8
0
 10
136.55973440822501
 20
125.3684559038773
 30
0.0
  0
VERTEX
  5
34E0
  8
0
 10
137.4837483557356
 20
125.2861767411009
 30
0.0
  0
VERTEX
  5
34E1
  8
0
 10
138.40000000000001
 20
125.176943418088
 30
0.0
  0
SEQEND
  5
34E2
  8
0
  0
POLYLINE
  5
210D
  8
0
 66
     1
 10
0.0
 20
0.0
 30
0.0
  0
VERTEX
  5
34E3
  8
0
 10
138.40000000000001
 20
138.723056581912
 30
0.0
  0
VERTEX
  5
34E4
  8
0
 10
137.4908575957991
 20
138.61456450223491
 30
0.0
  0
VERTEX
  5
34E5
  8
0
 10
136.57127642206589
 20
138.53240017179991
 30
0.0
  0
VERTEX
  5
34E6
  8
0
 10
135.63960070359849
 20
138.47721077268889
 30
0.0
  0
VERTEX
  5
34E7
  8
0
 10
134.6999999999999
 20
138.44999999999999
 30
0.0
  0
SEQEND
  5
34E8
  8
0
  0
LINE
  5
210E
  8
0
 10
122.7
 20
134.65000000000001
 30
0.0
 11
109.95
 21
134.65000000000001
 31
0.0
  0
LINE
  5
210F
  8
0
 10
109.95
 20
129.25
 30
0.0
 11
122.7
 21
129.25
 31
0.0
  0
POLYLINE
  5
2110
  8
0
 66
     1
 10
0.0
 20
0.0
 30
0.0
  0
VERTEX
  5
34E9
  8
0
 10
122.7
 20
134.65000000000001
 30
0.0
  0
VERTEX
  5
34EA
  8
0
 10
122.76853831250099
 20
134.63788959449499
 30
0.0
  0
VERTEX
  5
34EB
  8
0
 10
122.8294331147751
 20
134.60246989473211
 30
0.0
  0
VERTEX
  5
34EC
  8
0
 10
122.87390994015379
 20
134.54876908785491
 30
0.0
  0
VERTEX
  5
34ED
  8
0
 10
122.8968709012364
 20
134.4852398672864
 30
0.0
  0
VERTEX
  5
34EE
  8
0
 10
122.90000000000011
 20
134.45000000298029
 30
0.0
  0
SEQEND
  5
34EF
  8
0
  0
LINE
  5
2111
  8
0
 10
122.90000000000001
 20
129.44999999999999
 30
0.0
 11
122.90000000000001
 21
134.4500000029802
 31
0.0
  0
POLYLINE
  5
2112
  8
0
 66
     1
 10
0.0
 20
0.0
 30
0.0
  0
VERTEX
  5
34F0
  8
0
 10
122.90000000000001
 20
129.44999999999999
 30
0.0
  0
VERTEX
  5
34F1
  8
0
 10
122.8894451586313
 20
129.38588657027461
 30
0.0
  0
VERTEX
  5
34F2
  8
0
 10
122.85926236524379
 20
129.3290227334704
 30
0.0
  0
VERTEX
  5
34F3
  8
0
 10
122.81239182400989
 20
129.28456699877071
 30
0.0
  0
VERTEX
  5
34F4
  8
0
 10
122.75219488181691
 20
129.25693085613659
 30
0.0
  0
VERTEX
  5
34F5
  8
0
 10
122.7
 20
129.25
 30
0.0
  0
SEQEND
  5
34F6
  8
0
  0
POLYLINE
  5
2114
  8
0
 66
     1
 10
0.0
 20
0.0
 30
0.0
  0
VERTEX
  5
34F7
  8
0
 10
141.70000000000019
 20
124.5499999999999
 30
0.0
  0
VERTEX
  5
34F8
  8
0
 10
142.44447575442041
 20
124.2954302038118
 30
0.0
  0
VERTEX
  5
34F9
  8
0
 10
143.1999999999999
 20
124.06150133517831
 30
0.0
  0
SEQEND
  5
34FA
  8
0
  0
POLYLINE
  5
2115
  8
0
 66
     1
 10
0.0
 20
0.0
 30
0.0
  0
VERTEX
  5
34FB
  8
0
 10
143.1999999999999
 20
139.83849866482171
 30
0.0
  0
VERTEX
  5
34FC
  8
0
 10
142.44603060947841
 20
139.6050762382043
 30
0.0
  0
VERTEX
  5
34FD
  8
0
 10
141.7000000000001
 20
139.34999999999999
 30
0.0
  0
SEQEND
  5
34FE
  8
0
  0
POLYLINE
  5
2116
  8
0
 66
     1
 10
0.0
 20
0.0
 30
0.0
  0
VERTEX
  5
34FF
  8
0
 10
138.39999999999989
 20
138.723056581912
 30
0.0
  0
VERTEX
  5
3500
  8
0
 10
139.21359853464509
 20
138.84336379744761
 30
0.0
  0
VERTEX
  5
3501
  8
0
 10
140.03488962999481
 20
138.9873230441128
 30
0.0
  0
VERTEX
  5
3502
  8
0
 10
140.86584312471649
 20
139.15632594093429
 30
0.0
  0
VERTEX
  5
3503
  8
0
 10
141.7000000000001
 20
139.35000000000011
 30
0.0
  0
SEQEND
  5
3504
  8
0
  0
POLYLINE
  5
2118
  8
0
 66
     1
 10
0.0
 20
0.0
 30
0.0
  0
VERTEX
  5
3505
  8
0
 10
141.70000000000019
 20
124.55
 30
0.0
  0
VERTEX
  5
3506
  8
0
 10
140.8762870927599
 20
124.7413988556834
 30
0.0
  0
VERTEX
  5
3507
  8
0
 10
140.05158170163079
 20
124.90951441401759
 30
0.0
  0
VERTEX
  5
3508
  8
0
 10
139.22398079265071
 20
125.0549581421933
 30
0.0
  0
VERTEX
  5
3509
  8
0
 10
138.39999999999989
 20
125.176943418088
 30
0.0
  0
SEQEND
  5
350A
  8
0
  0
POLYLINE
  5
2119
  8
0
 66
     1
 10
0.0
 20
0.0
 30
0.0
  0
VERTEX
  5
350B
  8
0
 10
143.1999999999999
 20
124.06150133517831
 30
0.0
  0
VERTEX
  5
350C
  8
0
 10
144.19729224017681
 20
123.7892873168075
 30
0.0
  0
VERTEX
  5
350D
  8
0
 10
145.2054875391251
 20
123.5551743964203
 30
0.0
  0
VERTEX
  5
350E
  8
0
 10
146.2328011306312
 20
123.3580200810197
 30
0.0
  0
VERTEX
  5
350F
  8
0
 10
147.26783557718409
 20
123.20067443532371
 30
0.0
  0
VERTEX
  5
3510
  8
0
 10
148.32378061759451
 20
123.0821493920478
 30
0.0
  0
VERTEX
  5
3511
  8
0
 10
149.38393998533809
 20
123.00522325456021
 30
0.0
  0
VERTEX
  5
3512
  8
0
 10
150.45504138206681
 20
122.96998091866099
 30
0.0
  0
VERTEX
  5
3513
  8
0
 10
151.5304719703916
 20
122.9773728869293
 30
0.0
  0
SEQEND
  5
3514
  8
0
  0
LINE
  5
211A
  8
0
 10
152.30111475739159
 20
140.94999999999999
 30
0.0
 11
151.5304719703916
 21
140.92262711307069
 31
0.0
  0
POLYLINE
  5
211B
  8
0
 66
     1
 10
0.0
 20
0.0
 30
0.0
  0
VERTEX
  5
3515
  8
0
 10
151.5304719703916
 20
140.92262711307069
 30
0.0
  0
VERTEX
  5
3516
  8
0
 10
150.4928913264647
 20
140.9304762979244
 30
0.0
  0
VERTEX
  5
3517
  8
0
 10
149.45556676396771
 20
140.8984623328098
 30
0.0
  0
VERTEX
  5
3518
  8
0
 10
148.41013530734449
 20
140.82568801005581
 30
0.0
  0
VERTEX
  5
3519
  8
0
 10
147.3686484356092
 20
140.71246288916839
 30
0.0
  0
VERTEX
  5
351A
  8
0
 10
146.31802143538391
 20
140.55648893123151
 30
0.0
  0
VERTEX
  5
351B
  8
0
 10
145.2751904441198
 20
140.35951256343839
 30
0.0
  0
VERTEX
  5
351C
  8
0
 10
144.2336543578192
 20
140.11987635978971
 30
0.0
  0
VERTEX
  5
351D
  8
0
 10
143.1999999999999
 20
139.83849866482171
 30
0.0
  0
SEQEND
  5
351E
  8
0
  0
LINE
  5
211D
  8
0
 10
151.5304719703916
 20
122.9773728869293
 30
0.0
 11
152.3011147573921
 21
122.95
 31
0.0
  0
LINE
  5
211E
  8
0
 10
156.4999999999992
 20
122.95
 30
0.0
 11
152.3011147573921
 21
122.95
 31
0.0
  0
POLYLINE
  5
211F
  8
0
 66
     1
 10
0.0
 20
0.0
 30
0.0
  0
VERTEX
  5
351F
  8
0
 10
156.49999999999969
 20
122.95
 30
0.0
  0
VERTEX
  5
3520
  8
0
 10
157.4031907872459
 20
122.99375225865781
 30
0.0
  0
VERTEX
  5
3521
  8
0
 10
158.30425219139579
 20
123.0583599216246
 30
0.0
  0
VERTEX
  5
3522
  8
0
 10
159.2038360446935
 20
123.1438483617039
 30
0.0
  0
VERTEX
  5
3523
  8
0
 10
160.10000000000031
 20
123.25
 30
0.0
  0
SEQEND
  5
3524
  8
0
  0
POLYLINE
  5
2120
  8
0
 66
     1
 10
0.0
 20
0.0
 30
0.0
  0
VERTEX
  5
3525
  8
0
 10
160.10000000000031
 20
123.25
 30
0.0
  0
VERTEX
  5
3526
  8
0
 10
160.66235239477891
 20
123.2905740468435
 30
0.0
  0
VERTEX
  5
3527
  8
0
 10
161.22121411060931
 20
123.3626796304755
 30
0.0
  0
VERTEX
  5
3528
  8
0
 10
161.77399767355519
 20
123.4658563650307
 30
0.0
  0
VERTEX
  5
3529
  8
0
 10
162.33532703224469
 20
123.6042531401953
 30
0.0
  0
VERTEX
  5
352A
  8
0
 10
162.88759375872809
 20
123.7747614438219
 30
0.0
  0
VERTEX
  5
352B
  8
0
 10
163.42819387758129
 20
123.9764745426683
 30
0.0
  0
VERTEX
  5
352C
  8
0
 10
164.07380231294979
 20
124.2659121179347
 30
0.0
  0
VERTEX
  5
352D
  8
0
 10
164.70000000000289
 20
124.6018314759031
 30
0.0
  0
SEQEND
  5
352E
  8
0
  0
POLYLINE
  5
2122
  8
0
 66
     1
 10
0.0
 20
0.0
 30
0.0
  0
VERTEX
  5
352F
  8
0
 10
164.70000000000289
 20
139.29816852409689
 30
0.0
  0
VERTEX
  5
3530
  8
0
 10
164.20846701328949
 20
139.5665858843912
 30
0.0
  0
VERTEX
  5
3531
  8
0
 10
163.7021501289027
 20
139.80734505351339
 30
0.0
  0
VERTEX
  5
3532
  8
0
 10
163.18326261396169
 20
140.0193489195951
 30
0.0
  0
VERTEX
  5
3533
  8
0
 10
162.6374875366798
 20
140.20679256377949
 30
0.0
  0
VERTEX
  5
3534
  8
0
 10
162.0808195170797
 20
140.36274147405609
 30
0.0
  0
VERTEX
  5
3535
  8
0
 10
161.515895583028
 20
140.48634679330371
 30
0.0
  0
VERTEX
  5
3536
  8
0
 10
160.81325356869101
 20
140.59315573702861
 30
0.0
  0
VERTEX
  5
3537
  8
0
 10
160.09999999999999
 20
140.65000000000001
 30
0.0
  0
SEQEND
  5
3538
  8
0
  0
POLYLINE
  5
2123
  8
0
 66
     1
 10
0.0
 20
0.0
 30
0.0
  0
VERTEX
  5
3539
  8
0
 10
160.09999999999999
 20
140.65000000000001
 30
0.0
  0
VERTEX
  5
353A
  8
0
 10
159.207056876466
 20
140.75580772922331
 30
0.0
  0
VERTEX
  5
353B
  8
0
 10
158.30943941503611
 20
140.84120735677229
 30
0.0
  0
VERTEX
  5
353C
  8
0
 10
157.4064508790417
 20
140.90605177277709
 30
0.0
  0
VERTEX
  5
353D
  8
0
 10
156.50000000000111
 20
140.94999999999999
 30
0.0
  0
SEQEND
  5
353E
  8
0
  0
LINE
  5
2124
  8
0
 10
156.50000000000111
 20
140.94999999999999
 30
0.0
 11
152.30111475739159
 21
140.94999999999999
 31
0.0
  0
LINE
  5
2125
  8
0
 10
134.69999999999999
 20
138.44999999999999
 30
0.0
 11
109.95
 21
138.44999999999999
 31
0.0
  0
LINE
  5
2127
  8
0
 10
109.95
 20
138.44999999999999
 30
0.0
 11
109.95
 21
134.65000000000001
 31
0.0
  0
LINE
  5
2129
  8
0
 10
109.95
 20
129.25
 30
0.0
 11
109.95
 21
125.45
 31
0.0
  0
LINE
  5
212A
  8
0
 10
109.95
 20
125.45
 30
0.0
 11
134.69999999999999
 21
125.45
 31
0.0
  0
POLYLINE
  5
216E
  8
0
 66
     1
 10
0.0
 20
0.0
 30
0.0
  0
VERTEX
  5
353F
  8
0
 10
60.340828288782831
 20
80.010500000000008
 30
0.0
  0
VERTEX
  5
3540
  8
0
 10
60.451730692061354
 20
80.037914903787026
 30
0.0
  0
VERTEX
  5
3541
  8
0
 10
60.64419503323581
 20
80.089928831936604
 30
0.0
  0
VERTEX
  5
3542
  8
0
 10
60.806754995046852
 20
80.138057488556569
 30
0.0
  0
VERTEX
  5
3543
  8
0
 10
60.905713614515221
 20
80.169153446737667
 30
0.0
  0
VERTEX
  5
3544
  8
0
 10
60.972468825973309
 20
80.190872219724255
 30
0.0
  0
VERTEX
  5
3545
  8
0
 10
60.999355161226219
 20
80.199785080695108
 30
0.0
  0
VERTEX
  5
3546
  8
0
 10
60.999999999853202
 20
80.199999999951046
 30
0.0
  0
SEQEND
  5
3547
  8
0
  0
POLYLINE
  5
216F
  8
0
 66
     1
 10
0.0
 20
0.0
 30
0.0
  0
VERTEX
  5
3548
  8
0
 10
57.659171711217283
 20
80.010499999999965
 30
0.0
  0
VERTEX
  5
3549
  8
0
 10
57.882441870854777
 20
79.937810952767279
 30
0.0
  0
VERTEX
  5
354A
  8
0
 10
58.13808963194667
 20
79.869465796619124
 30
0.0
  0
VERTEX
  5
354B
  8
0
 10
58.32449902608942
 20
79.830332426004304
 30
0.0
  0
VERTEX
  5
354C
  8
0
 10
58.521534036804319
 20
79.798885602416163
 30
0.0
  0
VERTEX
  5
354D
  8
0
 10
58.725249105009411
 20
79.777370235843364
 30
0.0
  0
VERTEX
  5
354E
  8
0
 10
59.017066521546283
 20
79.767057092657524
 30
0.0
  0
VERTEX
  5
354F
  8
0
 10
59.308341465611818
 20
79.780106731567571
 30
0.0
  0
VERTEX
  5
3550
  8
0
 10
59.571482620899047
 20
79.812391182997203
 30
0.0
  0
VERTEX
  5
3551
  8
0
 10
59.819968579704721
 20
79.859841283676502
 30
0.0
  0
VERTEX
  5
3552
  8
0
 10
60.062034267551461
 20
79.921586738793934
 30
0.0
  0
VERTEX
  5
3553
  8
0
 10
60.277317935167069
 20
79.988618594883803
 30
0.0
  0
VERTEX
  5
3554
  8
0
 10
60.340828288782717
 20
80.010499999999965
 30
0.0
  0
SEQEND
  5
3555
  8
0
  0
POLYLINE
  5
2170
  8
0
 66
     1
 10
0.0
 20
0.0
 30
0.0
  0
VERTEX
  5
3556
  8
0
 10
57.659171711217432
 20
72.389500000000112
 30
0.0
  0
VERTEX
  5
3557
  8
0
 10
57.498985405994418
 20
72.349294402133239
 30
0.0
  0
VERTEX
  5
3558
  8
0
 10
57.35338731070923
 20
72.309382994191935
 30
0.0
  0
VERTEX
  5
3559
  8
0
 10
57.20871168624987
 20
72.266681587094752
 30
0.0
  0
VERTEX
  5
355A
  8
0
 10
57.095097365625463
 20
72.231106767964945
 30
0.0
  0
VERTEX
  5
355B
  8
0
 10
57.024856932006209
 20
72.208245486420694
 30
0.0
  0
VERTEX
  5
355C
  8
0
 10
57.000000000005812
 20
72.200000000001921
 30
0.0
  0
SEQEND
  5
355D
  8
0
  0
POLYLINE
  5
2171
  8
0
 66
     1
 10
0.0
 20
0.0
 30
0.0
  0
VERTEX
  5
355E
  8
0
 10
60.340828288782717
 20
72.389499999999984
 30
0.0
  0
VERTEX
  5
355F
  8
0
 10
60.117558129145209
 20
72.462189047232698
 30
0.0
  0
VERTEX
  5
3560
  8
0
 10
59.861910368053309
 20
72.530534203380853
 30
0.0
  0
VERTEX
  5
3561
  8
0
 10
59.67550097391058
 20
72.569667573995673
 30
0.0
  0
VERTEX
  5
3562
  8
0
 10
59.478465963195681
 20
72.601114397583814
 30
0.0
  0
VERTEX
  5
3563
  8
0
 10
59.274750894990582
 20
72.622629764156613
 30
0.0
  0
VERTEX
  5
3564
  8
0
 10
58.98293347845371
 20
72.632942907342454
 30
0.0
  0
VERTEX
  5
3565
  8
0
 10
58.691658534388182
 20
72.619893268432406
 30
0.0
  0
VERTEX
  5
3566
  8
0
 10
58.42851737910096
 20
72.587608817002774
 30
0.0
  0
VERTEX
  5
3567
  8
0
 10
58.180031420295279
 20
72.540158716323475
 30
0.0
  0
VERTEX
  5
3568
  8
0
 10
57.937965732448532
 20
72.478413261206043
 30
0.0
  0
VERTEX
  5
3569
  8
0
 10
57.722682064832917
 20
72.411381405116174
 30
0.0
  0
VERTEX
  5
356A
  8
0
 10
57.659171711217283
 20
72.389499999999984
 30
0.0
  0
SEQEND
  5
356B
  8
0
  0
POLYLINE
  5
2177
  8
0
 66
     1
 10
0.0
 20
0.0
 30
0.0
  0
VERTEX
  5
356C
  8
0
 10
57.000000000005812
 20
80.199999999998056
 30
0.0
  0
VERTEX
  5
356D
  8
0
 10
57.00000618290926
 20
80.199997939032698
 30
0.0
  0
VERTEX
  5
356E
  8
0
 10
57.018420366946629
 20
80.193881915017016
 30
0.0
  0
VERTEX
  5
356F
  8
0
 10
57.073248640553437
 20
80.175934374371266
 30
0.0
  0
VERTEX
  5
3570
  8
0
 10
57.157191511457391
 20
80.149232368383764
 30
0.0
  0
VERTEX
  5
3571
  8
0
 10
57.270494588372969
 20
80.114720309810806
 30
0.0
  0
VERTEX
  5
3572
  8
0
 10
57.425625371878432
 20
80.07042291915954
 30
0.0
  0
VERTEX
  5
3573
  8
0
 10
57.608778748557953
 20
80.022720015380912
 30
0.0
  0
VERTEX
  5
3574
  8
0
 10
57.659171711217283
 20
80.010499999999965
 30
0.0
  0
SEQEND
  5
3575
  8
0
  0
POLYLINE
  5
2178
  8
0
 66
     1
 10
0.0
 20
0.0
 30
0.0
  0
VERTEX
  5
3576
  8
0
 10
60.999999999978087
 20
72.200000000007293
 30
0.0
  0
VERTEX
  5
3577
  8
0
 10
60.999952787621027
 20
72.200015737315169
 30
0.0
  0
VERTEX
  5
3578
  8
0
 10
60.977571390182021
 20
72.207443517386295
 30
0.0
  0
VERTEX
  5
3579
  8
0
 10
60.92342293517882
 20
72.225142374199038
 30
0.0
  0
VERTEX
  5
357A
  8
0
 10
60.837638563823589
 20
72.252381003992241
 30
0.0
  0
VERTEX
  5
357B
  8
0
 10
60.717923194426362
 20
72.288706464305932
 30
0.0
  0
VERTEX
  5
357C
  8
0
 10
60.569964029572539
 20
72.330785207225517
 30
0.0
  0
VERTEX
  5
357D
  8
0
 10
60.340828288782717
 20
72.389499999999984
 30
0.0
  0
SEQEND
  5
357E
  8
0
  0
LINE
  5
21C5
  8
1
 10
59.000000000000007
 20
86.800000000000054
 30
0.0
 11
59.0
 21
40.0
 31
0.0
  0
LINE
  5
21C6
  8
1
 10
45.0
 20
76.199999999999989
 30
0.0
 11
73.0
 21
76.199999999999989
 31
0.0
  0
LINE
  5
21C7
  8
0
 10
65.394362470949744
 20
69.999999999999943
 30
0.0
 11
66.68429044146481
 21
68.700000000100459
 31
0.0
  0
LINE
  5
21C8
  8
0
 10
65.394536499857026
 20
69.999999999999972
 30
0.0
 11
52.605463500142967
 21
69.999999999999943
 31
0.0
  0
LINE
  5
21C9
  8
0
 10
51.315709558435387
 20
68.699999999999847
 30
0.0
 11
51.306982025971287
 21
68.199999999999989
 31
0.0
  0
LINE
  5
21CA
  8
0
 10
66.69301797402872
 20
68.199999999999989
 30
0.0
 11
66.684290441564599
 21
68.699999999999903
 31
0.0
  0
LINE
  5
21CB
  8
0
 10
51.315709558535197
 20
68.700000000100459
 30
0.0
 11
52.605635361718797
 21
69.999999999999943
 31
0.0
  0
LINE
  5
21CD
  8
0
 10
65.299999999868405
 20
65.0
 30
0.0
 11
52.699999999999989
 21
65.0
 31
0.0
  0
ARC
  5
21CE
  8
0
 10
52.699999999999989
 20
66.399999999999963
 30
0.0
 40
1.399999999999997
 50
179.99999914622629
 51
270.0
  0
ARC
  5
21CF
  8
0
 10
65.300000000000011
 20
66.399999999999963
 30
0.0
 40
1.399999999999999
 50
270.0
 51
0.0000008537736463
  0
LINE
  5
21D0
  8
0
 10
51.29999999999999
 20
68.199999999999989
 30
0.0
 11
51.29999999999999
 21
66.399999999999963
 31
0.0
  0
LINE
  5
21D1
  8
0
 10
66.700000000000017
 20
66.399999999999963
 30
0.0
 11
66.700000000000017
 21
68.199999999999989
 31
0.0
  0
LINE
  5
21D3
  8
0
 10
66.700000000000017
 20
68.199999999999989
 30
0.0
 11
51.29999999999999
 21
68.199999999999989
 31
0.0
  0
LINE
  5
21D6
  8
0
 10
57.0
 20
64.999999999999972
 30
0.0
 11
57.0
 21
45.42949999999999
 31
0.0
  0
LINE
  5
21D7
  8
0
 10
61.0
 20
45.42949999999999
 30
0.0
 11
61.0
 21
64.999999999999972
 31
0.0
  0
LINE
  5
21D8
  8
0
 10
60.740117883937707
 20
81.000000000000014
 30
0.0
 11
57.259882116062251
 21
80.999999999999986
 31
0.0
  0
LINE
  5
21D9
  8
0
 10
57.259882116062251
 20
80.999999999999986
 30
0.0
 11
57.040408205773439
 21
80.785499999999985
 31
0.0
  0
LINE
  5
21DA
  8
0
 10
60.959591794226533
 20
80.785499999999985
 30
0.0
 11
60.740117883937721
 21
80.999999999999986
 31
0.0
  0
LINE
  5
21DB
  8
0
 10
60.570500000000003
 20
45.0
 30
0.0
 11
57.429499999999997
 21
45.0
 31
0.0
  0
LINE
  5
21DC
  8
0
 10
61.0
 20
45.42949999999999
 30
0.0
 11
57.0
 21
45.42949999999999
 31
0.0
  0
LINE
  5
21DD
  8
0
 10
60.570500000000003
 20
45.0
 30
0.0
 11
61.0
 21
45.42949999999999
 31
0.0
  0
LINE
  5
21DE
  8
0
 10
57.0
 20
45.42949999999999
 30
0.0
 11
57.429499999999997
 21
45.0
 31
0.0
  0
LINE
  5
21DF
  8
0
 10
61.0
 20
71.5
 30
0.0
 11
57.0
 21
71.5
 31
0.0
  0
LINE
  5
21E0
  8
0
 10
60.959591794226533
 20
80.785499999999985
 30
0.0
 11
57.040408205773439
 21
80.785499999999985
 31
0.0
  0
LINE
  5
21E1
  8
0
 10
57.0
 20
72.199999999999974
 30
0.0
 11
57.0
 21
69.999999999999986
 31
0.0
  0
LINE
  5
21E2
  8
0
 10
57.040408205773439
 20
80.785499999999985
 30
0.0
 11
57.040408205773439
 21
80.186684394374879
 31
0.0
  0
LINE
  5
21E3
  8
0
 10
60.959591794226533
 20
80.186682684208719
 30
0.0
 11
60.959591794226533
 21
80.785499999999985
 31
0.0
  0
LINE
  5
21E4
  8
0
 10
61.0
 20
69.999999999999986
 30
0.0
 11
61.0
 21
72.199999999999974
 31
0.0
  0
LINE
  5
21E5
  8
3
 10
57.37900000000144
 20
72.316403954794566
 30
0.0
 11
57.37900000000144
 21
71.5
 31
0.0
  0
LINE
  5
21E6
  8
3
 10
57.37900000000144
 20
81.0
 30
0.0
 11
57.37900000000144
 21
80.083736732611797
 31
0.0
  0
LINE
  5
21E8
  8
3
 10
57.379000000001447
 20
45.050499999998571
 30
0.0
 11
57.37900000000144
 21
65.0
 31
0.0
  0
LINE
  5
21E9
  8
3
 10
60.620999999998617
 20
72.316270868209529
 30
0.0
 11
60.620999999998617
 21
71.5
 31
0.0
  0
LINE
  5
21EA
  8
3
 10
60.620999999998617
 20
81.000000000000014
 30
0.0
 11
60.620999999998617
 21
80.083660321183601
 31
0.0
  0
LINE
  5
21EC
  8
3
 10
60.620999999998617
 20
45.050499999998628
 30
0.0
 11
60.620999999998617
 21
64.999999999999972
 31
0.0
  0
LINE
  5
21ED
  8
0
 10
61.699999999999989
 20
80.199999999999989
 30
0.0
 11
61.0
 21
80.199999999999989
 31
0.0
  0
LINE
  5
21EE
  8
0
 10
57.0
 20
80.199999999999989
 30
0.0
 11
56.29999999999999
 21
80.199999999999989
 31
0.0
  0
LINE
  5
21EF
  8
0
 10
56.29999999999999
 20
72.199999999999974
 30
0.0
 11
57.0
 21
72.199999999999974
 31
0.0
  0
LINE
  5
21F0
  8
0
 10
61.0
 20
72.199999999999974
 30
0.0
 11
61.699999999999989
 21
72.199999999999974
 31
0.0
  0
LINE
  5
21F1
  8
0
 10
68.0
 20
77.488149627176313
 30
0.0
 11
68.0
 21
81.747120357517858
 31
0.0
  0
LINE
  5
21F2
  8
0
 10
50.0
 20
77.488149627176227
 30
0.0
 11
50.0
 21
81.7471203575179
 31
0.0
  0
LINE
  5
21F3
  8
0
 10
50.0
 20
81.7471203575179
 30
0.0
 11
50.01768405844102
 21
81.766495826020645
 31
0.0
  0
LINE
  5
21F4
  8
0
 10
67.982315941558966
 20
81.766495826020758
 30
0.0
 11
68.0
 21
81.747120357517858
 31
0.0
  0
LINE
  5
21F5
  8
0
 10
52.5
 20
81.800000000000011
 30
0.0
 11
50.040402193384971
 21
81.79999999981419
 31
0.0
  0
LINE
  5
21F6
  8
0
 10
61.699999999999989
 20
81.800000000000011
 30
0.0
 11
56.29999999999999
 21
81.800000000000011
 31
0.0
  0
LINE
  5
21F7
  8
0
 10
67.959596425296297
 20
81.799999999724264
 30
0.0
 11
65.5
 21
81.800000000000011
 31
0.0
  0
POLYLINE
  5
21F8
  8
3
 66
     1
 10
0.0
 20
0.0
 30
0.0
  0
VERTEX
  5
357F
  8
3
 10
50.040402193384971
 20
81.79999999981419
 30
0.0
  0
VERTEX
  5
3580
  8
3
 10
50.051537667190132
 20
81.799533220119017
 30
0.0
  0
VERTEX
  5
3581
  8
3
 10
50.12371866991262
 20
81.787132323358264
 30
0.0
  0
VERTEX
  5
3582
  8
3
 10
50.23753711083156
 20
81.757523403296418
 30
0.0
  0
VERTEX
  5
3583
  8
3
 10
50.392392007458369
 20
81.710927665395445
 30
0.0
  0
VERTEX
  5
3584
  8
3
 10
50.590487436561638
 20
81.646856307841745
 30
0.0
  0
VERTEX
  5
3585
  8
3
 10
50.83012364021031
 20
81.566127884012275
 30
0.0
  0
VERTEX
  5
3586
  8
3
 10
51.111501335178311
 20
81.469066272405769
 30
0.0
  0
SEQEND
  5
3587
  8
3
  0
POLYLINE
  5
21F9
  8
0
 66
     1
 10
0.0
 20
0.0
 30
0.0
  0
VERTEX
  5
3588
  8
0
 10
67.959596425296297
 20
81.799999999724264
 30
0.0
  0
VERTEX
  5
3589
  8
0
 10
67.980019081339009
 20
81.795546036512306
 30
0.0
  0
VERTEX
  5
358A
  8
0
 10
67.982315941558923
 20
81.79042173543678
 30
0.0
  0
SEQEND
  5
358B
  8
0
  0
LINE
  5
21FA
  8
3
 10
50.0
 20
77.830094077945404
 30
0.0
 11
50.027372886929292
 21
77.860717604940419
 31
0.0
  0
POLYLINE
  5
21FB
  8
0
 66
     1
 10
0.0
 20
0.0
 30
0.0
  0
VERTEX
  5
358C
  8
0
 10
50.300000000000011
 20
76.956201574527626
 30
0.0
  0
VERTEX
  5
358D
  8
0
 10
50.194243444738838
 20
77.108927659256153
 30
0.0
  0
VERTEX
  5
358E
  8
0
 10
50.108846318947627
 20
77.248580998053967
 30
0.0
  0
VERTEX
  5
358F
  8
0
 10
50.043976022008422
 20
77.375123943280812
 30
0.0
  0
VERTEX
  5
3590
  8
0
 10
50.000000000000043
 20
77.488149627176085
 30
0.0
  0
SEQEND
  5
3591
  8
0
  0
POLYLINE
  5
21FC
  8
0
 66
     1
 10
0.0
 20
0.0
 30
0.0
  0
VERTEX
  5
3592
  8
0
 10
52.100000000000023
 20
75.758051631137732
 30
0.0
  0
VERTEX
  5
3593
  8
0
 10
51.790493252943847
 20
75.884728583803707
 30
0.0
  0
VERTEX
  5
3594
  8
0
 10
51.507647241138649
 20
76.011703156128021
 30
0.0
  0
VERTEX
  5
3595
  8
0
 10
51.252700708981969
 20
76.138025165316776
 30
0.0
  0
VERTEX
  5
3596
  8
0
 10
51.02026701067205
 20
76.266586675085051
 30
0.0
  0
VERTEX
  5
3597
  8
0
 10
50.81854288541173
 20
76.393139850056002
 30
0.0
  0
VERTEX
  5
3598
  8
0
 10
50.648566155249597
 20
76.516773388566833
 30
0.0
  0
VERTEX
  5
3599
  8
0
 10
50.515869775855869
 20
76.632096861918754
 30
0.0
  0
VERTEX
  5
359A
  8
0
 10
50.41335408450341
 20
76.74367985703222
 30
0.0
  0
VERTEX
  5
359B
  8
0
 10
50.340798739734993
 20
76.85233254160903
 30
0.0
  0
VERTEX
  5
359C
  8
0
 10
50.300000000000011
 20
76.956201574527654
 30
0.0
  0
SEQEND
  5
359D
  8
0
  0
POLYLINE
  5
21FD
  8
0
 66
     1
 10
0.0
 20
0.0
 30
0.0
  0
VERTEX
  5
359E
  8
0
 10
52.5
 20
75.591698943420326
 30
0.0
  0
VERTEX
  5
359F
  8
0
 10
52.323312606705272
 20
75.661801788484439
 30
0.0
  0
VERTEX
  5
35A0
  8
0
 10
52.100000000000023
 20
75.758051631137732
 30
0.0
  0
SEQEND
  5
35A1
  8
0
  0
POLYLINE
  5
21FE
  8
0
 66
     1
 10
0.0
 20
0.0
 30
0.0
  0
VERTEX
  5
35A2
  8
0
 10
65.900000000000006
 20
75.758051631137732
 30
0.0
  0
VERTEX
  5
35A3
  8
0
 10
65.680002233222666
 20
75.663164290595262
 30
0.0
  0
VERTEX
  5
35A4
  8
0
 10
65.5
 20
75.591700165864921
 30
0.0
  0
SEQEND
  5
35A5
  8
0
  0
POLYLINE
  5
21FF
  8
0
 66
     1
 10
0.0
 20
0.0
 30
0.0
  0
VERTEX
  5
35A6
  8
0
 10
67.69999999999996
 20
76.956201574527597
 30
0.0
  0
VERTEX
  5
35A7
  8
0
 10
67.659150965181567
 20
76.852294234898409
 30
0.0
  0
VERTEX
  5
35A8
  8
0
 10
67.58648322666383
 20
76.743520828000271
 30
0.0
  0
VERTEX
  5
35A9
  8
0
 10
67.482483416298294
 20
76.630503407807424
 30
0.0
  0
VERTEX
  5
35AA
  8
0
 10
67.342966828626771
 20
76.510119795502987
 30
0.0
  0
VERTEX
  5
35AB
  8
0
 10
67.171097208291243
 20
76.386192141997384
 30
0.0
  0
VERTEX
  5
35AC
  8
0
 10
66.967803637733198
 20
76.25958351323311
 30
0.0
  0
VERTEX
  5
35AD
  8
0
 10
66.743626330591724
 20
76.136110901437974
 30
0.0
  0
VERTEX
  5
35AE
  8
0
 10
66.49172014350026
 20
76.011393620308553
 30
0.0
  0
VERTEX
  5
35AF
  8
0
 10
66.209276762994705
 20
75.884622454417951
 30
0.0
  0
VERTEX
  5
35B0
  8
0
 10
65.900000000000006
 20
75.758051631137732
 30
0.0
  0
SEQEND
  5
35B1
  8
0
  0
POLYLINE
  5
2200
  8
0
 66
     1
 10
0.0
 20
0.0
 30
0.0
  0
VERTEX
  5
35B2
  8
0
 10
68.0
 20
77.488149627176227
 30
0.0
  0
VERTEX
  5
35B3
  8
0
 10
67.956227019352994
 20
77.375570877437781
 30
0.0
  0
VERTEX
  5
35B4
  8
0
 10
67.891601776246603
 20
77.249374885991585
 30
0.0
  0
VERTEX
  5
35B5
  8
0
 10
67.806112452214876
 20
77.109472042558252
 30
0.0
  0
VERTEX
  5
35B6
  8
0
 10
67.69999999999996
 20
76.956201574527597
 30
0.0
  0
SEQEND
  5
35B7
  8
0
  0
LINE
  5
2201
  8
0
 10
67.972627113070729
 20
77.860717604940419
 30
0.0
 11
68.0
 21
77.830094077945375
 31
0.0
  0
POLYLINE
  5
2202
  8
3
 66
     1
 10
0.0
 20
0.0
 30
0.0
  0
VERTEX
  5
35B8
  8
3
 10
50.047749204982729
 20
77.893960477435172
 30
0.0
  0
VERTEX
  5
35B9
  8
3
 10
50.051504194774097
 20
77.893910774053083
 30
0.0
  0
VERTEX
  5
35BA
  8
3
 10
50.123643419459491
 20
77.883582036619316
 30
0.0
  0
VERTEX
  5
35BB
  8
3
 10
50.237440337759928
 20
77.85492140396758
 30
0.0
  0
VERTEX
  5
35BC
  8
3
 10
50.392281433934102
 20
77.808127457747304
 30
0.0
  0
VERTEX
  5
35BD
  8
3
 10
50.590410842697629
 20
77.742688282624385
 30
0.0
  0
VERTEX
  5
35BE
  8
3
 10
50.830086419725767
 20
77.659448731234562
 30
0.0
  0
VERTEX
  5
35BF
  8
3
 10
51.111501335178971
 20
77.558751015088518
 30
0.0
  0
SEQEND
  5
35C0
  8
3
  0
POLYLINE
  5
2203
  8
3
 66
     1
 10
0.0
 20
0.0
 30
0.0
  0
VERTEX
  5
35C1
  8
3
 10
67.952248007981069
 20
77.893960477337799
 30
0.0
  0
VERTEX
  5
35C2
  8
3
 10
67.980013995811476
 20
77.886888508307834
 30
0.0
  0
VERTEX
  5
35C3
  8
3
 10
67.982315941556038
 20
77.880438376169081
 30
0.0
  0
SEQEND
  5
35C4
  8
3
  0
POLYLINE
  5
2204
  8
3
 66
     1
 10
0.0
 20
0.0
 30
0.0
  0
VERTEX
  5
35C5
  8
3
 10
66.400000000000063
 20
77.347198565580669
 30
0.0
  0
VERTEX
  5
35C6
  8
3
 10
66.65453219552117
 20
77.464252194992113
 30
0.0
  0
VERTEX
  5
35C7
  8
3
 10
66.888498664821014
 20
77.558751015088518
 30
0.0
  0
SEQEND
  5
35C8
  8
3
  0
POLYLINE
  5
2205
  8
3
 66
     1
 10
0.0
 20
0.0
 30
0.0
  0
VERTEX
  5
35C9
  8
3
 10
66.888498664821014
 20
77.558751015088518
 30
0.0
  0
VERTEX
  5
35CA
  8
3
 10
67.160147689602553
 20
77.655996873494502
 30
0.0
  0
VERTEX
  5
35CB
  8
3
 10
67.394613387683307
 20
77.737589676161861
 30
0.0
  0
VERTEX
  5
35CC
  8
3
 10
67.590670320562083
 20
77.802682150807328
 30
0.0
  0
VERTEX
  5
35CD
  8
3
 10
67.749159017394845
 20
77.851122006640139
 30
0.0
  0
VERTEX
  5
35CE
  8
3
 10
67.867140604152269
 20
77.88160714042877
 30
0.0
  0
VERTEX
  5
35CF
  8
3
 10
67.944735882952386
 20
77.893772230922252
 30
0.0
  0
VERTEX
  5
35D0
  8
3
 10
67.952248007981069
 20
77.893960477337799
 30
0.0
  0
SEQEND
  5
35D1
  8
3
  0
POLYLINE
  5
2206
  8
3
 66
     1
 10
0.0
 20
0.0
 30
0.0
  0
VERTEX
  5
35D2
  8
3
 10
66.888498664821697
 20
81.469066272405769
 30
0.0
  0
VERTEX
  5
35D3
  8
3
 10
67.160295850828206
 20
81.562854661188339
 30
0.0
  0
VERTEX
  5
35D4
  8
3
 10
67.394825603579733
 20
81.641987420028215
 30
0.0
  0
VERTEX
  5
35D5
  8
3
 10
67.590891985502594
 20
81.705666671880579
 30
0.0
  0
VERTEX
  5
35D6
  8
3
 10
67.749325564676283
 20
81.753769054062701
 30
0.0
  0
VERTEX
  5
35D7
  8
3
 10
67.86724735977387
 20
81.785058412192257
 30
0.0
  0
VERTEX
  5
35D8
  8
3
 10
67.944776745439825
 20
81.799219573891151
 30
0.0
  0
VERTEX
  5
35D9
  8
3
 10
67.959596425296297
 20
81.799999999724264
 30
0.0
  0
SEQEND
  5
35DA
  8
3
  0
LINE
  5
2207
  8
0
 10
67.982315941556038
 20
77.880438376169081
 30
0.0
 11
67.982315941558923
 21
81.79042173543678
 31
0.0
  0
LINE
  5
2208
  8
0
 10
67.982315941556038
 20
77.880438376169081
 30
0.0
 11
67.972627113070729
 21
77.860717604940419
 31
0.0
  0
POLYLINE
  5
2209
  8
3
 66
     1
 10
0.0
 20
0.0
 30
0.0
  0
VERTEX
  5
35DB
  8
3
 10
51.111501335178971
 20
77.558751015088518
 30
0.0
  0
VERTEX
  5
35DC
  8
3
 10
51.345059934606311
 20
77.464428975753151
 30
0.0
  0
VERTEX
  5
35DD
  8
3
 10
51.59999999999998
 20
77.347198565580641
 30
0.0
  0
SEQEND
  5
35DE
  8
3
  0
LINE
  5
220A
  8
3
 10
50.027372886929278
 20
77.860717604940419
 30
0.0
 11
50.017684058442207
 21
77.880438473679618
 31
0.0
  0
LINE
  5
220B
  8
0
 10
50.01768405844102
 20
81.790421792574364
 30
0.0
 11
50.017684058440992
 21
77.880438473675667
 31
0.0
  0
POLYLINE
  5
220C
  8
0
 66
     1
 10
0.0
 20
0.0
 30
0.0
  0
VERTEX
  5
35DF
  8
0
 10
50.01768405844102
 20
81.790421792574364
 30
0.0
  0
VERTEX
  5
35E0
  8
0
 10
50.01949268345507
 20
81.795065796903145
 30
0.0
  0
VERTEX
  5
35E1
  8
0
 10
50.040402193384971
 20
81.79999999981419
 30
0.0
  0
SEQEND
  5
35E2
  8
0
  0
POLYLINE
  5
220D
  8
3
 66
     1
 10
0.0
 20
0.0
 30
0.0
  0
VERTEX
  5
35E3
  8
3
 10
50.017684058442207
 20
77.880438473679618
 30
0.0
  0
VERTEX
  5
35E4
  8
3
 10
50.019487945437319
 20
77.886253579277906
 30
0.0
  0
VERTEX
  5
35E5
  8
3
 10
50.047749204982729
 20
77.893960477435172
 30
0.0
  0
SEQEND
  5
35E6
  8
3
  0
POLYLINE
  5
220E
  8
3
 66
     1
 10
0.0
 20
0.0
 30
0.0
  0
VERTEX
  5
35E7
  8
3
 10
66.400000000000063
 20
81.326836974629714
 30
0.0
  0
VERTEX
  5
35E8
  8
3
 10
66.654569796188184
 20
81.411685006926845
 30
0.0
  0
VERTEX
  5
35E9
  8
3
 10
66.888498664821668
 20
81.469066272405769
 30
0.0
  0
SEQEND
  5
35EA
  8
3
  0
POLYLINE
  5
2212
  8
3
 66
     1
 10
0.0
 20
0.0
 30
0.0
  0
VERTEX
  5
35EB
  8
3
 10
51.111501335178311
 20
81.469066272405769
 30
0.0
  0
VERTEX
  5
35EC
  8
3
 10
51.344923761795741
 20
81.411832706008852
 30
0.0
  0
VERTEX
  5
35ED
  8
3
 10
51.59999999999998
 20
81.326836974629686
 30
0.0
  0
SEQEND
  5
35EE
  8
3
  0
POLYLINE
  5
2213
  8
3
 66
     1
 10
0.0
 20
0.0
 30
0.0
  0
VERTEX
  5
35EF
  8
3
 10
65.5
 20
75.635366999001604
 30
0.0
  0
VERTEX
  5
35F0
  8
3
 10
65.537570751732773
 20
75.89960488000267
 30
0.0
  0
VERTEX
  5
35F1
  8
3
 10
65.618094349665171
 20
76.182295739640665
 30
0.0
  0
VERTEX
  5
35F2
  8
3
 10
65.741609545042877
 20
76.483914482701664
 30
0.0
  0
VERTEX
  5
35F3
  8
3
 10
65.907438830446154
 20
76.803030104293896
 30
0.0
  0
SEQEND
  5
35F4
  8
3
  0
POLYLINE
  5
2214
  8
3
 66
     1
 10
0.0
 20
0.0
 30
0.0
  0
VERTEX
  5
35F5
  8
3
 10
66.400000000000063
 20
77.347198565580669
 30
0.0
  0
VERTEX
  5
35F6
  8
3
 10
66.258328699836994
 20
77.235367607786742
 30
0.0
  0
VERTEX
  5
35F7
  8
3
 10
66.129093551077716
 20
77.107578981390674
 30
0.0
  0
VERTEX
  5
35F8
  8
3
 10
66.012051833662724
 20
76.963405639945563
 30
0.0
  0
VERTEX
  5
35F9
  8
3
 10
65.907438830446154
 20
76.803030104293896
 30
0.0
  0
SEQEND
  5
35FA
  8
3
  0
POLYLINE
  5
2216
  8
3
 66
     1
 10
0.0
 20
0.0
 30
0.0
  0
VERTEX
  5
35FB
  8
3
 10
66.400000000000063
 20
81.326836974629714
 30
0.0
  0
VERTEX
  5
35FC
  8
3
 10
66.208601144316674
 20
81.199772437696396
 30
0.0
  0
VERTEX
  5
35FD
  8
3
 10
66.040485585982339
 20
81.036964811562086
 30
0.0
  0
VERTEX
  5
35FE
  8
3
 10
65.895041857806675
 20
80.836881177867355
 30
0.0
  0
VERTEX
  5
35FF
  8
3
 10
65.773056581911987
 20
80.599999999999966
 30
0.0
  0
SEQEND
  5
3600
  8
3
  0
POLYLINE
  5
2217
  8
3
 66
     1
 10
0.0
 20
0.0
 30
0.0
  0
VERTEX
  5
3601
  8
3
 10
52.092561169553839
 20
76.803030104293896
 30
0.0
  0
VERTEX
  5
3602
  8
3
 10
52.257284252939549
 20
76.48628483989512
 30
0.0
  0
VERTEX
  5
3603
  8
3
 10
52.380646640797487
 20
76.185893719163261
 30
0.0
  0
VERTEX
  5
3604
  8
3
 10
52.461969934805502
 20
75.901725047371855
 30
0.0
  0
VERTEX
  5
3605
  8
3
 10
52.5
 20
75.635366999001576
 30
0.0
  0
SEQEND
  5
3606
  8
3
  0
POLYLINE
  5
2218
  8
3
 66
     1
 10
0.0
 20
0.0
 30
0.0
  0
VERTEX
  5
3607
  8
3
 10
52.226943418087998
 20
80.599999999999966
 30
0.0
  0
VERTEX
  5
3608
  8
3
 10
52.10663620255238
 20
80.834132966330316
 30
0.0
  0
VERTEX
  5
3609
  8
3
 10
51.962676955887162
 20
81.033296038985526
 30
0.0
  0
VERTEX
  5
360A
  8
3
 10
51.793674059065673
 20
81.197934954793652
 30
0.0
  0
VERTEX
  5
360B
  8
3
 10
51.599999999999973
 20
81.326836974629686
 30
0.0
  0
SEQEND
  5
360C
  8
3
  0
POLYLINE
  5
221A
  8
3
 66
     1
 10
0.0
 20
0.0
 30
0.0
  0
VERTEX
  5
360D
  8
3
 10
52.092561169553854
 20
76.803030104293896
 30
0.0
  0
VERTEX
  5
360E
  8
3
 10
51.98852867207863
 20
76.962607540598924
 30
0.0
  0
VERTEX
  5
360F
  8
3
 10
51.871940381058181
 20
77.106436504917639
 30
0.0
  0
VERTEX
  5
3610
  8
3
 10
51.742383252159897
 20
77.234737624406307
 30
0.0
  0
VERTEX
  5
3611
  8
3
 10
51.599999999999973
 20
77.347198565580641
 30
0.0
  0
SEQEND
  5
3612
  8
3
  0
POLYLINE
  5
221B
  8
3
 66
     1
 10
0.0
 20
0.0
 30
0.0
  0
VERTEX
  5
3613
  8
3
 10
65.5
 20
79.735670614387374
 30
0.0
  0
VERTEX
  5
3614
  8
3
 10
65.526889214756523
 20
79.913751955999146
 30
0.0
  0
VERTEX
  5
3615
  8
3
 10
65.581544096122656
 20
80.117121187456604
 30
0.0
  0
VERTEX
  5
3616
  8
3
 10
65.6638232588991
 20
80.346211214223501
 30
0.0
  0
VERTEX
  5
3617
  8
3
 10
65.773056581912016
 20
80.599999999999966
 30
0.0
  0
SEQEND
  5
3618
  8
3
  0
POLYLINE
  5
2220
  8
3
 66
     1
 10
0.0
 20
0.0
 30
0.0
  0
VERTEX
  5
3619
  8
3
 10
52.226943418087998
 20
80.599999999999966
 30
0.0
  0
VERTEX
  5
361A
  8
3
 10
52.335435497765133
 20
80.348077584703958
 30
0.0
  0
VERTEX
  5
361B
  8
3
 10
52.417599828200068
 20
80.119818776845989
 30
0.0
  0
VERTEX
  5
361C
  8
3
 10
52.472789227311047
 20
79.915250884192005
 30
0.0
  0
VERTEX
  5
361D
  8
3
 10
52.5
 20
79.735670614387402
 30
0.0
  0
SEQEND
  5
361E
  8
3
  0
LINE
  5
2221
  8
0
 10
61.0
 20
71.859271323431557
 30
0.0
 11
61.5
 21
71.859271323431557
 31
0.0
  0
LINE
  5
2222
  8
0
 10
56.499999997019771
 20
71.859271323431557
 30
0.0
 11
57.0
 21
71.859271323431557
 31
0.0
  0
POLYLINE
  5
2223
  8
0
 66
     1
 10
0.0
 20
0.0
 30
0.0
  0
VERTEX
  5
361F
  8
0
 10
56.499999997019771
 20
71.859271323431557
 30
0.0
  0
VERTEX
  5
3620
  8
0
 10
56.446429365862862
 20
71.8525624201163
 30
0.0
  0
VERTEX
  5
3621
  8
0
 10
56.39936105333642
 20
71.83427043575233
 30
0.0
  0
VERTEX
  5
3622
  8
0
 10
56.350043911599492
 20
71.796679487485264
 30
0.0
  0
VERTEX
  5
3623
  8
0
 10
56.31102672641741
 20
71.733778106650334
 30
0.0
  0
VERTEX
  5
3624
  8
0
 10
56.29999999999999
 20
71.671100308193161
 30
0.0
  0
SEQEND
  5
3625
  8
0
  0
POLYLINE
  5
2225
  8
0
 66
     1
 10
0.0
 20
0.0
 30
0.0
  0
VERTEX
  5
3626
  8
0
 10
61.699999999999989
 20
71.671100308193161
 30
0.0
  0
VERTEX
  5
3627
  8
0
 10
61.679417505206509
 20
71.755428014539035
 30
0.0
  0
VERTEX
  5
3628
  8
0
 10
61.637336399363448
 20
71.808839047756067
 30
0.0
  0
VERTEX
  5
3629
  8
0
 10
61.58827778650145
 20
71.840386681010216
 30
0.0
  0
VERTEX
  5
362A
  8
0
 10
61.538256890279861
 20
71.855882573518215
 30
0.0
  0
VERTEX
  5
362B
  8
0
 10
61.5
 20
71.859271323431557
 30
0.0
  0
SEQEND
  5
362C
  8
0
  0
LINE
  5
2227
  8
0
 10
56.29999999999999
 20
81.949999999999974
 30
0.0
 11
52.5
 21
81.949999999999974
 31
0.0
  0
LINE
  5
2228
  8
0
 10
52.5
 20
81.949999999999974
 30
0.0
 11
52.5
 21
69.893539636244952
 31
0.0
  0
LINE
  5
2229
  8
0
 10
56.29999999999999
 20
70.0
 30
0.0
 11
56.29999999999999
 21
81.949999999999974
 31
0.0
  0
LINE
  5
222A
  8
0
 10
65.5
 20
81.949999999999974
 30
0.0
 11
61.699999999999989
 21
81.949999999999974
 31
0.0
  0
LINE
  5
222B
  8
0
 10
65.5
 20
69.893537630864813
 30
0.0
 11
65.5
 21
81.949999999999974
 31
0.0
  0
LINE
  5
222C
  8
0
 10
61.699999999999989
 20
81.949999999999974
 30
0.0
 11
61.699999999999989
 21
70.0
 31
0.0
  0
CIRCLE
  5
2583
  8
0
 10
116.7
 20
131.94999999999999
 30
0.0
 40
1.9999999999999849
  0
ARC
  5
2584
  8
3
 10
116.7
 20
131.94999999999999
 30
0.0
 40
1.620999999998588
 50
104.28594255153391
 51
255.71405744846609
  0
LINE
  5
2E86
  8
0
 10
124.40000000000001
 20
66.400000020861597
 30
0.0
 11
109.0
 21
66.400000020861597
 31
0.0
  0
LINE
  5
2E87
  8
0
 10
66.700000000000017
 20
66.400000020861597
 30
0.0
 11
51.29999999999999
 21
66.400000020861597
 31
0.0
  0
LINE
  5
3249
  8
0
 10
116.3
 20
133.90959179422649
 30
0.0
 11
116.3
 21
129.99040820577341
 31
0.0
  0
LINE
  5
324A
  8
0
 10
117.09999999999999
 20
133.90959179422649
 30
0.0
 11
117.09999999999999
 21
129.99040820577341
 31
0.0
  0
ARC
  5
324B
  8
3
 10
116.7
 20
131.94999999999999
 30
0.0
 40
1.620999999998588
 50
284.28594255152927
 51
75.714057448470655
  0
ENDSEC
  0
EOF
