  0
SECTION
  2
HEADER
  9
$ACADVER
  1
AC1009
  9
$INSBASE
 10
0.0
 20
0.0
 30
0.0
  9
$EXTMIN
 10
0.0
 20
-2.960436562073669
 30
0.0
  9
$EXTMAX
 10
195.1999999999999
 20
156.09999999999999
 30
0.0
  9
$LIMMIN
 10
0.0
 20
0.0
  9
$LIMMAX
 10
375.0
 20
270.0
  9
$ORTHOMODE
 70
     1
  9
$REGENMODE
 70
     1
  9
$FILLMODE
 70
     1
  9
$QTEXTMODE
 70
     0
  9
$MIRRTEXT
 70
     0
  9
$DRAGMODE
 70
     2
  9
$LTSCALE
 40
5.0
  9
$OSMODE
 70
    37
  9
$ATTMODE
 70
     1
  9
$TEXTSIZE
 40
0.2
  9
$TRACEWID
 40
0.05
  9
$TEXTSTYLE
  7
STANDARD
  9
$CLAYER
  8
0
  9
$CELTYPE
  6
BYLAYER
  9
$CECOLOR
 62
   256
  9
$DIMSCALE
 40
1.0
  9
$DIMASZ
 40
3.0
  9
$DIMEXO
 40
2.0
  9
$DIMDLI
 40
10.0
  9
$DIMRND
 40
0.0
  9
$DIMDLE
 40
0.0
  9
$DIMEXE
 40
2.0
  9
$DIMTP
 40
0.0
  9
$DIMTM
 40
0.0
  9
$DIMTXT
 40
3.2000000000000002
  9
$DIMCEN
 40
0.0
  9
$DIMTSZ
 40
0.0
  9
$DIMTOL
 70
     0
  9
$DIMLIM
 70
     0
  9
$DIMTIH
 70
     0
  9
$DIMTOH
 70
     0
  9
$DIMSE1
 70
     0
  9
$DIMSE2
 70
     0
  9
$DIMTAD
 70
     1
  9
$DIMZIN
 70
     8
  9
$DIMBLK
  1

  9
$DIMASO
 70
     0
  9
$DIMSHO
 70
     0
  9
$DIMPOST
  1

  9
$DIMAPOST
  1

  9
$DIMALT
 70
     0
  9
$DIMALTD
 70
     2
  9
$DIMALTF
 40
25.399999999999999
  9
$DIMLFAC
 40
1.0
  9
$DIMTOFL
 70
     1
  9
$DIMTVP
 40
1.6000000000000001
  9
$DIMTIX
 70
     0
  9
$DIMSOXD
 70
     0
  9
$DIMSAH
 70
     0
  9
$DIMBLK1
  1

  9
$DIMBLK2
  1

  9
$DIMSTYLE
  2
STANDARD
  9
$DIMCLRD
 70
   256
  9
$DIMCLRE
 70
   256
  9
$DIMCLRT
 70
   256
  9
$DIMTFAC
 40
1.0
  9
$DIMGAP
 40
0.5
  9
$LUNITS
 70
     2
  9
$LUPREC
 70
     1
  9
$SKETCHINC
 40
0.1
  9
$FILLETRAD
 40
0.0
  9
$AUNITS
 70
     0
  9
$AUPREC
 70
     1
  9
$MENU
  1
E:\r13\win\SUPPORT\ACAD
  9
$ELEVATION
 40
0.0
  9
$PELEVATION
 40
0.0
  9
$THICKNESS
 40
0.0
  9
$LIMCHECK
 70
     0
  9
$BLIPMODE
 70
     0
  9
$CHAMFERA
 40
0.0
  9
$CHAMFERB
 40
0.0
  9
$SKPOLY
 70
     0
  9
$TDCREATE
 40
2449840.6171180559
  9
$TDUPDATE
 40
2457711.6223520371
  9
$TDINDWG
 40
0.3115904745
  9
$TDUSRTIMER
 40
0.3115904745
  9
$USRTIMER
 70
     1
  9
$ANGBASE
 50
0.0
  9
$ANGDIR
 70
     0
  9
$PDMODE
 70
     0
  9
$PDSIZE
 40
0.0
  9
$PLINEWID
 40
0.0
  9
$COORDS
 70
     1
  9
$SPLFRAME
 70
     0
  9
$SPLINETYPE
 70
     6
  9
$SPLINESEGS
 70
     8
  9
$ATTDIA
 70
     0
  9
$ATTREQ
 70
     1
  9
$HANDLING
 70
     1
  9
$HANDSEED
  5
2B02
  9
$SURFTAB1
 70
     6
  9
$SURFTAB2
 70
     6
  9
$SURFTYPE
 70
     6
  9
$SURFU
 70
     6
  9
$SURFV
 70
     6
  9
$UCSNAME
  2

  9
$UCSORG
 10
0.0
 20
0.0
 30
0.0
  9
$UCSXDIR
 10
1.0
 20
0.0
 30
0.0
  9
$UCSYDIR
 10
0.0
 20
1.0
 30
0.0
  9
$PUCSNAME
  2

  9
$PUCSORG
 10
0.0
 20
0.0
 30
0.0
  9
$PUCSXDIR
 10
1.0
 20
0.0
 30
0.0
  9
$PUCSYDIR
 10
0.0
 20
1.0
 30
0.0
  9
$USERI1
 70
     0
  9
$USERI2
 70
     1
  9
$USERI3
 70
     0
  9
$USERI4
 70
     0
  9
$USERI5
 70
     0
  9
$USERR1
 40
0.0
  9
$USERR2
 40
0.0
  9
$USERR3
 40
0.0
  9
$USERR4
 40
0.0
  9
$USERR5
 40
0.0
  9
$WORLDVIEW
 70
     1
  9
$SHADEDGE
 70
     3
  9
$SHADEDIF
 70
    70
  9
$TILEMODE
 70
     1
  9
$MAXACTVP
 70
    16
  9
$PLIMCHECK
 70
     0
  9
$PEXTMIN
 10
1.0000000000000000E+020
 20
1.0000000000000000E+020
 30
1.0000000000000000E+020
  9
$PEXTMAX
 10
-1.0000000000000000E+020
 20
-1.0000000000000000E+020
 30
-1.0000000000000000E+020
  9
$PLIMMIN
 10
0.0
 20
0.0
  9
$PLIMMAX
 10
12.0
 20
9.0
  9
$UNITMODE
 70
     0
  9
$VISRETAIN
 70
     0
  9
$PLINEGEN
 70
     0
  9
$PSLTSCALE
 70
     0
  0
ENDSEC
  0
SECTION
  2
TABLES
  0
TABLE
  2
VPORT
 70
     1
  0
VPORT
  2
*ACTIVE
 70
     0
 10
0.0
 20
0.0
 11
1.0
 21
1.0
 12
172.54717102259349
 22
95.0
 13
0.0
 23
0.0
 14
10.0
 24
10.0
 15
10.0
 25
10.0
 16
0.0
 26
0.0
 36
1.0
 17
0.0
 27
0.0
 37
0.0
 40
190.048847966441
 41
1.816239316239316
 42
50.0
 43
0.0
 44
0.0
 50
0.0
 51
0.0
 71
     0
 72
   100
 73
     1
 74
     0
 75
     0
 76
     0
 77
     0
 78
     0
  0
ENDTAB
  0
TABLE
  2
LTYPE
 70
     3
  0
LTYPE
  2
CONTINUOUS
 70
     0
  3
Solid Line
 72
    65
 73
     0
 40
0.0
  0
LTYPE
  2
CENTER
 70
     0
  3
____ _ ____ _ ____ _ ____ _ ____ _ ____ _ ____
 72
    65
 73
     4
 40
2.0
 49
1.25
 49
-0.25
 49
0.25
 49
-0.25
  0
LTYPE
  2
PHANTOM2
 70
     0
  3
___ _ _ ___ _ _ ___ _ _ ___ _ _
 72
    65
 73
     6
 40
1.25
 49
0.625
 49
-0.125
 49
0.125
 49
-0.125
 49
0.125
 49
-0.125
  0
ENDTAB
  0
TABLE
  2
LAYER
 70
     4
  0
LAYER
  2
0
 70
     0
 62
     7
  6
CONTINUOUS
  0
LAYER
  2
1
 70
     0
 62
     1
  6
CENTER
  0
LAYER
  2
3
 70
     0
 62
     3
  6
CONTINUOUS
  0
LAYER
  2
DEFPOINTS
 70
     0
 62
     7
  6
CONTINUOUS
  0
ENDTAB
  0
TABLE
  2
STYLE
 70
     2
  0
STYLE
  2
STANDARD
 70
     0
 40
0.0
 41
1.0
 50
0.0
 71
     0
 42
0.2
  3
TXT
  4
BIGFONT
  0
STYLE
  2
STANDARD1
 70
     0
 40
0.0
 41
1.0
 50
0.0
 71
     0
 42
3.0
  3
txt
  4

  0
ENDTAB
  0
TABLE
  2
VIEW
 70
     2
  0
VIEW
  2
ALL
 70
     0
 40
270.0
 10
220.99159700000001
 20
135.0
 41
0.0
 11
0.0
 21
0.0
 31
1.0
 12
0.0
 22
0.0
 32
0.0
 42
0.0
 43
0.0
 44
0.0
 50
0.0
 71
     0
  0
VIEW
  2
OLE1
 70
     0
 40
213.12987451733159
 10
219.0304491487297
 20
79.011076727426584
 41
384.09376666612633
 11
0.0
 21
0.0
 31
1.0
 12
0.0
 22
0.0
 32
0.0
 42
50.0
 43
0.0
 44
0.0
 50
0.0
 71
     0
  0
ENDTAB
  0
TABLE
  2
UCS
 70
     0
  0
ENDTAB
  0
TABLE
  2
APPID
 70
     6
  0
APPID
  2
ACAD
 70
     0
  0
APPID
  2
ACAD_EXEMPT_FROM_CAD_STANDARDS
 70
     0
  0
APPID
  2
ACAD_MLEADERVER
 70
     0
  0
APPID
  2
ACAD_NAV_VCDISPLAY
 70
     0
  0
APPID
  2
ACAD_DSTYLE_DIMJAG
 70
     0
  0
APPID
  2
ACAD_DSTYLE_DIMTALN
 70
     0
  0
ENDTAB
  0
TABLE
  2
DIMSTYLE
 70
     1
  0
DIMSTYLE
  2
STANDARD
 70
     0
  3

  4

  5

  6

  7

 40
1.0
 41
0.18
 42
0.0625
 43
0.38
 44
0.18
 45
0.0
 46
0.0
 47
0.0
 48
0.0
140
0.18
141
0.09
142
0.0
143
25.399999999999999
144
1.0
145
0.0
146
1.0
147
0.09
 71
     0
 72
     0
 73
     1
 74
     1
 75
     0
 76
     0
 77
     0
 78
     0
170
     0
171
     2
172
     0
173
     0
174
     0
175
     0
176
     0
177
     0
178
     0
  0
ENDTAB
  0
ENDSEC
  0
SECTION
  2
BLOCKS
  0
BLOCK
  8
0
  2
$MODEL_SPACE
 70
     0
 10
0.0
 20
0.0
 30
0.0
  3
$MODEL_SPACE
  1

  0
ENDBLK
  5
E8
  8
0
  0
BLOCK
 67
     1
  8
0
  2
$PAPER_SPACE
 70
     0
 10
0.0
 20
0.0
 30
0.0
  3
$PAPER_SPACE
  1

  0
ENDBLK
  5
E6
 67
     1
  8
0
  0
ENDSEC
  0
SECTION
  2
ENTITIES
  0
TEXT
  5
E56
  8
0
 62
     3
 10
0.0
 20
0.0
 30
0.0
 40
10.0
  1
KCLF06X50
  7
STANDARD1
  0
LINE
  5
13FC
  8
1
 10
119.8
 20
97.050000000000026
 30
0.0
 11
119.8
 21
14.99999999999998
 31
0.0
  0
LINE
  5
13FD
  8
1
 10
106.1024637251803
 20
84.500000000000014
 30
0.0
 11
133.49753627481959
 21
84.500000000000014
 31
0.0
  0
LINE
  5
13FE
  8
1
 10
106.05
 20
83.300000000000026
 30
0.0
 11
133.55000000000001
 21
83.300000000000026
 31
0.0
  0
LINE
  5
13FF
  8
0
 10
111.625
 20
74.100000000000009
 30
0.0
 11
111.625
 21
74.000000000000014
 31
0.0
  0
LINE
  5
1400
  8
0
 10
127.97499999999999
 20
74.000000000000014
 30
0.0
 11
127.97499999999999
 21
74.100000000000009
 31
0.0
  0
ARC
  5
1401
  8
0
 10
111.52500000000001
 20
74.100000000000009
 30
0.0
 40
0.0999999999999996
 50
0.0
 51
90.0
  0
ARC
  5
1402
  8
0
 10
128.07499999999999
 20
74.100000000000009
 30
0.0
 40
0.0999999999999996
 50
90.0
 51
180.0
  0
LINE
  5
1404
  8
0
 10
128.54471778210831
 20
74.200000000000003
 30
0.0
 11
111.0552822178916
 21
74.200000000000003
 31
0.0
  0
ARC
  5
1405
  8
0
 10
111.0552822178916
 20
74.500000000000014
 30
0.0
 40
0.3
 50
178.9999999999998
 51
270.0
  0
ARC
  5
1406
  8
0
 10
128.54471778210831
 20
74.500000000000014
 30
0.0
 40
0.2999999999999989
 50
270.0
 51
1.0000000000001461
  0
LINE
  5
1408
  8
0
 10
113.8
 20
76.700000000000003
 30
0.0
 11
110.79363766232051
 21
76.700000000000003
 31
0.0
  0
LINE
  5
1409
  8
0
 10
110.79363766232051
 20
76.700000000000003
 30
0.0
 11
110.7553279093447
 21
74.505235721931186
 31
0.0
  0
LINE
  5
140A
  8
0
 10
128.84467209065531
 20
74.505235721931186
 30
0.0
 11
128.8063623376795
 21
76.700000000000003
 31
0.0
  0
LINE
  5
140C
  8
0
 10
128.8063623376795
 20
76.700000000000003
 30
0.0
 11
125.7999999999999
 21
76.700000000000003
 31
0.0
  0
LINE
  5
140D
  8
0
 10
126.84999999999999
 20
70.000000000000014
 30
0.0
 11
112.75
 21
70.000000000000014
 31
0.0
  0
ARC
  5
140E
  8
0
 10
112.75
 20
72.000000000000014
 30
0.0
 40
1.9999999999999949
 50
180.0
 51
270.0
  0
ARC
  5
140F
  8
0
 10
126.84999999999999
 20
72.000000000000014
 30
0.0
 40
1.9999999999999949
 50
270.0
 51
0.0
  0
LINE
  5
1410
  8
0
 10
110.75
 20
74.000000000000014
 30
0.0
 11
110.75
 21
72.000000000000014
 31
0.0
  0
LINE
  5
1411
  8
0
 10
128.84999999999999
 20
72.000000000000014
 30
0.0
 11
128.84999999999999
 21
74.000000000000014
 31
0.0
  0
LINE
  5
1413
  8
0
 10
128.84999999999999
 20
74.000000000000014
 30
0.0
 11
110.75
 21
74.000000000000014
 31
0.0
  0
LINE
  5
1417
  8
0
 10
122.1865
 20
20.000000000000011
 30
0.0
 11
122.8
 21
20.613499999999998
 31
0.0
  0
LINE
  5
1418
  8
0
 10
116.8
 20
20.613499999999998
 30
0.0
 11
117.4135
 21
20.000000000000011
 31
0.0
  0
LINE
  5
1419
  8
0
 10
122.1865
 20
20.000000000000011
 30
0.0
 11
117.4135
 21
20.000000000000011
 31
0.0
  0
LINE
  5
141A
  8
0
 10
116.8
 20
70.000000000000014
 30
0.0
 11
116.8
 21
20.613499999999998
 31
0.0
  0
LINE
  5
141B
  8
0
 10
122.8
 20
20.613499999999998
 30
0.0
 11
122.8
 21
70.000000000000014
 31
0.0
  0
LINE
  5
141C
  8
0
 10
122.8
 20
20.613499999999998
 30
0.0
 11
116.8
 21
20.613499999999998
 31
0.0
  0
LINE
  5
1422
  8
3
 10
122.2585
 20
20.071999999999989
 30
0.0
 11
122.2585
 21
70.000000000000014
 31
0.0
  0
LINE
  5
1424
  8
3
 10
117.3415
 20
20.071999999999989
 30
0.0
 11
117.3414999999999
 21
70.000000000000014
 31
0.0
  0
CIRCLE
  5
1425
  8
0
 10
119.8
 20
84.500000000000014
 30
0.0
 40
4.5
  0
ARC
  5
1427
  8
0
 10
141.3100000000012
 20
157.48000000002389
 30
0.0
 40
75.030000000023961
 50
265.8154092718695
 51
268.28919606632411
  0
ARC
  5
1428
  8
0
 10
139.07000000000039
 20
152.58000000000959
 30
0.0
 40
65.140000000009579
 50
263.52445805387413
 51
270.0
  0
ARC
  5
142A
  8
0
 10
119.8
 20
83.300000000000026
 30
0.0
 40
8.7500000000000018
 50
55.021152029148091
 51
241.1457322701859
  0
ARC
  5
142B
  8
0
 10
133.41525723450499
 20
102.7598887570884
 30
0.0
 40
14.99999999999997
 50
235.02115202914811
 51
263.52445805387288
  0
ARC
  5
142C
  8
0
 10
135.8699100650702
 20
72.64008028018624
 30
0.0
 40
10.00999999999997
 50
90.199460860801807
 51
144.3093582997538
  0
POLYLINE
  5
142E
  8
0
 66
     1
 10
0.0
 20
0.0
 30
0.0
  0
VERTEX
  5
295E
  8
0
 10
154.5511090988918
 20
83.627620689437194
 30
0.0
  0
VERTEX
  5
295F
  8
0
 10
158.40993805704579
 20
84.354093059619245
 30
0.0
  0
VERTEX
  5
2960
  8
0
 10
159.80000000000001
 20
84.531421841922295
 30
0.0
  0
SEQEND
  5
2961
  8
0
  0
POLYLINE
  5
142F
  8
0
 66
     1
 10
0.0
 20
0.0
 30
0.0
  0
VERTEX
  5
2962
  8
0
 10
149.15468473738019
 20
88.225367425898142
 30
0.0
  0
VERTEX
  5
2963
  8
0
 10
153.4347687512367
 20
89.404673355059344
 30
0.0
  0
VERTEX
  5
2964
  8
0
 10
157.80134903741049
 20
90.20645776786786
 30
0.0
  0
VERTEX
  5
2965
  8
0
 10
159.80000000000001
 20
90.443776517949374
 30
0.0
  0
SEQEND
  5
2966
  8
0
  0
POLYLINE
  5
1430
  8
0
 66
     1
 10
0.0
 20
0.0
 30
0.0
  0
VERTEX
  5
2967
  8
0
 10
149.15468473738019
 20
88.225367425898199
 30
0.0
  0
VERTEX
  5
2968
  8
0
 10
143.50743366605639
 20
87.591318043375054
 30
0.0
  0
VERTEX
  5
2969
  8
0
 10
139.06999999999999
 20
87.440000000000012
 30
0.0
  0
SEQEND
  5
296A
  8
0
  0
POLYLINE
  5
1432
  8
0
 66
     1
 10
0.0
 20
0.0
 30
0.0
  0
VERTEX
  5
296B
  8
0
 10
154.5511090988918
 20
83.627620689437208
 30
0.0
  0
VERTEX
  5
296C
  8
0
 10
148.0640637086766
 20
82.754612591040114
 30
0.0
  0
VERTEX
  5
296D
  8
0
 10
141.52561581542321
 20
82.450309811247806
 30
0.0
  0
VERTEX
  5
296E
  8
0
 10
139.06999999999999
 20
82.483444745775174
 30
0.0
  0
SEQEND
  5
296F
  8
0
  0
ARC
  5
1433
  8
0
 10
164.80000000012441
 20
39.800000000354729
 30
0.0
 40
45.009999999624092
 50
70.379576667405814
 51
71.122158757626323
  0
ARC
  5
1434
  8
0
 10
169.57999999997239
 20
57.789999999916589
 30
0.0
 40
32.28000000008786
 50
71.329227744238779
 51
72.357998515265464
  0
POLYLINE
  5
1435
  8
0
 66
     1
 10
0.0
 20
0.0
 30
0.0
  0
VERTEX
  5
2970
  8
0
 10
159.80000000000001
 20
84.531421841922295
 30
0.0
  0
VERTEX
  5
2971
  8
0
 10
163.71762680433281
 20
84.796983990766577
 30
0.0
  0
VERTEX
  5
2972
  8
0
 10
167.64349112223951
 20
84.720091921519355
 30
0.0
  0
VERTEX
  5
2973
  8
0
 10
171.54771475575899
 20
84.301330829256258
 30
0.0
  0
VERTEX
  5
2974
  8
0
 10
175.4005842056057
 20
83.543887738744289
 30
0.0
  0
VERTEX
  5
2975
  8
0
 10
179.17277680884001
 20
82.453527249258926
 30
0.0
  0
VERTEX
  5
2976
  8
0
 10
179.3630530973451
 20
82.388937348610909
 30
0.0
  0
SEQEND
  5
2977
  8
0
  0
LINE
  5
1436
  8
0
 10
177.03411323462259
 20
89.197556350111441
 30
0.0
 11
179.3630530973451
 21
88.551831416457077
 31
0.0
  0
POLYLINE
  5
1439
  8
0
 66
     1
 10
0.0
 20
0.0
 30
0.0
  0
VERTEX
  5
2978
  8
0
 10
159.80000000000001
 20
90.443776517949374
 30
0.0
  0
VERTEX
  5
2979
  8
0
 10
164.2329224675095
 20
90.686840372262722
 30
0.0
  0
VERTEX
  5
297A
  8
0
 10
168.67016073745211
 20
90.542624645028809
 30
0.0
  0
VERTEX
  5
297B
  8
0
 10
173.07794474731571
 20
90.012226905011786
 30
0.0
  0
VERTEX
  5
297C
  8
0
 10
177.03411323462259
 20
89.197556350111441
 30
0.0
  0
SEQEND
  5
297D
  8
0
  0
POLYLINE
  5
143B
  8
0
 66
     1
 10
0.0
 20
0.0
 30
0.0
  0
VERTEX
  5
297E
  8
0
 10
179.91378857642511
 20
82.196621267114239
 30
0.0
  0
VERTEX
  5
297F
  8
0
 10
180.87380352474759
 20
81.841995455562014
 30
0.0
  0
VERTEX
  5
2980
  8
0
 10
181.81591703898891
 20
81.46963723530898
 30
0.0
  0
VERTEX
  5
2981
  8
0
 10
182.7608255831521
 20
81.071122324100983
 30
0.0
  0
VERTEX
  5
2982
  8
0
 10
183.67415572889911
 20
80.66155094365935
 30
0.0
  0
VERTEX
  5
2983
  8
0
 10
184.52489203968349
 20
80.257710224725784
 30
0.0
  0
VERTEX
  5
2984
  8
0
 10
185.3360172676812
 20
79.852117232195141
 30
0.0
  0
VERTEX
  5
2985
  8
0
 10
186.123278871151
 20
79.438562259114136
 30
0.0
  0
VERTEX
  5
2986
  8
0
 10
186.85904599270131
 20
79.033895930583938
 30
0.0
  0
VERTEX
  5
2987
  8
0
 10
187.19012973202891
 20
78.845898511660792
 30
0.0
  0
SEQEND
  5
2988
  8
0
  0
POLYLINE
  5
143C
  8
0
 66
     1
 10
0.0
 20
0.0
 30
0.0
  0
VERTEX
  5
2989
  8
0
 10
190.19999999999999
 20
80.589561164592126
 30
0.0
  0
VERTEX
  5
298A
  8
0
 10
190.19969797652161
 20
80.554718042389212
 30
0.0
  0
VERTEX
  5
298B
  8
0
 10
190.19857007741871
 20
80.513757179879761
 30
0.0
  0
VERTEX
  5
298C
  8
0
 10
190.19314848540441
 20
80.423741547472176
 30
0.0
  0
VERTEX
  5
298D
  8
0
 10
190.17404484788079
 20
80.2653432493221
 30
0.0
  0
VERTEX
  5
298E
  8
0
 10
190.14663908964931
 20
80.129492177522764
 30
0.0
  0
VERTEX
  5
298F
  8
0
 10
190.0338998554337
 20
79.787133301549559
 30
0.0
  0
VERTEX
  5
2990
  8
0
 10
189.86248614815199
 20
79.472997559502176
 30
0.0
  0
VERTEX
  5
2991
  8
0
 10
189.63156630375971
 20
79.188851847187394
 30
0.0
  0
VERTEX
  5
2992
  8
0
 10
189.33679817512501
 20
78.938350929213797
 30
0.0
  0
VERTEX
  5
2993
  8
0
 10
188.9776578238114
 20
78.739695523316911
 30
0.0
  0
VERTEX
  5
2994
  8
0
 10
188.55578980387901
 20
78.613125529571661
 30
0.0
  0
VERTEX
  5
2995
  8
0
 10
188.1451504640365
 20
78.579910312649375
 30
0.0
  0
VERTEX
  5
2996
  8
0
 10
187.6966391414893
 20
78.641050178405592
 30
0.0
  0
VERTEX
  5
2997
  8
0
 10
187.44449510275771
 20
78.722929425934112
 30
0.0
  0
VERTEX
  5
2998
  8
0
 10
187.19012973202891
 20
78.845898511660792
 30
0.0
  0
SEQEND
  5
2999
  8
0
  0
LINE
  5
143D
  8
0
 10
190.19999999999999
 20
81.422900795289607
 30
0.0
 11
190.19999999999999
 21
80.589561164592126
 31
0.0
  0
POLYLINE
  5
143E
  8
0
 66
     1
 10
0.0
 20
0.0
 30
0.0
  0
VERTEX
  5
299A
  8
0
 10
189.22115513767631
 20
83.406858215982155
 30
0.0
  0
VERTEX
  5
299B
  8
0
 10
189.54828736658251
 20
83.108219963779945
 30
0.0
  0
VERTEX
  5
299C
  8
0
 10
189.8084090226246
 20
82.770241806408521
 30
0.0
  0
VERTEX
  5
299D
  8
0
 10
190.0025871987977
 20
82.399478139883698
 30
0.0
  0
VERTEX
  5
299E
  8
0
 10
190.1318889880969
 20
82.002483360221333
 30
0.0
  0
VERTEX
  5
299F
  8
0
 10
190.16651984450911
 20
81.830675066968226
 30
0.0
  0
VERTEX
  5
29A0
  8
0
 10
190.18323132417919
 20
81.711972050545498
 30
0.0
  0
VERTEX
  5
29A1
  8
0
 10
190.1916445307628
 20
81.627125015987716
 30
0.0
  0
VERTEX
  5
29A2
  8
0
 10
190.19732105560411
 20
81.538605355425219
 30
0.0
  0
VERTEX
  5
29A3
  8
0
 10
190.19905302208309
 20
81.491704812740593
 30
0.0
  0
VERTEX
  5
29A4
  8
0
 10
190.1998672995278
 20
81.448658993040155
 30
0.0
  0
VERTEX
  5
29A5
  8
0
 10
190.19999999999999
 20
81.422900795289607
 30
0.0
  0
SEQEND
  5
29A6
  8
0
  0
POLYLINE
  5
143F
  8
0
 66
     1
 10
0.0
 20
0.0
 30
0.0
  0
VERTEX
  5
29A7
  8
0
 10
179.91378857642511
 20
88.371223220429684
 30
0.0
  0
VERTEX
  5
29A8
  8
0
 10
180.86520986035319
 20
88.032998758382163
 30
0.0
  0
VERTEX
  5
29A9
  8
0
 10
181.79631279351219
 20
87.669091380613807
 30
0.0
  0
VERTEX
  5
29AA
  8
0
 10
182.72805775623399
 20
87.270907969366576
 30
0.0
  0
VERTEX
  5
29AB
  8
0
 10
183.6261221958238
 20
86.853806551447903
 30
0.0
  0
VERTEX
  5
29AC
  8
0
 10
184.4597065261182
 20
86.435953120370314
 30
0.0
  0
VERTEX
  5
29AD
  8
0
 10
185.25328878063081
 20
86.009610535919037
 30
0.0
  0
VERTEX
  5
29AE
  8
0
 10
186.0216590864402
 20
85.568917894203551
 30
0.0
  0
VERTEX
  5
29AF
  8
0
 10
186.740746411055
 20
85.130577583794107
 30
0.0
  0
VERTEX
  5
29B0
  8
0
 10
187.45980234933521
 20
84.665800381450438
 30
0.0
  0
VERTEX
  5
29B1
  8
0
 10
188.1115050040201
 20
84.220696591009087
 30
0.0
  0
VERTEX
  5
29B2
  8
0
 10
188.70972479543519
 20
83.790963370514035
 30
0.0
  0
VERTEX
  5
29B3
  8
0
 10
189.22115513767631
 20
83.406858215982155
 30
0.0
  0
SEQEND
  5
29B4
  8
0
  0
LINE
  5
1480
  8
1
 10
105.7499999999999
 20
142.05000000000001
 30
0.0
 11
195.1999999999999
 21
142.05000000000001
 31
0.0
  0
LINE
  5
1481
  8
1
 10
119.8
 20
156.09999999999999
 30
0.0
 11
119.8
 21
128.0
 31
0.0
  0
LINE
  5
148B
  8
0
 10
125.8
 20
139.05000000000001
 30
0.0
 11
125.8
 21
145.05000000000001
 31
0.0
  0
LINE
  5
148D
  8
0
 10
113.8
 20
145.05000000000001
 30
0.0
 11
113.8
 21
139.05000000000001
 31
0.0
  0
ARC
  5
148F
  8
0
 10
119.8
 20
142.05000000000001
 30
0.0
 40
9.0500000000000114
 50
55.968424940933723
 51
124.0315750590663
  0
ARC
  5
1490
  8
0
 10
119.8
 20
142.05000000000001
 30
0.0
 40
9.0500000000000238
 50
160.6406585917027
 51
199.35934140829721
  0
ARC
  5
1491
  8
0
 10
119.8
 20
142.05000000000001
 30
0.0
 40
9.0500000000000025
 50
235.96842494093369
 51
304.03157505906631
  0
LINE
  5
149D
  8
0
 10
124.3
 20
139.05000000000001
 30
0.0
 11
124.3
 21
145.05000000000001
 31
0.0
  0
LINE
  5
149E
  8
0
 10
115.3
 20
145.05000000000001
 30
0.0
 11
115.3
 21
139.05000000000001
 31
0.0
  0
POLYLINE
  5
14A0
  8
0
 66
     1
 10
0.0
 20
0.0
 30
0.0
  0
VERTEX
  5
29B5
  8
0
 10
190.19999999999999
 20
142.5137848373675
 30
0.0
  0
VERTEX
  5
29B6
  8
0
 10
190.19961076107131
 20
142.5227207007988
 30
0.0
  0
VERTEX
  5
29B7
  8
0
 10
190.1981372756515
 20
142.55511531332019
 30
0.0
  0
VERTEX
  5
29B8
  8
0
 10
190.19474511031549
 20
142.62257947287819
 30
0.0
  0
VERTEX
  5
29B9
  8
0
 10
190.1904136307046
 20
142.6989309824454
 30
0.0
  0
VERTEX
  5
29BA
  8
0
 10
190.17208034823631
 20
142.95125511006199
 30
0.0
  0
VERTEX
  5
29BB
  8
0
 10
190.146791461167
 20
143.2135674397955
 30
0.0
  0
VERTEX
  5
29BC
  8
0
 10
190.11470616468671
 20
143.47885927404511
 30
0.0
  0
VERTEX
  5
29BD
  8
0
 10
190.01319068847661
 20
144.09748673422001
 30
0.0
  0
VERTEX
  5
29BE
  8
0
 10
189.87356638551651
 20
144.7177937383058
 30
0.0
  0
VERTEX
  5
29BF
  8
0
 10
189.6953447179603
 20
145.3364798680316
 30
0.0
  0
VERTEX
  5
29C0
  8
0
 10
189.4780371479622
 20
145.95024470512669
 30
0.0
  0
VERTEX
  5
29C1
  8
0
 10
189.22115513767631
 20
146.5557878313204
 30
0.0
  0
SEQEND
  5
29C2
  8
0
  0
POLYLINE
  5
14A1
  8
0
 66
     1
 10
0.0
 20
0.0
 30
0.0
  0
VERTEX
  5
29C3
  8
0
 10
189.22115513767631
 20
137.54421216867951
 30
0.0
  0
VERTEX
  5
29C4
  8
0
 10
189.48825591360631
 20
138.17632439801139
 30
0.0
  0
VERTEX
  5
29C5
  8
0
 10
189.71233333499981
 20
138.81748557500231
 30
0.0
  0
VERTEX
  5
29C6
  8
0
 10
189.89393375347041
 20
139.46375365463791
 30
0.0
  0
VERTEX
  5
29C7
  8
0
 10
190.0336035206316
 20
140.1111865919043
 30
0.0
  0
VERTEX
  5
29C8
  8
0
 10
190.1318889880969
 20
140.75584234178729
 30
0.0
  0
VERTEX
  5
29C9
  8
0
 10
190.166519844509
 20
141.0836673404545
 30
0.0
  0
VERTEX
  5
29CA
  8
0
 10
190.18323132417919
 20
141.2914871637972
 30
0.0
  0
VERTEX
  5
29CB
  8
0
 10
190.1916445307628
 20
141.42177300844151
 30
0.0
  0
VERTEX
  5
29CC
  8
0
 10
190.19732105560411
 20
141.52780606663521
 30
0.0
  0
VERTEX
  5
29CD
  8
0
 10
190.19905302208309
 20
141.5647624250557
 30
0.0
  0
VERTEX
  5
29CE
  8
0
 10
190.1998672995278
 20
141.58314946936019
 30
0.0
  0
VERTEX
  5
29CF
  8
0
 10
190.19999999999999
 20
141.5862151626325
 30
0.0
  0
SEQEND
  5
29D0
  8
0
  0
LINE
  5
14A2
  8
0
 10
190.19999999999999
 20
141.5862151626325
 30
0.0
 11
190.19999999999999
 21
142.5137848373675
 31
0.0
  0
LINE
  5
14A3
  8
0
 10
159.80000000000001
 20
133.55000000000001
 30
0.0
 11
139.06999999999999
 21
134.55000000000001
 31
0.0
  0
LINE
  5
14A4
  8
0
 10
139.06999999999991
 20
149.55000000000001
 30
0.0
 11
159.80000000000001
 21
150.55000000000001
 31
0.0
  0
LINE
  5
14A5
  8
0
 10
159.80000000000001
 20
133.55000000000001
 30
0.0
 11
179.3630530973451
 21
131.30000000000001
 31
0.0
  0
LINE
  5
14A6
  8
0
 10
179.3630530973451
 20
152.80000000000001
 30
0.0
 11
159.80000000000001
 21
150.55000000000001
 31
0.0
  0
POLYLINE
  5
14A7
  8
0
 66
     1
 10
0.0
 20
0.0
 30
0.0
  0
VERTEX
  5
29D1
  8
0
 10
189.22115513767631
 20
146.55578783132049
 30
0.0
  0
VERTEX
  5
29D2
  8
0
 10
188.9395900255434
 20
147.1219200184151
 30
0.0
  0
VERTEX
  5
29D3
  8
0
 10
188.6280802451067
 20
147.6660057767165
 30
0.0
  0
VERTEX
  5
29D4
  8
0
 10
188.28883421562639
 20
148.18617199306209
 30
0.0
  0
VERTEX
  5
29D5
  8
0
 10
187.9110953481198
 20
148.6973255799229
 30
0.0
  0
VERTEX
  5
29D6
  8
0
 10
187.50631406112541
 20
149.18252164671779
 30
0.0
  0
VERTEX
  5
29D7
  8
0
 10
187.07646056196259
 20
149.64043455444931
 30
0.0
  0
VERTEX
  5
29D8
  8
0
 10
186.6373874205766
 20
150.0574138865006
 30
0.0
  0
VERTEX
  5
29D9
  8
0
 10
186.17641116684561
 20
150.4483692039932
 30
0.0
  0
VERTEX
  5
29DA
  8
0
 10
185.69510528317011
 20
150.8122062231169
 30
0.0
  0
VERTEX
  5
29DB
  8
0
 10
185.1815908166827
 20
151.1563673763826
 30
0.0
  0
VERTEX
  5
29DC
  8
0
 10
184.64807792465439
 20
151.47109597015131
 30
0.0
  0
VERTEX
  5
29DD
  8
0
 10
184.0963488943373
 20
151.75510383177109
 30
0.0
  0
VERTEX
  5
29DE
  8
0
 10
183.4568849795161
 20
152.03604956245121
 30
0.0
  0
VERTEX
  5
29DF
  8
0
 10
182.79657474791631
 20
152.2762781427702
 30
0.0
  0
VERTEX
  5
29E0
  8
0
 10
182.11856369101051
 20
152.47383647834371
 30
0.0
  0
VERTEX
  5
29E1
  8
0
 10
181.39758469904089
 20
152.63216511182131
 30
0.0
  0
VERTEX
  5
29E2
  8
0
 10
180.66106977584101
 20
152.74152171068661
 30
0.0
  0
VERTEX
  5
29E3
  8
0
 10
179.91378857642491
 20
152.80000000000001
 30
0.0
  0
SEQEND
  5
29E4
  8
0
  0
POLYLINE
  5
14A8
  8
0
 66
     1
 10
0.0
 20
0.0
 30
0.0
  0
VERTEX
  5
29E5
  8
0
 10
179.91378857642511
 20
131.30000000000001
 30
0.0
  0
VERTEX
  5
29E6
  8
0
 10
180.5498275032277
 20
131.34641393993709
 30
0.0
  0
VERTEX
  5
29E7
  8
0
 10
181.1783346229488
 20
131.42977285544109
 30
0.0
  0
VERTEX
  5
29E8
  8
0
 10
181.79631279351219
 20
131.54893265025481
 30
0.0
  0
VERTEX
  5
29E9
  8
0
 10
182.42080008654179
 20
131.7082885876581
 30
0.0
  0
VERTEX
  5
29EA
  8
0
 10
183.03157314557811
 20
131.90362270216991
 30
0.0
  0
VERTEX
  5
29EB
  8
0
 10
183.6261221958238
 20
132.1334682475441
 30
0.0
  0
VERTEX
  5
29EC
  8
0
 10
184.18598921197889
 20
132.38835215170451
 30
0.0
  0
VERTEX
  5
29ED
  8
0
 10
184.7289791651705
 20
132.67399832523569
 30
0.0
  0
VERTEX
  5
29EE
  8
0
 10
185.25328878063081
 20
132.98912601500919
 30
0.0
  0
VERTEX
  5
29EF
  8
0
 10
185.77071930055209
 20
133.34220796431379
 30
0.0
  0
VERTEX
  5
29F0
  8
0
 10
186.26712298552891
 20
133.72509939904759
 30
0.0
  0
VERTEX
  5
29F1
  8
0
 10
186.74074641105489
 20
134.13655483929821
 30
0.0
  0
VERTEX
  5
29F2
  8
0
 10
187.22719259767899
 20
134.61412885964211
 30
0.0
  0
VERTEX
  5
29F3
  8
0
 10
187.68492840281419
 20
135.12447674240639
 30
0.0
  0
VERTEX
  5
29F4
  8
0
 10
188.1115050040201
 20
135.66596302134019
 30
0.0
  0
VERTEX
  5
29F5
  8
0
 10
188.51938965937069
 20
136.26016662270811
 30
0.0
  0
VERTEX
  5
29F6
  8
0
 10
188.89041665936929
 20
136.8871944269809
 30
0.0
  0
VERTEX
  5
29F7
  8
0
 10
189.22115513767631
 20
137.54421216867951
 30
0.0
  0
SEQEND
  5
29F8
  8
0
  0
LINE
  5
14A9
  8
0
 10
179.91378857642491
 20
152.80000000000001
 30
0.0
 11
179.3630530973451
 21
152.80000000000001
 31
0.0
  0
LINE
  5
14AA
  8
0
 10
179.91378857642511
 20
131.30000000000001
 30
0.0
 11
179.3630530973451
 21
131.30000000000001
 31
0.0
  0
LINE
  5
14AC
  8
0
 10
111.05
 20
139.05000000000001
 30
0.0
 11
126.3
 21
139.05000000000001
 31
0.0
  0
LINE
  5
14AD
  8
0
 10
126.3
 20
145.05000000000001
 30
0.0
 11
111.05
 21
145.05000000000001
 31
0.0
  0
POLYLINE
  5
14AE
  8
0
 66
     1
 10
0.0
 20
0.0
 30
0.0
  0
VERTEX
  5
29F9
  8
0
 10
126.3
 20
145.05000000000001
 30
0.0
  0
VERTEX
  5
29FA
  8
0
 10
126.4822057421253
 20
145.0331670464314
 30
0.0
  0
VERTEX
  5
29FB
  8
0
 10
126.6606647219953
 20
144.98269553355209
 30
0.0
  0
VERTEX
  5
29FC
  8
0
 10
126.83038864568989
 20
144.89758246144871
 30
0.0
  0
VERTEX
  5
29FD
  8
0
 10
126.9841153956057
 20
144.77937378997009
 30
0.0
  0
VERTEX
  5
29FE
  8
0
 10
127.1043839266019
 20
144.64384330215231
 30
0.0
  0
VERTEX
  5
29FF
  8
0
 10
127.19994620449459
 20
144.48600095070501
 30
0.0
  0
VERTEX
  5
2A00
  8
0
 10
127.2599468337596
 20
144.3297054005202
 30
0.0
  0
VERTEX
  5
2A01
  8
0
 10
127.29346153184579
 20
144.1641673541011
 30
0.0
  0
VERTEX
  5
2A02
  8
0
 10
127.3
 20
144.05000000000001
 30
0.0
  0
SEQEND
  5
2A03
  8
0
  0
LINE
  5
14AF
  8
0
 10
127.3
 20
140.05000000000001
 30
0.0
 11
127.3
 21
144.05000000000001
 31
0.0
  0
POLYLINE
  5
14B0
  8
0
 66
     1
 10
0.0
 20
0.0
 30
0.0
  0
VERTEX
  5
2A04
  8
0
 10
127.3
 20
140.05000000000001
 30
0.0
  0
VERTEX
  5
2A05
  8
0
 10
127.28755349587411
 20
139.8933781180011
 30
0.0
  0
VERTEX
  5
2A06
  8
0
 10
127.2511571919699
 20
139.7412930254045
 30
0.0
  0
VERTEX
  5
2A07
  8
0
 10
127.1920959523343
 20
139.5983459123174
 30
0.0
  0
VERTEX
  5
2A08
  8
0
 10
127.11296899377869
 20
139.46769302326479
 30
0.0
  0
VERTEX
  5
2A09
  8
0
 10
127.0131500993287
 20
139.34909121544661
 30
0.0
  0
VERTEX
  5
2A0A
  8
0
 10
126.89838991365821
 20
139.24879496305121
 30
0.0
  0
VERTEX
  5
2A0B
  8
0
 10
126.76123638379229
 20
139.1627980001407
 30
0.0
  0
VERTEX
  5
2A0C
  8
0
 10
126.6146953233779
 20
139.1008072622254
 30
0.0
  0
VERTEX
  5
2A0D
  8
0
 10
126.45849395291749
 20
139.06269180575629
 30
0.0
  0
VERTEX
  5
2A0E
  8
0
 10
126.3
 20
139.05000000000001
 30
0.0
  0
SEQEND
  5
2A0F
  8
0
  0
LINE
  5
14B5
  8
0
 10
139.06999999999999
 20
149.55000000000001
 30
0.0
 11
111.05
 21
149.55000000000001
 31
0.0
  0
LINE
  5
14B6
  8
0
 10
111.05
 20
149.55000000000001
 30
0.0
 11
111.05
 21
145.05000000000001
 31
0.0
  0
LINE
  5
14B8
  8
0
 10
111.05
 20
139.05000000000001
 30
0.0
 11
111.05
 21
134.55000000000001
 31
0.0
  0
LINE
  5
14B9
  8
0
 10
111.05
 20
134.55000000000001
 30
0.0
 11
139.06999999999999
 21
134.55000000000001
 31
0.0
  0
POLYLINE
  5
14F0
  8
0
 66
     1
 10
0.0
 20
0.0
 30
0.0
  0
VERTEX
  5
2A10
  8
0
 10
58.633265531996308
 20
88.656969395850226
 30
0.0
  0
VERTEX
  5
2A11
  8
0
 10
58.689481470312032
 20
88.628574823297654
 30
0.0
  0
VERTEX
  5
2A12
  8
0
 10
58.912498575704952
 20
88.521921817031426
 30
0.0
  0
VERTEX
  5
2A13
  8
0
 10
59.159670291969768
 20
88.415223918276425
 30
0.0
  0
VERTEX
  5
2A14
  8
0
 10
59.430792635128661
 20
88.313257606504308
 30
0.0
  0
VERTEX
  5
2A15
  8
0
 10
59.724028027475022
 20
88.222012118950389
 30
0.0
  0
VERTEX
  5
2A16
  8
0
 10
60.034543712136333
 20
88.148521268931276
 30
0.0
  0
VERTEX
  5
2A17
  8
0
 10
60.400398258572046
 20
88.095017500742586
 30
0.0
  0
VERTEX
  5
2A18
  8
0
 10
60.775961790112561
 20
88.077779166542555
 30
0.0
  0
VERTEX
  5
2A19
  8
0
 10
61.151057957190289
 20
88.100372588922994
 30
0.0
  0
VERTEX
  5
2A1A
  8
0
 10
61.515107511002299
 20
88.158581590369735
 30
0.0
  0
VERTEX
  5
2A1B
  8
0
 10
61.862056202612187
 20
88.2465891478342
 30
0.0
  0
VERTEX
  5
2A1C
  8
0
 10
62.18435667201841
 20
88.354505002275147
 30
0.0
  0
VERTEX
  5
2A1D
  8
0
 10
62.419679109504393
 20
88.448094217438396
 30
0.0
  0
VERTEX
  5
2A1E
  8
0
 10
62.636558443593941
 20
88.544587505353334
 30
0.0
  0
VERTEX
  5
2A1F
  8
0
 10
62.832542701001977
 20
88.639663494959066
 30
0.0
  0
VERTEX
  5
2A20
  8
0
 10
62.866749537497839
 20
88.656977069277303
 30
0.0
  0
SEQEND
  5
2A21
  8
0
  0
LINE
  5
1528
  8
1
 10
60.75
 20
95.689999999999998
 30
0.0
 11
60.75
 21
15.000000000000011
 31
0.0
  0
LINE
  5
1529
  8
1
 10
45.0
 20
84.499999999999986
 30
0.0
 11
76.5
 21
84.500000000000014
 31
0.0
  0
LINE
  5
152A
  8
0
 10
52.575000000000003
 20
74.100000000000037
 30
0.0
 11
52.575000000000003
 21
74.000000000000014
 31
0.0
  0
LINE
  5
152B
  8
0
 10
68.925000000000011
 20
74.000000000000014
 30
0.0
 11
68.925000000000011
 21
74.100000000000037
 31
0.0
  0
ARC
  5
152C
  8
0
 10
52.474999999999987
 20
74.100000000000037
 30
0.0
 40
0.0999999999999996
 50
0.0
 51
90.0
  0
ARC
  5
152D
  8
0
 10
69.025000000000006
 20
74.100000000000037
 30
0.0
 40
0.0999999999999996
 50
90.0
 51
180.0
  0
POLYLINE
  5
152F
  8
0
 66
     1
 10
0.0
 20
0.0
 30
0.0
  0
VERTEX
  5
2A22
  8
0
 10
67.466737493573135
 20
76.700000000000003
 30
0.0
  0
VERTEX
  5
2A23
  8
0
 10
67.882408946530958
 20
76.354461282570824
 30
0.0
  0
VERTEX
  5
2A24
  8
0
 10
68.269346812883526
 20
76.027376728856623
 30
0.0
  0
VERTEX
  5
2A25
  8
0
 10
68.627941109512477
 20
75.720077924215801
 30
0.0
  0
VERTEX
  5
2A26
  8
0
 10
68.949032218214043
 20
75.441841292291215
 30
0.0
  0
VERTEX
  5
2A27
  8
0
 10
69.177021429312731
 20
75.242660332852481
 30
0.0
  0
VERTEX
  5
2A28
  8
0
 10
69.373883945663223
 20
75.069662408547046
 30
0.0
  0
VERTEX
  5
2A29
  8
0
 10
69.538398158819405
 20
74.924410495794248
 30
0.0
  0
VERTEX
  5
2A2A
  8
0
 10
69.664351468562884
 20
74.812803492028181
 30
0.0
  0
VERTEX
  5
2A2B
  8
0
 10
69.745980977739478
 20
74.740292028459933
 30
0.0
  0
VERTEX
  5
2A2C
  8
0
 10
69.786762134271157
 20
74.704014351154214
 30
0.0
  0
VERTEX
  5
2A2D
  8
0
 10
69.791272467513707
 20
74.700000000019784
 30
0.0
  0
SEQEND
  5
2A2E
  8
0
  0
LINE
  5
1530
  8
0
 10
67.46673749357312
 20
76.700000000000003
 30
0.0
 11
54.033262506426873
 21
76.700000000000003
 31
0.0
  0
LINE
  5
1531
  8
0
 10
51.70872753246411
 20
74.700000000000031
 30
0.0
 11
51.705327909344717
 21
74.505235721931214
 31
0.0
  0
LINE
  5
1532
  8
0
 10
69.794672090655283
 20
74.505235721931214
 30
0.0
 11
69.79127246753589
 21
74.700000000000031
 31
0.0
  0
POLYLINE
  5
1533
  8
0
 66
     1
 10
0.0
 20
0.0
 30
0.0
  0
VERTEX
  5
2A2F
  8
0
 10
51.708727532486293
 20
74.700000000019784
 30
0.0
  0
VERTEX
  5
2A30
  8
0
 10
51.715570010001812
 20
74.706089876306194
 30
0.0
  0
VERTEX
  5
2A31
  8
0
 10
51.763262640630252
 20
74.748510103611963
 30
0.0
  0
VERTEX
  5
2A32
  8
0
 10
51.841511871378749
 20
74.818006512160437
 30
0.0
  0
VERTEX
  5
2A33
  8
0
 10
51.95347822301968
 20
74.917222503978067
 30
0.0
  0
VERTEX
  5
2A34
  8
0
 10
52.099197886321519
 20
75.045937545574347
 30
0.0
  0
VERTEX
  5
2A35
  8
0
 10
52.276635536138812
 20
75.202017399817706
 30
0.0
  0
VERTEX
  5
2A36
  8
0
 10
52.490933633970002
 20
75.389518875505487
 30
0.0
  0
VERTEX
  5
2A37
  8
0
 10
52.736438892267181
 20
75.602896697277245
 30
0.0
  0
VERTEX
  5
2A38
  8
0
 10
53.01002558890886
 20
75.838756911648474
 30
0.0
  0
VERTEX
  5
2A39
  8
0
 10
53.311219377381391
 20
76.095882335586694
 30
0.0
  0
VERTEX
  5
2A3A
  8
0
 10
53.65938973174358
 20
76.389492532216124
 30
0.0
  0
VERTEX
  5
2A3B
  8
0
 10
54.033262506426873
 20
76.700000000000003
 30
0.0
  0
SEQEND
  5
2A3C
  8
0
  0
LINE
  5
1534
  8
0
 10
69.494717782073536
 20
74.200000000000003
 30
0.0
 11
52.005282217891633
 21
74.200000000000003
 31
0.0
  0
ARC
  5
1535
  8
0
 10
52.00528221789164
 20
74.500000000000014
 30
0.0
 40
0.3
 50
178.9999999999998
 51
270.0
  0
ARC
  5
1536
  8
0
 10
69.494717782108353
 20
74.500000000000014
 30
0.0
 40
0.2999999999999989
 50
270.0
 51
1.000000000000147
  0
LINE
  5
1538
  8
0
 10
67.799999999788724
 20
70.000000000000014
 30
0.0
 11
53.700000000000003
 21
70.000000000000014
 31
0.0
  0
ARC
  5
1539
  8
0
 10
53.700000000000003
 20
72.000000000000014
 30
0.0
 40
1.9999999999999949
 50
180.0
 51
270.0
  0
ARC
  5
153A
  8
0
 10
67.800000000000011
 20
72.000000000000014
 30
0.0
 40
1.9999999999999949
 50
270.0
 51
0.0
  0
LINE
  5
153B
  8
0
 10
51.700000000000003
 20
74.000000000000014
 30
0.0
 11
51.700000000000003
 21
72.000000000000014
 31
0.0
  0
LINE
  5
153C
  8
0
 10
69.800000000000011
 20
72.000000000000014
 30
0.0
 11
69.800000000000011
 21
74.000000000000014
 31
0.0
  0
LINE
  5
153E
  8
0
 10
69.800000000000011
 20
74.000000000000014
 30
0.0
 11
51.700000000000003
 21
74.000000000000014
 31
0.0
  0
LINE
  5
153F
  8
0
 10
58.25
 20
80.000000000000028
 30
0.0
 11
58.25
 21
76.700000000000003
 31
0.0
  0
LINE
  5
1540
  8
0
 10
63.25
 20
76.700000000000003
 30
0.0
 11
63.250000000000007
 21
80.000000000000028
 31
0.0
  0
LINE
  5
1541
  8
0
 10
57.75
 20
70.000000000000014
 30
0.0
 11
57.75
 21
20.61350000000003
 31
0.0
  0
LINE
  5
1542
  8
0
 10
63.75
 20
20.61350000000003
 30
0.0
 11
63.75
 21
70.000000000000014
 31
0.0
  0
LINE
  5
1543
  8
0
 10
63.136499999999991
 20
20.000000000000011
 30
0.0
 11
58.363500000000002
 21
20.000000000000011
 31
0.0
  0
LINE
  5
1544
  8
0
 10
63.75
 20
20.61350000000003
 30
0.0
 11
57.75
 21
20.61350000000003
 31
0.0
  0
LINE
  5
1545
  8
0
 10
63.136499999999991
 20
20.000000000000011
 30
0.0
 11
63.75
 21
20.61350000000003
 31
0.0
  0
LINE
  5
1546
  8
0
 10
57.75
 20
20.61350000000003
 30
0.0
 11
58.363500000000002
 21
20.000000000000011
 31
0.0
  0
LINE
  5
1547
  8
0
 10
63.420663260315671
 20
91.500000000000014
 30
0.0
 11
58.079336739684308
 21
91.500000000000014
 31
0.0
  0
LINE
  5
1548
  8
0
 10
58.079336739684322
 20
91.500000000000014
 30
0.0
 11
57.770486616912081
 21
91.193500000000014
 31
0.0
  0
LINE
  5
1549
  8
0
 10
63.729513383087919
 20
91.193500000000014
 30
0.0
 11
63.420663260315671
 21
91.500000000000014
 31
0.0
  0
LINE
  5
154B
  8
3
 10
58.291499999999978
 20
91.500000000000014
 30
0.0
 11
58.291499999999978
 21
88.797716390392921
 31
0.0
  0
LINE
  5
154C
  8
3
 10
58.291499999999992
 20
20.072000000000038
 30
0.0
 11
58.291499999999992
 21
70.000000000000014
 31
0.0
  0
LINE
  5
154D
  8
3
 10
63.208499999999972
 20
91.5
 30
0.0
 11
63.208500000000043
 21
88.797811758045569
 31
0.0
  0
LINE
  5
154E
  8
3
 10
63.208499999999987
 20
20.072000000000038
 30
0.0
 11
63.208499999999987
 21
70.000000000000014
 31
0.0
  0
POLYLINE
  5
154F
  8
0
 66
     1
 10
0.0
 20
0.0
 30
0.0
  0
VERTEX
  5
2A3D
  8
0
 10
63.005845850229967
 20
88.729499999999987
 30
0.0
  0
VERTEX
  5
2A3E
  8
0
 10
63.238603961420182
 20
88.807959364354545
 30
0.0
  0
VERTEX
  5
2A3F
  8
0
 10
63.441045960609202
 20
88.880890273893684
 30
0.0
  0
VERTEX
  5
2A40
  8
0
 10
63.587375502468689
 20
88.936170081670795
 30
0.0
  0
VERTEX
  5
2A41
  8
0
 10
63.692579486130462
 20
88.977182181769237
 30
0.0
  0
VERTEX
  5
2A42
  8
0
 10
63.744372777207168
 20
88.997750547253631
 30
0.0
  0
VERTEX
  5
2A43
  8
0
 10
63.749999999947249
 20
88.999999999978925
 30
0.0
  0
SEQEND
  5
2A44
  8
0
  0
LINE
  5
1550
  8
0
 10
62.866749537497839
 20
88.656977069277303
 30
0.0
 11
63.005845850230031
 21
88.729500000000016
 31
0.0
  0
LINE
  5
1551
  8
0
 10
58.49415414976999
 20
88.729500000000016
 30
0.0
 11
58.633265531996308
 21
88.656969395850226
 31
0.0
  0
POLYLINE
  5
1552
  8
0
 66
     1
 10
0.0
 20
0.0
 30
0.0
  0
VERTEX
  5
2A45
  8
0
 10
58.494154149770033
 20
80.270500000000084
 30
0.0
  0
VERTEX
  5
2A46
  8
0
 10
58.261396038579832
 20
80.192040635645483
 30
0.0
  0
VERTEX
  5
2A47
  8
0
 10
58.058954039390791
 20
80.119109726106373
 30
0.0
  0
VERTEX
  5
2A48
  8
0
 10
57.912624497531297
 20
80.063829918329276
 30
0.0
  0
VERTEX
  5
2A49
  8
0
 10
57.807420513869538
 20
80.02281781823082
 30
0.0
  0
VERTEX
  5
2A4A
  8
0
 10
57.755627222792818
 20
80.002249452746426
 30
0.0
  0
VERTEX
  5
2A4B
  8
0
 10
57.750000000052751
 20
80.000000000021103
 30
0.0
  0
SEQEND
  5
2A4C
  8
0
  0
POLYLINE
  5
1553
  8
0
 66
     1
 10
0.0
 20
0.0
 30
0.0
  0
VERTEX
  5
2A4D
  8
0
 10
63.005845850230017
 20
80.270499999999998
 30
0.0
  0
VERTEX
  5
2A4E
  8
0
 10
62.810518529687968
 20
80.371425176702402
 30
0.0
  0
VERTEX
  5
2A4F
  8
0
 10
62.587501424295048
 20
80.478078182968616
 30
0.0
  0
VERTEX
  5
2A50
  8
0
 10
62.340329708030218
 20
80.584776081723632
 30
0.0
  0
VERTEX
  5
2A51
  8
0
 10
62.069207364871339
 20
80.686742393495734
 30
0.0
  0
VERTEX
  5
2A52
  8
0
 10
61.775971972524992
 20
80.777987881049626
 30
0.0
  0
VERTEX
  5
2A53
  8
0
 10
61.465456287863667
 20
80.851478731068781
 30
0.0
  0
VERTEX
  5
2A54
  8
0
 10
61.099601741427954
 20
80.904982499257414
 30
0.0
  0
VERTEX
  5
2A55
  8
0
 10
60.724038209887439
 20
80.922220833457473
 30
0.0
  0
VERTEX
  5
2A56
  8
0
 10
60.348942042809718
 20
80.899627411077034
 30
0.0
  0
VERTEX
  5
2A57
  8
0
 10
59.984892488997687
 20
80.841418409630336
 30
0.0
  0
VERTEX
  5
2A58
  8
0
 10
59.637943797387798
 20
80.753410852165828
 30
0.0
  0
VERTEX
  5
2A59
  8
0
 10
59.315643327981583
 20
80.645494997724924
 30
0.0
  0
VERTEX
  5
2A5A
  8
0
 10
59.080320890495607
 20
80.551905782561661
 30
0.0
  0
VERTEX
  5
2A5B
  8
0
 10
58.863441556406073
 20
80.455412494646694
 30
0.0
  0
VERTEX
  5
2A5C
  8
0
 10
58.667457298998023
 20
80.360336505040962
 30
0.0
  0
VERTEX
  5
2A5D
  8
0
 10
58.49415414976999
 20
80.270499999999998
 30
0.0
  0
SEQEND
  5
2A5E
  8
0
  0
POLYLINE
  5
1558
  8
0
 66
     1
 10
0.0
 20
0.0
 30
0.0
  0
VERTEX
  5
2A5F
  8
0
 10
57.750000000052751
 20
88.999999999978925
 30
0.0
  0
VERTEX
  5
2A60
  8
0
 10
57.759473939597257
 20
88.996214497192355
 30
0.0
  0
VERTEX
  5
2A61
  8
0
 10
57.809654552089313
 20
88.976300534917257
 30
0.0
  0
VERTEX
  5
2A62
  8
0
 10
57.902867901401592
 20
88.939929619035425
 30
0.0
  0
VERTEX
  5
2A63
  8
0
 10
58.036755326909237
 20
88.889141152528694
 30
0.0
  0
VERTEX
  5
2A64
  8
0
 10
58.206943222362391
 20
88.827159332088016
 30
0.0
  0
VERTEX
  5
2A65
  8
0
 10
58.343971364499822
 20
88.779445692658285
 30
0.0
  0
VERTEX
  5
2A66
  8
0
 10
58.49415414976999
 20
88.729500000000016
 30
0.0
  0
SEQEND
  5
2A67
  8
0
  0
POLYLINE
  5
1559
  8
0
 66
     1
 10
0.0
 20
0.0
 30
0.0
  0
VERTEX
  5
2A68
  8
0
 10
63.749999999947249
 20
80.000000000021103
 30
0.0
  0
VERTEX
  5
2A69
  8
0
 10
63.740526060402743
 20
80.003785502807688
 30
0.0
  0
VERTEX
  5
2A6A
  8
0
 10
63.690345447910687
 20
80.023699465082771
 30
0.0
  0
VERTEX
  5
2A6B
  8
0
 10
63.597132098598401
 20
80.060070380964632
 30
0.0
  0
VERTEX
  5
2A6C
  8
0
 10
63.463244673090749
 20
80.110858847471334
 30
0.0
  0
VERTEX
  5
2A6D
  8
0
 10
63.293056777637602
 20
80.172840667912013
 30
0.0
  0
VERTEX
  5
2A6E
  8
0
 10
63.156028635500178
 20
80.220554307341743
 30
0.0
  0
VERTEX
  5
2A6F
  8
0
 10
63.005845850230017
 20
80.270499999999998
 30
0.0
  0
SEQEND
  5
2A70
  8
0
  0
LINE
  5
155A
  8
0
 10
50.0
 20
88.551831416457077
 30
0.0
 11
50.267857714491242
 21
89.197556350111441
 31
0.0
  0
LINE
  5
155B
  8
0
 10
50.0
 20
82.196621267114281
 30
0.0
 11
50.0
 21
88.551831416457077
 31
0.0
  0
LINE
  5
155C
  8
0
 10
71.5
 20
82.196621267114239
 30
0.0
 11
71.5
 21
88.551831416457077
 31
0.0
  0
LINE
  5
155D
  8
0
 10
71.232142285508743
 20
89.197556350111441
 30
0.0
 11
71.5
 21
88.551831416457077
 31
0.0
  0
POLYLINE
  5
155E
  8
3
 66
     1
 10
0.0
 20
0.0
 30
0.0
  0
VERTEX
  5
2A71
  8
3
 10
50.0
 20
82.388937348610909
 30
0.0
  0
VERTEX
  5
2A72
  8
3
 10
50.433285967200831
 20
83.496127293420429
 30
0.0
  0
VERTEX
  5
2A73
  8
3
 10
50.87602164382357
 20
84.270763325083976
 30
0.0
  0
VERTEX
  5
2A74
  8
3
 10
51.324837544038061
 20
84.706949995662555
 30
0.0
  0
VERTEX
  5
2A75
  8
3
 10
51.674936386768451
 20
84.810000000000016
 30
0.0
  0
SEQEND
  5
2A76
  8
3
  0
POLYLINE
  5
155F
  8
0
 66
     1
 10
0.0
 20
0.0
 30
0.0
  0
VERTEX
  5
2A77
  8
0
 10
53.24921757066992
 20
78.860497011862336
 30
0.0
  0
VERTEX
  5
2A78
  8
0
 10
52.823275268964302
 20
79.108241574763767
 30
0.0
  0
VERTEX
  5
2A79
  8
0
 10
52.40099300298516
 20
79.376882522164536
 30
0.0
  0
VERTEX
  5
2A7A
  8
0
 10
52.010100188513327
 20
79.649601129871897
 30
0.0
  0
VERTEX
  5
2A7B
  8
0
 10
51.641141648854223
 20
79.932918614518812
 30
0.0
  0
VERTEX
  5
2A7C
  8
0
 10
51.306498127854702
 20
80.217465442501592
 30
0.0
  0
VERTEX
  5
2A7D
  8
0
 10
51.007596442616887
 20
80.501143742281215
 30
0.0
  0
VERTEX
  5
2A7E
  8
0
 10
50.734925947299438
 20
80.794387940207841
 30
0.0
  0
VERTEX
  5
2A7F
  8
0
 10
50.502680779175151
 20
81.083834453629436
 30
0.0
  0
VERTEX
  5
2A80
  8
0
 10
50.312392753648069
 20
81.367391986340436
 30
0.0
  0
VERTEX
  5
2A81
  8
0
 10
50.160749094356483
 20
81.653337688083255
 30
0.0
  0
VERTEX
  5
2A82
  8
0
 10
50.056157442644853
 20
81.930412218042093
 30
0.0
  0
VERTEX
  5
2A83
  8
0
 10
50.0
 20
82.196621267114281
 30
0.0
  0
SEQEND
  5
2A84
  8
0
  0
POLYLINE
  5
1560
  8
0
 66
     1
 10
0.0
 20
0.0
 30
0.0
  0
VERTEX
  5
2A85
  8
0
 10
71.5
 20
82.196621267114239
 30
0.0
  0
VERTEX
  5
2A86
  8
0
 10
71.453026612715689
 20
81.962399954460082
 30
0.0
  0
VERTEX
  5
2A87
  8
0
 10
71.368273063379746
 20
81.719620689030535
 30
0.0
  0
VERTEX
  5
2A88
  8
0
 10
71.246667841124392
 20
81.46963723530898
 30
0.0
  0
VERTEX
  5
2A89
  8
0
 10
71.083590992776521
 20
81.205473346804794
 30
0.0
  0
VERTEX
  5
2A8A
  8
0
 10
70.883005528539002
 20
80.935542804815668
 30
0.0
  0
VERTEX
  5
2A8B
  8
0
 10
70.646166275570096
 20
80.66155094365935
 30
0.0
  0
VERTEX
  5
2A8C
  8
0
 10
70.382312210194982
 20
80.392811072484378
 30
0.0
  0
VERTEX
  5
2A8D
  8
0
 10
70.085635378327254
 20
80.122414679900899
 30
0.0
  0
VERTEX
  5
2A8E
  8
0
 10
69.757352482274882
 20
79.852117232195141
 30
0.0
  0
VERTEX
  5
2A8F
  8
0
 10
69.38766028334777
 20
79.575789244759719
 30
0.0
  0
VERTEX
  5
2A90
  8
0
 10
68.985671263900684
 20
79.302322900640874
 30
0.0
  0
VERTEX
  5
2A91
  8
0
 10
68.552796612746903
 20
79.033895930583938
 30
0.0
  0
VERTEX
  5
2A92
  8
0
 10
68.25054524087416
 20
78.860364974223259
 30
0.0
  0
SEQEND
  5
2A93
  8
0
  0
POLYLINE
  5
1561
  8
3
 66
     1
 10
0.0
 20
0.0
 30
0.0
  0
VERTEX
  5
2A94
  8
3
 10
69.25
 20
84.531421841922295
 30
0.0
  0
VERTEX
  5
2A95
  8
3
 10
69.700576925078479
 20
84.796983990766577
 30
0.0
  0
VERTEX
  5
2A96
  8
3
 10
69.825063613231549
 20
84.810000000000016
 30
0.0
  0
SEQEND
  5
2A97
  8
3
  0
POLYLINE
  5
1562
  8
3
 66
     1
 10
0.0
 20
0.0
 30
0.0
  0
VERTEX
  5
2A98
  8
3
 10
51.674936386768451
 20
84.810000000000016
 30
0.0
  0
VERTEX
  5
2A99
  8
3
 10
52.126117494006259
 20
84.638723361109484
 30
0.0
  0
VERTEX
  5
2A9A
  8
3
 10
52.25
 20
84.531421841922295
 30
0.0
  0
SEQEND
  5
2A9B
  8
3
  0
POLYLINE
  5
1563
  8
3
 66
     1
 10
0.0
 20
0.0
 30
0.0
  0
VERTEX
  5
2A9C
  8
3
 10
69.825063613231549
 20
84.810000000000016
 30
0.0
  0
VERTEX
  5
2A9D
  8
3
 10
70.27624472046935
 20
84.638723361109484
 30
0.0
  0
VERTEX
  5
2A9E
  8
3
 10
70.723992067050489
 20
84.126196963079522
 30
0.0
  0
VERTEX
  5
2A9F
  8
3
 10
71.164898025310222
 20
83.276321441270994
 30
0.0
  0
VERTEX
  5
2AA0
  8
3
 10
71.5
 20
82.388937348610909
 30
0.0
  0
SEQEND
  5
2AA1
  8
3
  0
POLYLINE
  5
1564
  8
0
 66
     1
 10
0.0
 20
0.0
 30
0.0
  0
VERTEX
  5
2AA2
  8
0
 10
50.26785771449125
 20
89.197556350111441
 30
0.0
  0
VERTEX
  5
2AA3
  8
0
 10
50.768374130277238
 20
90.07585696049172
 30
0.0
  0
VERTEX
  5
2AA4
  8
0
 10
51.275790032232379
 20
90.571527942010263
 30
0.0
  0
VERTEX
  5
2AA5
  8
0
 10
51.674936386768451
 20
90.689999999999998
 30
0.0
  0
SEQEND
  5
2AA6
  8
0
  0
POLYLINE
  5
1565
  8
3
 66
     1
 10
0.0
 20
0.0
 30
0.0
  0
VERTEX
  5
2AA7
  8
3
 10
69.25
 20
90.443776517949374
 30
0.0
  0
VERTEX
  5
2AA8
  8
3
 10
69.759842482268283
 20
90.686840372262722
 30
0.0
  0
VERTEX
  5
2AA9
  8
3
 10
69.825063613231549
 20
90.689999999999998
 30
0.0
  0
SEQEND
  5
2AAA
  8
3
  0
LINE
  5
1566
  8
0
 10
53.25
 20
90.689999999999998
 30
0.0
 11
51.674936386768451
 21
90.689999999999998
 31
0.0
  0
LINE
  5
1567
  8
0
 10
63.729513383087919
 20
91.193500000000014
 30
0.0
 11
57.770486616912081
 21
91.193500000000014
 31
0.0
  0
LINE
  5
1568
  8
0
 10
69.825063613231549
 20
90.689999999999998
 30
0.0
 11
68.25
 21
90.689999999999998
 31
0.0
  0
POLYLINE
  5
1569
  8
3
 66
     1
 10
0.0
 20
0.0
 30
0.0
  0
VERTEX
  5
2AAB
  8
3
 10
51.674936386768451
 20
90.689999999999998
 30
0.0
  0
VERTEX
  5
2AAC
  8
3
 10
52.185058727300159
 20
90.496348185888976
 30
0.0
  0
VERTEX
  5
2AAD
  8
3
 10
52.25
 20
90.443776517949374
 30
0.0
  0
SEQEND
  5
2AAE
  8
3
  0
POLYLINE
  5
156A
  8
0
 66
     1
 10
0.0
 20
0.0
 30
0.0
  0
VERTEX
  5
2AAF
  8
0
 10
69.825063613231549
 20
90.689999999999998
 30
0.0
  0
VERTEX
  5
2AB0
  8
0
 10
70.335185953763244
 20
90.496348185888976
 30
0.0
  0
VERTEX
  5
2AB1
  8
0
 10
70.841425955263233
 20
89.916866550791283
 30
0.0
  0
VERTEX
  5
2AB2
  8
0
 10
71.232142285508743
 20
89.197556350111441
 30
0.0
  0
SEQEND
  5
2AB3
  8
0
  0
POLYLINE
  5
156B
  8
3
 66
     1
 10
0.0
 20
0.0
 30
0.0
  0
VERTEX
  5
2AB4
  8
3
 10
52.25
 20
90.443776517949374
 30
0.0
  0
VERTEX
  5
2AB5
  8
3
 10
52.46200527971186
 20
89.815282944786134
 30
0.0
  0
VERTEX
  5
2AB6
  8
3
 10
52.67056142149417
 20
88.806142868359544
 30
0.0
  0
VERTEX
  5
2AB7
  8
3
 10
52.763522202731288
 20
88.225367425898156
 30
0.0
  0
SEQEND
  5
2AB8
  8
3
  0
POLYLINE
  5
156D
  8
3
 66
     1
 10
0.0
 20
0.0
 30
0.0
  0
VERTEX
  5
2AB9
  8
3
 10
52.25
 20
84.531421841922295
 30
0.0
  0
VERTEX
  5
2ABA
  8
3
 10
52.43714779475399
 20
83.925426563290003
 30
0.0
  0
VERTEX
  5
2ABB
  8
3
 10
52.503202648389198
 20
83.627620689437208
 30
0.0
  0
SEQEND
  5
2ABC
  8
3
  0
POLYLINE
  5
156E
  8
3
 66
     1
 10
0.0
 20
0.0
 30
0.0
  0
VERTEX
  5
2ABD
  8
3
 10
68.996797351610809
 20
83.627620689437208
 30
0.0
  0
VERTEX
  5
2ABE
  8
3
 10
69.182944431116539
 20
84.354093059619245
 30
0.0
  0
VERTEX
  5
2ABF
  8
3
 10
69.25
 20
84.531421841922295
 30
0.0
  0
SEQEND
  5
2AC0
  8
3
  0
POLYLINE
  5
1570
  8
3
 66
     1
 10
0.0
 20
0.0
 30
0.0
  0
VERTEX
  5
2AC1
  8
3
 10
68.736477797268705
 20
88.225367425898156
 30
0.0
  0
VERTEX
  5
2AC2
  8
3
 10
68.942945911781806
 20
89.404673355059344
 30
0.0
  0
VERTEX
  5
2AC3
  8
3
 10
69.153586543049244
 20
90.206457767867889
 30
0.0
  0
VERTEX
  5
2AC4
  8
3
 10
69.25
 20
90.443776517949374
 30
0.0
  0
SEQEND
  5
2AC5
  8
3
  0
LINE
  5
1571
  8
3
 10
53.25
 20
82.483444745775174
 30
0.0
 11
53.141944042450547
 21
82.450000000000003
 31
0.0
  0
POLYLINE
  5
1572
  8
3
 66
     1
 10
0.0
 20
0.0
 30
0.0
  0
VERTEX
  5
2AC6
  8
3
 10
68.996797351610809
 20
83.627620689437208
 30
0.0
  0
VERTEX
  5
2AC7
  8
3
 10
68.68386703852758
 20
82.754612591040157
 30
0.0
  0
VERTEX
  5
2AC8
  8
3
 10
68.368457106388007
 20
82.450309811247806
 30
0.0
  0
VERTEX
  5
2AC9
  8
3
 10
68.358055957549453
 20
82.450000000000003
 30
0.0
  0
SEQEND
  5
2ACA
  8
3
  0
LINE
  5
1573
  8
3
 10
68.25
 20
82.450000000000003
 30
0.0
 11
68.358055957549453
 21
82.450000000000003
 31
0.0
  0
LINE
  5
1574
  8
3
 10
53.141944042450547
 20
82.450000000000003
 30
0.0
 11
53.25
 21
82.450000000000003
 31
0.0
  0
POLYLINE
  5
1575
  8
3
 66
     1
 10
0.0
 20
0.0
 30
0.0
  0
VERTEX
  5
2ACB
  8
3
 10
53.141944042450547
 20
82.450000000000003
 30
0.0
  0
VERTEX
  5
2ACC
  8
3
 10
52.82649322825101
 20
82.735511802176333
 30
0.0
  0
VERTEX
  5
2ACD
  8
3
 10
52.513443185221917
 20
83.589874291494013
 30
0.0
  0
VERTEX
  5
2ACE
  8
3
 10
52.503202648389198
 20
83.627620689437208
 30
0.0
  0
SEQEND
  5
2ACF
  8
3
  0
LINE
  5
1576
  8
3
 10
68.358055957549453
 20
82.450000000000003
 30
0.0
 11
68.25
 21
82.483444745775174
 31
0.0
  0
POLYLINE
  5
1577
  8
3
 66
     1
 10
0.0
 20
0.0
 30
0.0
  0
VERTEX
  5
2AD0
  8
3
 10
68.736477797268705
 20
88.225367425898199
 30
0.0
  0
VERTEX
  5
2AD1
  8
3
 10
68.464058546360661
 20
87.591318043375054
 30
0.0
  0
VERTEX
  5
2AD2
  8
3
 10
68.25
 20
87.440000000000055
 30
0.0
  0
SEQEND
  5
2AD3
  8
3
  0
POLYLINE
  5
157A
  8
3
 66
     1
 10
0.0
 20
0.0
 30
0.0
  0
VERTEX
  5
2AD4
  8
3
 10
53.25
 20
87.440000000000055
 30
0.0
  0
VERTEX
  5
2AD5
  8
3
 10
52.9761300008402
 20
87.687877366303738
 30
0.0
  0
VERTEX
  5
2AD6
  8
3
 10
52.763522202731288
 20
88.225367425898156
 30
0.0
  0
SEQEND
  5
2AD7
  8
3
  0
POLYLINE
  5
1580
  8
0
 66
     1
 10
0.0
 20
0.0
 30
0.0
  0
VERTEX
  5
2AD8
  8
0
 10
63.25
 20
77.755864487067129
 30
0.0
  0
VERTEX
  5
2AD9
  8
0
 10
63.316827270508028
 20
77.710787062408585
 30
0.0
  0
VERTEX
  5
2ADA
  8
0
 10
63.377649729726407
 20
77.662793434639056
 30
0.0
  0
VERTEX
  5
2ADB
  8
0
 10
63.438503699880151
 20
77.606821036582815
 30
0.0
  0
VERTEX
  5
2ADC
  8
0
 10
63.488211665683203
 20
77.553874251200028
 30
0.0
  0
VERTEX
  5
2ADD
  8
0
 10
63.607137684444332
 20
77.385578862445826
 30
0.0
  0
VERTEX
  5
2ADE
  8
0
 10
63.694713394081923
 20
77.200329715968465
 30
0.0
  0
VERTEX
  5
2ADF
  8
0
 10
63.735960830035779
 20
77.049082946463287
 30
0.0
  0
VERTEX
  5
2AE0
  8
0
 10
63.75
 20
76.899382795775708
 30
0.0
  0
SEQEND
  5
2AE1
  8
0
  0
LINE
  5
1582
  8
0
 10
57.75
 20
76.700000000000003
 30
0.0
 11
57.75
 21
92.050000000000026
 31
0.0
  0
LINE
  5
1583
  8
0
 10
57.75
 20
92.050000000000026
 30
0.0
 11
53.25
 21
92.050000000000026
 31
0.0
  0
LINE
  5
1584
  8
0
 10
53.25
 20
92.050000000000026
 30
0.0
 11
53.25
 21
76.043620107861955
 31
0.0
  0
LINE
  5
1585
  8
0
 10
68.25
 20
76.043730888550144
 30
0.0
 11
68.25
 21
92.050000000000026
 31
0.0
  0
LINE
  5
1586
  8
0
 10
68.25
 20
92.050000000000026
 30
0.0
 11
63.75
 21
92.050000000000026
 31
0.0
  0
LINE
  5
1587
  8
0
 10
63.75
 20
92.050000000000026
 30
0.0
 11
63.75
 21
76.700000000000003
 31
0.0
  0
CIRCLE
  5
1641
  8
0
 10
119.8
 20
142.05000000000001
 30
0.0
 40
3.0
  0
ARC
  5
1642
  8
3
 10
119.8
 20
142.05000000000001
 30
0.0
 40
2.458499999999999
 50
98.18461932258495
 51
261.81538067741502
  0
POLYLINE
  5
1869
  8
0
 66
     1
 10
0.0
 20
0.0
 30
0.0
  0
VERTEX
  5
2AE2
  8
0
 10
113.8
 20
76.700000000000003
 30
0.0
  0
VERTEX
  5
2AE3
  8
0
 10
114.4726510271073
 20
76.237592314117165
 30
0.0
  0
VERTEX
  5
2AE4
  8
0
 10
115.21466245151539
 20
75.813615453423822
 30
0.0
  0
VERTEX
  5
2AE5
  8
0
 10
116.0202516826016
 20
75.441841292291187
 30
0.0
  0
VERTEX
  5
2AE6
  8
0
 10
116.7444133201047
 20
75.178791889721793
 30
0.0
  0
VERTEX
  5
2AE7
  8
0
 10
117.5090005228429
 20
74.966483094514373
 30
0.0
  0
VERTEX
  5
2AE8
  8
0
 10
118.3022199050763
 20
74.812803492028152
 30
0.0
  0
VERTEX
  5
2AE9
  8
0
 10
119.12233094164939
 20
74.72380891040298
 30
0.0
  0
VERTEX
  5
2AEA
  8
0
 10
119.9558571307125
 20
74.702033726748354
 30
0.0
  0
VERTEX
  5
2AEB
  8
0
 10
120.783793089062
 20
74.748510103611935
 30
0.0
  0
VERTEX
  5
2AEC
  8
0
 10
121.52058403171711
 20
74.849552916522043
 30
0.0
  0
VERTEX
  5
2AED
  8
0
 10
122.2391061630986
 20
75.002449944235295
 30
0.0
  0
VERTEX
  5
2AEE
  8
0
 10
122.92863013579969
 20
75.202017399817706
 30
0.0
  0
VERTEX
  5
2AEF
  8
0
 10
123.62530423051921
 20
75.460815467667985
 30
0.0
  0
VERTEX
  5
2AF0
  8
0
 10
124.2828619463188
 20
75.761354453884096
 30
0.0
  0
VERTEX
  5
2AF1
  8
0
 10
124.8071935840467
 20
76.043903165289706
 30
0.0
  0
SEQEND
  5
2AF2
  8
0
  0
ARC
  5
186A
  8
0
 10
116.9332390027762
 20
88.506767823645504
 30
0.0
 40
14.741850502579521
 50
302.28442354286977
 51
317.14411365333439
  0
POLYLINE
  5
186B
  8
0
 66
     1
 10
0.0
 20
0.0
 30
0.0
  0
VERTEX
  5
2AF3
  8
0
 10
124.8071393906998
 20
76.043871816909032
 30
0.0
  0
VERTEX
  5
2AF4
  8
0
 10
124.89599442865961
 20
76.095882335586694
 30
0.0
  0
VERTEX
  5
2AF5
  8
0
 10
125.3628715738226
 20
76.390113082952624
 30
0.0
  0
VERTEX
  5
2AF6
  8
0
 10
125.7999999999999
 20
76.700000000000003
 30
0.0
  0
SEQEND
  5
2AF7
  8
0
  0
LINE
  5
1D56
  8
0
 10
128.84999999999999
 20
72.000000000000014
 30
0.0
 11
110.75
 21
72.000000000000014
 31
0.0
  0
LINE
  5
1D57
  8
0
 10
69.799999999999997
 20
72.000000000000014
 30
0.0
 11
51.700000000000003
 21
72.000000000000014
 31
0.0
  0
LINE
  5
2267
  8
0
 10
120.15000000000001
 20
145.02951338308799
 30
0.0
 11
120.15000000000001
 21
139.07048661691209
 31
0.0
  0
LINE
  5
2268
  8
0
 10
119.45
 20
145.02951338308799
 30
0.0
 11
119.45
 21
139.07048661691209
 31
0.0
  0
ARC
  5
2269
  8
3
 10
119.8
 20
142.05000000000001
 30
0.0
 40
2.458499999999999
 50
278.18461932258629
 51
81.815380677413728
  0
POLYLINE
  5
2365
  8
0
 66
     1
 10
0.0
 20
0.0
 30
0.0
  0
VERTEX
  5
2AF8
  8
0
 10
58.25
 20
77.755864487067129
 30
0.0
  0
VERTEX
  5
2AF9
  8
0
 10
58.183172729491972
 20
77.710787062408585
 30
0.0
  0
VERTEX
  5
2AFA
  8
0
 10
58.122350270273593
 20
77.662793434639056
 30
0.0
  0
VERTEX
  5
2AFB
  8
0
 10
58.061496300119863
 20
77.606821036582815
 30
0.0
  0
VERTEX
  5
2AFC
  8
0
 10
58.01178833431679
 20
77.553874251200028
 30
0.0
  0
VERTEX
  5
2AFD
  8
0
 10
57.892862315555682
 20
77.385578862445826
 30
0.0
  0
VERTEX
  5
2AFE
  8
0
 10
57.805286605918091
 20
77.200329715968465
 30
0.0
  0
VERTEX
  5
2AFF
  8
0
 10
57.764039169964221
 20
77.049082946463287
 30
0.0
  0
VERTEX
  5
2B00
  8
0
 10
57.75
 20
76.899382795775708
 30
0.0
  0
SEQEND
  5
2B01
  8
0
  0
LINE
  5
236B
  8
0
 10
63.75
 20
80.000000000000014
 30
0.0
 11
57.75
 21
80.000000000000014
 31
0.0
  0
LINE
  5
236C
  8
3
 10
63.208500000000242
 20
80.202283609607022
 30
0.0
 11
63.208500000000249
 21
80.000000000000014
 31
0.0
  0
LINE
  5
236D
  8
3
 10
58.291499999999978
 20
80.202188241954445
 30
0.0
 11
58.291499999999978
 21
80.000000000000014
 31
0.0
  0
LINE
  5
2829
  8
0
 10
63.729513383087919
 20
91.193500000000014
 30
0.0
 11
63.729513383087919
 21
90.700000000000017
 31
0.0
  0
LINE
  5
282A
  8
0
 10
63.729513383087919
 20
90.700000000000017
 30
0.0
 11
63.75
 21
90.700000000000017
 31
0.0
  0
LINE
  5
282B
  8
0
 10
57.770486616912081
 20
91.193500000000014
 30
0.0
 11
57.770486616912081
 21
90.700000000000017
 31
0.0
  0
LINE
  5
282C
  8
0
 10
57.770486616912081
 20
90.700000000000017
 30
0.0
 11
57.75
 21
90.700000000000017
 31
0.0
  0
ENDSEC
  0
EOF
