  0
SECTION
  2
HEADER
  9
$ACADVER
  1
AC1009
  9
$INSBASE
 10
0.0
 20
0.0
 30
0.0
  9
$EXTMIN
 10
0.0
 20
-2.960436562073669
 30
0.0
  9
$EXTMAX
 10
251.15000000000001
 20
192.0500000000001
 30
0.0
  9
$LIMMIN
 10
0.0
 20
0.0
  9
$LIMMAX
 10
375.0
 20
270.0
  9
$ORTHOMODE
 70
     1
  9
$REGENMODE
 70
     1
  9
$FILLMODE
 70
     1
  9
$QTEXTMODE
 70
     0
  9
$MIRRTEXT
 70
     0
  9
$DRAGMODE
 70
     2
  9
$LTSCALE
 40
5.0
  9
$OSMODE
 70
    37
  9
$ATTMODE
 70
     1
  9
$TEXTSIZE
 40
0.2
  9
$TRACEWID
 40
0.05
  9
$TEXTSTYLE
  7
STANDARD
  9
$CLAYER
  8
0
  9
$CELTYPE
  6
BYLAYER
  9
$CECOLOR
 62
   256
  9
$DIMSCALE
 40
1.0
  9
$DIMASZ
 40
3.0
  9
$DIMEXO
 40
2.0
  9
$DIMDLI
 40
10.0
  9
$DIMRND
 40
0.0
  9
$DIMDLE
 40
0.0
  9
$DIMEXE
 40
2.0
  9
$DIMTP
 40
0.0
  9
$DIMTM
 40
0.0
  9
$DIMTXT
 40
3.2000000000000002
  9
$DIMCEN
 40
0.0
  9
$DIMTSZ
 40
0.0
  9
$DIMTOL
 70
     0
  9
$DIMLIM
 70
     0
  9
$DIMTIH
 70
     0
  9
$DIMTOH
 70
     0
  9
$DIMSE1
 70
     0
  9
$DIMSE2
 70
     0
  9
$DIMTAD
 70
     1
  9
$DIMZIN
 70
     8
  9
$DIMBLK
  1

  9
$DIMASO
 70
     0
  9
$DIMSHO
 70
     0
  9
$DIMPOST
  1

  9
$DIMAPOST
  1

  9
$DIMALT
 70
     0
  9
$DIMALTD
 70
     2
  9
$DIMALTF
 40
25.399999999999999
  9
$DIMLFAC
 40
1.0
  9
$DIMTOFL
 70
     1
  9
$DIMTVP
 40
1.6000000000000001
  9
$DIMTIX
 70
     0
  9
$DIMSOXD
 70
     0
  9
$DIMSAH
 70
     0
  9
$DIMBLK1
  1

  9
$DIMBLK2
  1

  9
$DIMSTYLE
  2
STANDARD
  9
$DIMCLRD
 70
   256
  9
$DIMCLRE
 70
   256
  9
$DIMCLRT
 70
   256
  9
$DIMTFAC
 40
1.0
  9
$DIMGAP
 40
0.5
  9
$LUNITS
 70
     2
  9
$LUPREC
 70
     1
  9
$SKETCHINC
 40
0.1
  9
$FILLETRAD
 40
0.0
  9
$AUNITS
 70
     0
  9
$AUPREC
 70
     1
  9
$MENU
  1
E:\r13\win\SUPPORT\ACAD
  9
$ELEVATION
 40
0.0
  9
$PELEVATION
 40
0.0
  9
$THICKNESS
 40
0.0
  9
$LIMCHECK
 70
     0
  9
$BLIPMODE
 70
     0
  9
$CHAMFERA
 40
0.0
  9
$CHAMFERB
 40
0.0
  9
$SKPOLY
 70
     0
  9
$TDCREATE
 40
2449840.6171180559
  9
$TDUPDATE
 40
2457711.622394132
  9
$TDINDWG
 40
0.1799348032
  9
$TDUSRTIMER
 40
0.1799348032
  9
$USRTIMER
 70
     1
  9
$ANGBASE
 50
0.0
  9
$ANGDIR
 70
     0
  9
$PDMODE
 70
     0
  9
$PDSIZE
 40
0.0
  9
$PLINEWID
 40
0.0
  9
$COORDS
 70
     1
  9
$SPLFRAME
 70
     0
  9
$SPLINETYPE
 70
     6
  9
$SPLINESEGS
 70
     8
  9
$ATTDIA
 70
     0
  9
$ATTREQ
 70
     1
  9
$HANDLING
 70
     1
  9
$HANDSEED
  5
2DCD
  9
$SURFTAB1
 70
     6
  9
$SURFTAB2
 70
     6
  9
$SURFTYPE
 70
     6
  9
$SURFU
 70
     6
  9
$SURFV
 70
     6
  9
$UCSNAME
  2

  9
$UCSORG
 10
0.0
 20
0.0
 30
0.0
  9
$UCSXDIR
 10
1.0
 20
0.0
 30
0.0
  9
$UCSYDIR
 10
0.0
 20
1.0
 30
0.0
  9
$PUCSNAME
  2

  9
$PUCSORG
 10
0.0
 20
0.0
 30
0.0
  9
$PUCSXDIR
 10
1.0
 20
0.0
 30
0.0
  9
$PUCSYDIR
 10
0.0
 20
1.0
 30
0.0
  9
$USERI1
 70
     0
  9
$USERI2
 70
     1
  9
$USERI3
 70
     0
  9
$USERI4
 70
     0
  9
$USERI5
 70
     0
  9
$USERR1
 40
0.0
  9
$USERR2
 40
0.0
  9
$USERR3
 40
0.0
  9
$USERR4
 40
0.0
  9
$USERR5
 40
0.0
  9
$WORLDVIEW
 70
     1
  9
$SHADEDGE
 70
     3
  9
$SHADEDIF
 70
    70
  9
$TILEMODE
 70
     1
  9
$MAXACTVP
 70
    16
  9
$PLIMCHECK
 70
     0
  9
$PEXTMIN
 10
1.0000000000000000E+020
 20
1.0000000000000000E+020
 30
1.0000000000000000E+020
  9
$PEXTMAX
 10
-1.0000000000000000E+020
 20
-1.0000000000000000E+020
 30
-1.0000000000000000E+020
  9
$PLIMMIN
 10
0.0
 20
0.0
  9
$PLIMMAX
 10
12.0
 20
9.0
  9
$UNITMODE
 70
     0
  9
$VISRETAIN
 70
     0
  9
$PLINEGEN
 70
     0
  9
$PSLTSCALE
 70
     0
  0
ENDSEC
  0
SECTION
  2
TABLES
  0
TABLE
  2
VPORT
 70
     1
  0
VPORT
  2
*ACTIVE
 70
     0
 10
0.0
 20
0.0
 11
1.0
 21
1.0
 12
245.19230769230771
 22
135.0
 13
0.0
 23
0.0
 14
10.0
 24
10.0
 15
10.0
 25
10.0
 16
0.0
 26
0.0
 36
1.0
 17
0.0
 27
0.0
 37
0.0
 40
270.0
 41
1.816239316239316
 42
50.0
 43
0.0
 44
0.0
 50
0.0
 51
0.0
 71
     0
 72
   100
 73
     1
 74
     0
 75
     0
 76
     0
 77
     0
 78
     0
  0
ENDTAB
  0
TABLE
  2
LTYPE
 70
     3
  0
LTYPE
  2
CONTINUOUS
 70
     0
  3
Solid Line
 72
    65
 73
     0
 40
0.0
  0
LTYPE
  2
CENTER
 70
     0
  3
____ _ ____ _ ____ _ ____ _ ____ _ ____ _ ____
 72
    65
 73
     4
 40
2.0
 49
1.25
 49
-0.25
 49
0.25
 49
-0.25
  0
LTYPE
  2
PHANTOM2
 70
     0
  3
___ _ _ ___ _ _ ___ _ _ ___ _ _
 72
    65
 73
     6
 40
1.25
 49
0.625
 49
-0.125
 49
0.125
 49
-0.125
 49
0.125
 49
-0.125
  0
ENDTAB
  0
TABLE
  2
LAYER
 70
     4
  0
LAYER
  2
0
 70
     0
 62
     7
  6
CONTINUOUS
  0
LAYER
  2
1
 70
     0
 62
     1
  6
CENTER
  0
LAYER
  2
3
 70
     0
 62
     3
  6
CONTINUOUS
  0
LAYER
  2
DEFPOINTS
 70
     0
 62
     7
  6
CONTINUOUS
  0
ENDTAB
  0
TABLE
  2
STYLE
 70
     2
  0
STYLE
  2
STANDARD
 70
     0
 40
0.0
 41
1.0
 50
0.0
 71
     0
 42
0.2
  3
TXT
  4
BIGFONT
  0
STYLE
  2
STANDARD1
 70
     0
 40
0.0
 41
1.0
 50
0.0
 71
     0
 42
3.0
  3
txt
  4

  0
ENDTAB
  0
TABLE
  2
VIEW
 70
     1
  0
VIEW
  2
ALL
 70
     0
 40
270.0
 10
220.99159700000001
 20
135.0
 41
0.0
 11
0.0
 21
0.0
 31
1.0
 12
0.0
 22
0.0
 32
0.0
 42
0.0
 43
0.0
 44
0.0
 50
0.0
 71
     0
  0
ENDTAB
  0
TABLE
  2
UCS
 70
     0
  0
ENDTAB
  0
TABLE
  2
APPID
 70
     6
  0
APPID
  2
ACAD
 70
     0
  0
APPID
  2
ACAD_EXEMPT_FROM_CAD_STANDARDS
 70
     0
  0
APPID
  2
ACAD_MLEADERVER
 70
     0
  0
APPID
  2
ACAD_NAV_VCDISPLAY
 70
     0
  0
APPID
  2
ACAD_DSTYLE_DIMJAG
 70
     0
  0
APPID
  2
ACAD_DSTYLE_DIMTALN
 70
     0
  0
ENDTAB
  0
TABLE
  2
DIMSTYLE
 70
     1
  0
DIMSTYLE
  2
STANDARD
 70
     0
  3

  4

  5

  6

  7

 40
1.0
 41
0.18
 42
0.0625
 43
0.38
 44
0.18
 45
0.0
 46
0.0
 47
0.0
 48
0.0
140
0.18
141
0.09
142
0.0
143
25.399999999999999
144
1.0
145
0.0
146
1.0
147
0.09
 71
     0
 72
     0
 73
     1
 74
     1
 75
     0
 76
     0
 77
     0
 78
     0
170
     0
171
     2
172
     0
173
     0
174
     0
175
     0
176
     0
177
     0
178
     0
  0
ENDTAB
  0
ENDSEC
  0
SECTION
  2
BLOCKS
  0
BLOCK
  8
0
  2
$MODEL_SPACE
 70
     0
 10
0.0
 20
0.0
 30
0.0
  3
$MODEL_SPACE
  1

  0
ENDBLK
  5
E8
  8
0
  0
BLOCK
 67
     1
  8
0
  2
$PAPER_SPACE
 70
     0
 10
0.0
 20
0.0
 30
0.0
  3
$PAPER_SPACE
  1

  0
ENDBLK
  5
E6
 67
     1
  8
0
  0
ENDSEC
  0
SECTION
  2
ENTITIES
  0
TEXT
  5
142B
  8
0
 62
     3
 10
0.0
 20
0.0
 30
0.0
 40
10.0
  1
KCLF10X50
  7
STANDARD1
  0
LINE
  5
18E7
  8
1
 10
150.15000000000001
 20
108.5
 30
0.0
 11
150.15000000000001
 21
20.0
 31
0.0
  0
LINE
  5
18E8
  8
1
 10
133.21630577812391
 20
93.0
 30
0.0
 11
167.0836942218761
 21
93.0
 31
0.0
  0
LINE
  5
18E9
  8
1
 10
133.15000000000001
 20
91.5
 30
0.0
 11
167.15000000000001
 21
91.5
 31
0.0
  0
ARC
  5
18EB
  8
0
 10
137.34999999999999
 20
80.399999999999963
 30
0.0
 40
0.100000000000005
 50
0.0
 51
90.0
  0
ARC
  5
18ED
  8
0
 10
162.94999999999999
 20
80.399999999999963
 30
0.0
 40
0.1000000000000068
 50
90.0
 51
180.0
  0
LINE
  5
18EF
  8
0
 10
141.67946282695129
 20
83.0
 30
0.0
 11
136.64363766232049
 21
83.0
 31
0.0
  0
LINE
  5
18F0
  8
0
 10
136.64363766232049
 20
83.0
 30
0.0
 11
136.60532790934471
 21
80.805235721931183
 31
0.0
  0
LINE
  5
18F2
  8
0
 10
163.69467209065519
 20
80.805235721931183
 30
0.0
 11
163.65636233767941
 21
83.0
 31
0.0
  0
LINE
  5
18F3
  8
0
 10
163.65636233767941
 20
83.0
 30
0.0
 11
159.3008310793509
 21
83.0
 31
0.0
  0
LINE
  5
18F5
  8
0
 10
145.35416847668731
 20
80.5
 30
0.0
 11
136.9052822178916
 21
80.5
 31
0.0
  0
ARC
  5
18F7
  8
0
 10
136.9052822178916
 20
80.800000000000011
 30
0.0
 40
0.2999999999999965
 50
178.99999999999821
 51
270.0
  0
LINE
  5
18FA
  8
0
 10
137.44999999999999
 20
80.399999999999963
 30
0.0
 11
137.44999999999999
 21
79.0
 31
0.0
  0
LINE
  5
18FB
  8
0
 10
162.84999999999999
 20
79.0
 30
0.0
 11
162.84999999999999
 21
80.399999999999963
 31
0.0
  0
LINE
  5
18FE
  8
0
 10
163.3947177821083
 20
80.5
 30
0.0
 11
155.43053574913159
 21
80.499999999999943
 31
0.0
  0
ARC
  5
18FF
  8
0
 10
163.39471778210839
 20
80.800000000000011
 30
0.0
 40
0.2999999999999972
 50
270.0
 51
1.000000000001775
  0
LINE
  5
1901
  8
0
 10
136.59999999999999
 20
79.0
 30
0.0
 11
136.59999999999999
 21
77.0
 31
0.0
  0
LINE
  5
1902
  8
0
 10
163.69999999999999
 20
77.0
 30
0.0
 11
163.69999999999999
 21
79.0
 31
0.0
  0
LINE
  5
1903
  8
0
 10
163.69999999999999
 20
79.0
 30
0.0
 11
136.59999999999999
 21
79.0
 31
0.0
  0
LINE
  5
1904
  8
0
 10
161.69999999999999
 20
75.0
 30
0.0
 11
138.59999999999999
 21
75.0
 31
0.0
  0
ARC
  5
1905
  8
0
 10
138.59999999999999
 20
77.0
 30
0.0
 40
2.0000000000000062
 50
180.0
 51
270.0
  0
ARC
  5
1906
  8
0
 10
161.69999999999999
 20
77.0
 30
0.0
 40
2.0000000000000111
 50
270.0
 51
0.0
  0
LINE
  5
190C
  8
0
 10
145.15000000000001
 20
75.0
 30
0.0
 11
145.15000000000001
 21
25.920000000000019
 31
0.0
  0
LINE
  5
190D
  8
0
 10
155.15000000000001
 20
25.920000000000019
 30
0.0
 11
155.15000000000001
 21
75.0
 31
0.0
  0
LINE
  5
190E
  8
0
 10
154.22999999999999
 20
25.0
 30
0.0
 11
155.15000000000001
 21
25.920000000000019
 31
0.0
  0
LINE
  5
190F
  8
0
 10
145.15000000000001
 20
25.920000000000019
 30
0.0
 11
146.06999999999999
 21
25.0
 31
0.0
  0
LINE
  5
1910
  8
0
 10
154.22999999999999
 20
25.0
 30
0.0
 11
146.06999999999999
 21
25.0
 31
0.0
  0
LINE
  5
1911
  8
0
 10
155.15000000000001
 20
25.920000000000019
 30
0.0
 11
145.15000000000001
 21
25.920000000000019
 31
0.0
  0
LINE
  5
1913
  8
3
 10
154.33800000000011
 20
25.108000000000121
 30
0.0
 11
154.33800000000011
 21
75.0
 31
0.0
  0
LINE
  5
1915
  8
3
 10
145.9619999999999
 20
25.108000000000171
 30
0.0
 11
145.9619999999999
 21
75.0
 31
0.0
  0
CIRCLE
  5
1916
  8
0
 10
150.15000000000001
 20
93.0
 30
0.0
 40
5.5
  0
ARC
  5
1918
  8
0
 10
181.28999999999959
 20
171.58999999999651
 30
0.0
 40
74.879999999996514
 50
256.04555713367762
 51
270.0
  0
ARC
  5
1919
  8
0
 10
183.8599999999999
 20
153.56999999999871
 30
0.0
 40
65.099999999998687
 50
259.9816302489931
 51
267.73750494314038
  0
ARC
  5
191B
  8
0
 10
150.42362923304049
 20
92.497119951851801
 30
0.0
 40
12.999999999999931
 50
268.79392630216688
 51
323.69481208296042
  0
ARC
  5
191C
  8
0
 10
168.97177992310631
 20
78.879994183031727
 30
0.0
 40
10.01000000000001
 50
119.69644235781951
 51
143.7429287487995
  0
ARC
  5
191D
  8
0
 10
150.15000000000001
 20
91.5
 30
0.0
 40
12.0
 50
58.900562283865149
 51
270.0
  0
ARC
  5
191F
  8
0
 10
169.2614222505072
 20
123.1820696855941
 30
0.0
 40
25.000000000000291
 50
238.9005622838651
 51
256.04555713367762
  0
ARC
  5
1921
  8
0
 10
171.59999999999999
 20
73.499999999999943
 30
0.0
 40
15.99000000000003
 50
86.647953290491856
 51
118.3266634737123
  0
LINE
  5
1922
  8
0
 10
200.03930479511601
 20
99.095324542420144
 30
0.0
 11
203.65000000000001
 21
100.1568040067082
 31
0.0
  0
POLYLINE
  5
1923
  8
0
 66
     1
 10
0.0
 20
0.0
 30
0.0
  0
VERTEX
  5
2C30
  8
0
 10
194.07037632586841
 20
89.275690646184387
 30
0.0
  0
VERTEX
  5
2C31
  8
0
 10
199.4228066549274
 20
90.315118724893225
 30
0.0
  0
VERTEX
  5
2C32
  8
0
 10
203.65000000000001
 20
90.799678971885555
 30
0.0
  0
SEQEND
  5
2C33
  8
0
  0
POLYLINE
  5
1924
  8
0
 66
     1
 10
0.0
 20
0.0
 30
0.0
  0
VERTEX
  5
2C34
  8
0
 10
200.0393047951161
 20
99.095324542420087
 30
0.0
  0
VERTEX
  5
2C35
  8
0
 10
193.64963074504499
 20
97.737079083856543
 30
0.0
  0
VERTEX
  5
2C36
  8
0
 10
187.165892442055
 20
96.940898947077756
 30
0.0
  0
VERTEX
  5
2C37
  8
0
 10
181.28999999999991
 20
96.709999999999994
 30
0.0
  0
SEQEND
  5
2C38
  8
0
  0
POLYLINE
  5
1926
  8
0
 66
     1
 10
0.0
 20
0.0
 30
0.0
  0
VERTEX
  5
2C39
  8
0
 10
194.07037632586841
 20
89.27569064618433
 30
0.0
  0
VERTEX
  5
2C3A
  8
0
 10
188.42790447517211
 20
88.630456971844126
 30
0.0
  0
VERTEX
  5
2C3B
  8
0
 10
182.75066811324371
 20
88.479452431516407
 30
0.0
  0
VERTEX
  5
2C3C
  8
0
 10
181.28999999999999
 20
88.520748659188996
 30
0.0
  0
SEQEND
  5
2C3D
  8
0
  0
POLYLINE
  5
1928
  8
0
 66
     1
 10
0.0
 20
0.0
 30
0.0
  0
VERTEX
  5
2C3E
  8
0
 10
203.65000000000001
 20
90.799678971885555
 30
0.0
  0
VERTEX
  5
2C3F
  8
0
 10
209.09880130327659
 20
90.998388598348456
 30
0.0
  0
VERTEX
  5
2C40
  8
0
 10
214.5441869576417
 20
90.721447750019138
 30
0.0
  0
VERTEX
  5
2C41
  8
0
 10
219.94471429025171
 20
89.970964113974844
 30
0.0
  0
VERTEX
  5
2C42
  8
0
 10
225.2592820271779
 20
88.752649323840217
 30
0.0
  0
VERTEX
  5
2C43
  8
0
 10
229.47825484764539
 20
87.427360368520965
 30
0.0
  0
SEQEND
  5
2C44
  8
0
  0
POLYLINE
  5
1929
  8
0
 66
     1
 10
0.0
 20
0.0
 30
0.0
  0
VERTEX
  5
2C45
  8
0
 10
203.65000000000001
 20
100.1568040067082
 30
0.0
  0
VERTEX
  5
2C46
  8
0
 10
207.49543325350879
 20
100.9380976637993
 30
0.0
  0
VERTEX
  5
2C47
  8
0
 10
211.3943277015079
 20
101.3812666712501
 30
0.0
  0
VERTEX
  5
2C48
  8
0
 10
215.31701040303091
 20
101.48293824532099
 30
0.0
  0
VERTEX
  5
2C49
  8
0
 10
219.2336273741389
 20
101.2423386039425
 30
0.0
  0
VERTEX
  5
2C4A
  8
0
 10
223.1143707947636
 20
100.6612988556635
 30
0.0
  0
VERTEX
  5
2C4B
  8
0
 10
226.92970586421731
 20
99.744241063809739
 30
0.0
  0
VERTEX
  5
2C4C
  8
0
 10
229.47825484764539
 20
98.929936491146364
 30
0.0
  0
SEQEND
  5
2C4D
  8
0
  0
ARC
  5
192A
  8
0
 10
214.5200000000583
 20
56.510000000160908
 30
0.0
 40
44.979999999828827
 50
69.698484862233741
 51
70.576166106149913
  0
ARC
  5
192C
  8
0
 10
208.6500000002564
 20
28.50000000071395
 30
0.0
 40
62.499999999241382
 50
69.902391378813363
 51
70.533717313296535
  0
POLYLINE
  5
192E
  8
0
 66
     1
 10
0.0
 20
0.0
 30
0.0
  0
VERTEX
  5
2C4E
  8
0
 10
230.12628118136911
 20
87.194287171911114
 30
0.0
  0
VERTEX
  5
2C4F
  8
0
 10
231.61499144791179
 20
86.627880693575605
 30
0.0
  0
VERTEX
  5
2C50
  8
0
 10
233.07498364403139
 20
86.029732956001055
 30
0.0
  0
VERTEX
  5
2C51
  8
0
 10
234.5385786080536
 20
85.386058049304097
 30
0.0
  0
VERTEX
  5
2C52
  8
0
 10
235.9523887169766
 20
84.721255503120048
 30
0.0
  0
VERTEX
  5
2C53
  8
0
 10
237.05644620385999
 20
84.171545565244969
 30
0.0
  0
VERTEX
  5
2C54
  8
0
 10
238.11836708392499
 20
83.616833557517054
 30
0.0
  0
VERTEX
  5
2C55
  8
0
 10
239.15244885397831
 20
83.051333250828634
 30
0.0
  0
VERTEX
  5
2C56
  8
0
 10
240.13496240601509
 20
82.490250437387488
 30
0.0
  0
SEQEND
  5
2C57
  8
0
  0
POLYLINE
  5
192F
  8
0
 66
     1
 10
0.0
 20
0.0
 30
0.0
  0
VERTEX
  5
2C58
  8
0
 10
246.15000000000001
 20
85.945626465380258
 30
0.0
  0
VERTEX
  5
2C59
  8
0
 10
246.1496736473029
 20
85.894531308357614
 30
0.0
  0
VERTEX
  5
2C5A
  8
0
 10
246.14835289640399
 20
85.830847914171486
 30
0.0
  0
VERTEX
  5
2C5B
  8
0
 10
246.1416243692297
 20
85.686908675169889
 30
0.0
  0
VERTEX
  5
2C5C
  8
0
 10
246.1165645644196
 20
85.426150341684334
 30
0.0
  0
VERTEX
  5
2C5D
  8
0
 10
246.07932255270259
 20
85.197011559819813
 30
0.0
  0
VERTEX
  5
2C5E
  8
0
 10
245.92151526930201
 20
84.610022991495271
 30
0.0
  0
VERTEX
  5
2C5F
  8
0
 10
245.6772473730513
 20
84.057031206014528
 30
0.0
  0
VERTEX
  5
2C60
  8
0
 10
245.3452858594942
 20
83.539353771748765
 30
0.0
  0
VERTEX
  5
2C61
  8
0
 10
244.95032039159631
 20
83.088873975925466
 30
0.0
  0
VERTEX
  5
2C62
  8
0
 10
244.47132638149881
 20
82.686857883309457
 30
0.0
  0
VERTEX
  5
2C63
  8
0
 10
243.90891289486271
 20
82.352199137172917
 30
0.0
  0
VERTEX
  5
2C64
  8
0
 10
243.26368899734891
 20
82.103791380788152
 30
0.0
  0
VERTEX
  5
2C65
  8
0
 10
242.7837983129306
 20
81.996115476585715
 30
0.0
  0
VERTEX
  5
2C66
  8
0
 10
242.2673873860887
 20
81.947261710160276
 30
0.0
  0
VERTEX
  5
2C67
  8
0
 10
241.72041940130151
 20
81.968760801415485
 30
0.0
  0
VERTEX
  5
2C68
  8
0
 10
241.20068992902989
 20
82.060239190857416
 30
0.0
  0
VERTEX
  5
2C69
  8
0
 10
240.66675818787991
 20
82.231080317379636
 30
0.0
  0
VERTEX
  5
2C6A
  8
0
 10
240.13496240601509
 20
82.490250437387374
 30
0.0
  0
SEQEND
  5
2C6B
  8
0
  0
LINE
  5
1930
  8
0
 10
246.15000000000001
 20
86.774558480176097
 30
0.0
 11
246.15000000000001
 21
85.945626465380258
 31
0.0
  0
POLYLINE
  5
1931
  8
0
 66
     1
 10
0.0
 20
0.0
 30
0.0
  0
VERTEX
  5
2C6C
  8
0
 10
244.846925153352
 20
89.728639507706873
 30
0.0
  0
VERTEX
  5
2C6D
  8
0
 10
245.3250235415579
 20
89.207644071875848
 30
0.0
  0
VERTEX
  5
2C6E
  8
0
 10
245.6923883496415
 20
88.632375688709828
 30
0.0
  0
VERTEX
  5
2C6F
  8
0
 10
245.9579338661697
 20
88.003570148576429
 30
0.0
  0
VERTEX
  5
2C70
  8
0
 10
246.11237178609849
 20
87.321924745789204
 30
0.0
  0
VERTEX
  5
2C71
  8
0
 10
246.1313196775358
 20
87.160684917067485
 30
0.0
  0
VERTEX
  5
2C72
  8
0
 10
246.1407335130489
 20
87.046672478031198
 30
0.0
  0
VERTEX
  5
2C73
  8
0
 10
246.14678761256451
 20
86.934835677715512
 30
0.0
  0
VERTEX
  5
2C74
  8
0
 10
246.14880170025339
 20
86.872461299595784
 30
0.0
  0
VERTEX
  5
2C75
  8
0
 10
246.14980234686271
 20
86.814322610142881
 30
0.0
  0
VERTEX
  5
2C76
  8
0
 10
246.15000000000001
 20
86.774558480176154
 30
0.0
  0
SEQEND
  5
2C77
  8
0
  0
POLYLINE
  5
1932
  8
0
 66
     1
 10
0.0
 20
0.0
 30
0.0
  0
VERTEX
  5
2C78
  8
0
 10
230.12628118136911
 20
98.69583159886794
 30
0.0
  0
VERTEX
  5
2C79
  8
0
 10
231.6276837725955
 20
98.108748105581256
 30
0.0
  0
VERTEX
  5
2C7A
  8
0
 10
233.09876606270561
 20
97.472213505285325
 30
0.0
  0
VERTEX
  5
2C7B
  8
0
 10
234.52531544751699
 20
96.79544189161777
 30
0.0
  0
VERTEX
  5
2C7C
  8
0
 10
235.8931193228469
 20
96.0876473582166
 30
0.0
  0
VERTEX
  5
2C7D
  8
0
 10
237.19398483528249
 20
95.356462233794048
 30
0.0
  0
VERTEX
  5
2C7E
  8
0
 10
238.43370053174581
 20
94.605402394764099
 30
0.0
  0
VERTEX
  5
2C7F
  8
0
 10
239.6042919211184
 20
93.845464052454759
 30
0.0
  0
VERTEX
  5
2C80
  8
0
 10
240.69778451228149
 20
93.087643418194034
 30
0.0
  0
VERTEX
  5
2C81
  8
0
 10
241.59658979125621
 20
92.426747670733789
 30
0.0
  0
VERTEX
  5
2C82
  8
0
 10
242.43482038020679
 20
91.778464368718218
 30
0.0
  0
VERTEX
  5
2C83
  8
0
 10
243.20557156403399
 20
91.154549816150436
 30
0.0
  0
VERTEX
  5
2C84
  8
0
 10
243.9019386276384
 20
90.566760317033356
 30
0.0
  0
VERTEX
  5
2C85
  8
0
 10
244.51701685592079
 20
90.026852175370038
 30
0.0
  0
VERTEX
  5
2C86
  8
0
 10
244.84692515335209
 20
89.728639507706873
 30
0.0
  0
SEQEND
  5
2C87
  8
0
  0
LINE
  5
194A
  8
0
 10
77.126719507837464
 20
83.0
 30
0.0
 11
78.604029040269452
 21
81.376028043914175
 31
0.0
  0
LINE
  5
194B
  8
0
 10
54.595540332430872
 20
81.375560671155938
 30
0.0
 11
56.073280492162532
 21
83.0
 31
0.0
  0
LINE
  5
19B1
  8
1
 10
66.599999999999994
 20
106.48999999999999
 30
0.0
 11
66.600000000000009
 21
20.0
 31
0.0
  0
LINE
  5
19B2
  8
1
 10
45.0
 20
93.0
 30
0.0
 11
88.199999999999974
 21
93.000000000000057
 31
0.0
  0
LINE
  5
19B3
  8
0
 10
78.611661000877433
 20
80.400000000000034
 30
0.0
 11
79.299999999999329
 21
79.700000000000671
 31
0.0
  0
LINE
  5
19B4
  8
0
 10
53.899999999999991
 20
79.699999999999974
 30
0.0
 11
53.899999999999991
 21
79.0
 31
0.0
  0
LINE
  5
19B5
  8
0
 10
79.299999999999983
 20
79.0
 30
0.0
 11
79.299999999999983
 21
79.699999999999974
 31
0.0
  0
LINE
  5
19B6
  8
0
 10
53.900000000000659
 20
79.700000000000671
 30
0.0
 11
54.588338999122563
 21
80.400000000000034
 31
0.0
  0
LINE
  5
19B7
  8
0
 10
78.611661000877433
 20
80.400000000000034
 30
0.0
 11
54.588338999122591
 21
80.400000000000034
 31
0.0
  0
LINE
  5
19B8
  8
0
 10
78.604029040269452
 20
81.376028043914175
 30
0.0
 11
79.131911067196754
 21
80.805235721931183
 31
0.0
  0
LINE
  5
19B9
  8
0
 10
77.126719507837464
 20
83.0
 30
0.0
 11
56.073280492162532
 21
83.0
 31
0.0
  0
LINE
  5
19BA
  8
0
 10
54.068088932803221
 20
80.805235721931183
 30
0.0
 11
54.595540332430872
 21
81.375560671155938
 31
0.0
  0
LINE
  5
19BB
  8
0
 10
79.092499714936821
 20
80.5
 30
0.0
 11
54.107500285063132
 21
80.5
 31
0.0
  0
POLYLINE
  5
19BC
  8
0
 66
     1
 10
0.0
 20
0.0
 30
0.0
  0
VERTEX
  5
2C88
  8
0
 10
79.092499714936821
 20
80.5
 30
0.0
  0
VERTEX
  5
2C89
  8
0
 10
79.12159935364943
 20
80.501372125038984
 30
0.0
  0
VERTEX
  5
2C8A
  8
0
 10
79.153789015630963
 20
80.506877833674125
 30
0.0
  0
VERTEX
  5
2C8B
  8
0
 10
79.183687823134306
 20
80.517718696320344
 30
0.0
  0
VERTEX
  5
2C8C
  8
0
 10
79.213954183988179
 20
80.539858831521485
 30
0.0
  0
VERTEX
  5
2C8D
  8
0
 10
79.236847244718419
 20
80.591397248434816
 30
0.0
  0
VERTEX
  5
2C8E
  8
0
 10
79.228690754151813
 20
80.655203188572514
 30
0.0
  0
VERTEX
  5
2C8F
  8
0
 10
79.196900809352101
 20
80.721524888826195
 30
0.0
  0
VERTEX
  5
2C90
  8
0
 10
79.131911067196754
 20
80.805235721931183
 30
0.0
  0
SEQEND
  5
2C91
  8
0
  0
POLYLINE
  5
19BE
  8
0
 66
     1
 10
0.0
 20
0.0
 30
0.0
  0
VERTEX
  5
2C92
  8
0
 10
54.068088932803221
 20
80.805235721931183
 30
0.0
  0
VERTEX
  5
2C93
  8
0
 10
54.001292920704877
 20
80.71858420721145
 30
0.0
  0
VERTEX
  5
2C94
  8
0
 10
53.965039655836108
 20
80.630880319590815
 30
0.0
  0
VERTEX
  5
2C95
  8
0
 10
53.963486668310559
 20
80.588719591908273
 30
0.0
  0
VERTEX
  5
2C96
  8
0
 10
53.98009063174932
 20
80.547032488747107
 30
0.0
  0
VERTEX
  5
2C97
  8
0
 10
54.00674256856442
 20
80.523009911039765
 30
0.0
  0
VERTEX
  5
2C98
  8
0
 10
54.034560498307599
 20
80.510274894882855
 30
0.0
  0
VERTEX
  5
2C99
  8
0
 10
54.06445024776437
 20
80.503154418229883
 30
0.0
  0
VERTEX
  5
2C9A
  8
0
 10
54.0995626724647
 20
80.500095559571321
 30
0.0
  0
VERTEX
  5
2C9B
  8
0
 10
54.107500285063132
 20
80.5
 30
0.0
  0
SEQEND
  5
2C9C
  8
0
  0
LINE
  5
19BF
  8
0
 10
53.04999999999999
 20
79.0
 30
0.0
 11
53.04999999999999
 21
77.0
 31
0.0
  0
LINE
  5
19C0
  8
0
 10
80.149999999999977
 20
77.0
 30
0.0
 11
80.149999999999977
 21
79.0
 31
0.0
  0
LINE
  5
19C1
  8
0
 10
80.149999999999977
 20
79.0
 30
0.0
 11
53.04999999999999
 21
79.0
 31
0.0
  0
LINE
  5
19C2
  8
0
 10
78.149999999730056
 20
75.0
 30
0.0
 11
55.04999999999999
 21
75.0
 31
0.0
  0
ARC
  5
19C3
  8
0
 10
55.050000000000011
 20
77.0
 30
0.0
 40
2.0000000000000062
 50
180.0
 51
270.0
  0
ARC
  5
19C4
  8
0
 10
78.149999999999963
 20
77.000000000000057
 30
0.0
 40
2.0000000000000111
 50
270.0
 51
0.0
  0
LINE
  5
19C6
  8
0
 10
63.111217977574427
 20
100.0
 30
0.0
 11
62.64525601334298
 21
99.540000000000063
 31
0.0
  0
LINE
  5
19C7
  8
0
 10
70.554743986657058
 20
99.540000000000063
 30
0.0
 11
70.088782022425619
 21
100.0
 31
0.0
  0
LINE
  5
19C8
  8
0
 10
70.088782022425605
 20
100.0
 30
0.0
 11
63.111217977574412
 21
100.0
 31
0.0
  0
LINE
  5
19C9
  8
0
 10
62.64525601334298
 20
99.540000000000063
 30
0.0
 11
62.64525601334298
 21
98.488483994033814
 31
0.0
  0
LINE
  5
19CA
  8
0
 10
70.554743986657044
 20
98.489267904492422
 30
0.0
 11
70.554743986657058
 21
99.540000000000063
 31
0.0
  0
LINE
  5
19CB
  8
0
 10
70.554743986657058
 20
99.540000000000063
 30
0.0
 11
62.64525601334298
 21
99.540000000000063
 31
0.0
  0
LINE
  5
19CC
  8
0
 10
62.149999999999991
 20
87.500000000000057
 30
0.0
 11
62.149999999999991
 21
83.0
 31
0.0
  0
LINE
  5
19CD
  8
0
 10
71.049999999999997
 20
83.0
 30
0.0
 11
71.049999999999997
 21
87.500000000000057
 31
0.0
  0
LINE
  5
19CE
  8
0
 10
61.600000000000001
 20
75.0
 30
0.0
 11
61.600000000000001
 21
25.920000000000019
 31
0.0
  0
LINE
  5
19CF
  8
0
 10
71.600000000000009
 20
25.920000000000019
 30
0.0
 11
71.600000000000009
 21
75.0
 31
0.0
  0
LINE
  5
19D0
  8
0
 10
70.680000000000007
 20
25.0
 30
0.0
 11
71.600000000000023
 21
25.920000000000019
 31
0.0
  0
LINE
  5
19D1
  8
0
 10
61.600000000000001
 20
25.920000000000019
 30
0.0
 11
62.519999999999989
 21
25.0
 31
0.0
  0
LINE
  5
19D2
  8
0
 10
70.680000000000007
 20
25.0
 30
0.0
 11
62.519999999999989
 21
25.0
 31
0.0
  0
LINE
  5
19D3
  8
0
 10
71.600000000000023
 20
25.920000000000019
 30
0.0
 11
61.600000000000001
 21
25.920000000000019
 31
0.0
  0
LINE
  5
19D4
  8
3
 10
63.276500000000262
 20
100.0
 30
0.0
 11
63.276500000000247
 21
98.234187025645014
 31
0.0
  0
LINE
  5
19D6
  8
3
 10
69.923499999999734
 20
100.0
 30
0.0
 11
69.923499999999734
 21
98.231182366341145
 31
0.0
  0
POLYLINE
  5
19DC
  8
0
 66
     1
 10
0.0
 20
0.0
 30
0.0
  0
VERTEX
  5
2C9D
  8
0
 10
53.79958317619117
 20
82.490250437387488
 30
0.0
  0
VERTEX
  5
2C9E
  8
0
 10
54.21441339783874
 20
82.251296456842184
 30
0.0
  0
VERTEX
  5
2C9F
  8
0
 10
54.600000000000001
 20
82.104172266322962
 30
0.0
  0
SEQEND
  5
2CA0
  8
0
  0
POLYLINE
  5
19DD
  8
0
 66
     1
 10
0.0
 20
0.0
 30
0.0
  0
VERTEX
  5
2CA1
  8
0
 10
78.600000000000023
 20
82.104278600377768
 30
0.0
  0
VERTEX
  5
2CA2
  8
0
 10
78.69393340764455
 20
82.135179020958162
 30
0.0
  0
VERTEX
  5
2CA3
  8
0
 10
79.060092921815681
 20
82.287241759851483
 30
0.0
  0
VERTEX
  5
2CA4
  8
0
 10
79.400416823808825
 20
82.490250437387488
 30
0.0
  0
SEQEND
  5
2CA5
  8
0
  0
LINE
  5
19DE
  8
0
 10
83.200000000000003
 20
87.194287171911185
 30
0.0
 11
83.200000000000003
 21
98.929936491146407
 31
0.0
  0
LINE
  5
19DF
  8
0
 10
50.0
 20
87.194287171911185
 30
0.0
 11
50.0
 21
98.929936491146407
 31
0.0
  0
POLYLINE
  5
19E0
  8
0
 66
     1
 10
0.0
 20
0.0
 30
0.0
  0
VERTEX
  5
2CA6
  8
0
 10
49.999999999999993
 20
98.929936491146407
 30
0.0
  0
VERTEX
  5
2CA7
  8
0
 10
50.523249533202929
 20
100.0722136373239
 30
0.0
  0
VERTEX
  5
2CA8
  8
0
 10
51.058384284008341
 20
100.88295603413761
 30
0.0
  0
VERTEX
  5
2CA9
  8
0
 10
51.601331553839429
 20
101.35599344240811
 30
0.0
  0
VERTEX
  5
2CAA
  8
0
 10
52.084915057915047
 20
101.48999999999999
 30
0.0
  0
SEQEND
  5
2CAB
  8
0
  0
POLYLINE
  5
19E1
  8
3
 66
     1
 10
0.0
 20
0.0
 30
0.0
  0
VERTEX
  5
2CAC
  8
3
 10
79.599999999999994
 20
100.1568040067082
 30
0.0
  0
VERTEX
  5
2CAD
  8
3
 10
80.135985098268975
 20
100.9380976637993
 30
0.0
  0
VERTEX
  5
2CAE
  8
3
 10
80.679421737546065
 20
101.3812666712501
 30
0.0
  0
VERTEX
  5
2CAF
  8
3
 10
81.115084942084948
 20
101.48999999999999
 30
0.0
  0
SEQEND
  5
2CB0
  8
3
  0
LINE
  5
19E2
  8
0
 10
54.600000000000001
 20
101.48999999999999
 30
0.0
 11
52.084915057915047
 21
101.48999999999999
 31
0.0
  0
LINE
  5
19E3
  8
0
 10
71.099999999999994
 20
101.48999999999999
 30
0.0
 11
62.100000000000001
 21
101.48999999999999
 31
0.0
  0
LINE
  5
19E4
  8
0
 10
81.115084942084948
 20
101.48999999999999
 30
0.0
 11
78.599999999999994
 21
101.48999999999999
 31
0.0
  0
POLYLINE
  5
19E5
  8
3
 66
     1
 10
0.0
 20
0.0
 30
0.0
  0
VERTEX
  5
2CB1
  8
3
 10
52.084915057915047
 20
101.48999999999999
 30
0.0
  0
VERTEX
  5
2CB2
  8
3
 10
52.631330415626657
 20
101.3188375201667
 30
0.0
  0
VERTEX
  5
2CB3
  8
3
 10
53.173587222531481
 20
100.80665273048911
 30
0.0
  0
VERTEX
  5
2CB4
  8
3
 10
53.600000000000009
 20
100.1568040067082
 30
0.0
  0
SEQEND
  5
2CB5
  8
3
  0
POLYLINE
  5
19E6
  8
0
 66
     1
 10
0.0
 20
0.0
 30
0.0
  0
VERTEX
  5
2CB6
  8
0
 10
81.115084942084948
 20
101.48999999999999
 30
0.0
  0
VERTEX
  5
2CB7
  8
0
 10
81.661500299796558
 20
101.3188375201667
 30
0.0
  0
VERTEX
  5
2CB8
  8
0
 10
82.20375710670136
 20
100.80665273048911
 30
0.0
  0
VERTEX
  5
2CB9
  8
0
 10
82.737728461075221
 20
99.957343666482302
 30
0.0
  0
VERTEX
  5
2CBA
  8
0
 10
83.200000000000003
 20
98.929936491146407
 30
0.0
  0
SEQEND
  5
2CBB
  8
0
  0
POLYLINE
  5
19E7
  8
3
 66
     1
 10
0.0
 20
0.0
 30
0.0
  0
VERTEX
  5
2CBC
  8
3
 10
50.0
 20
87.427360368520965
 30
0.0
  0
VERTEX
  5
2CBD
  8
3
 10
50.726894499188063
 20
89.018425993046264
 30
0.0
  0
VERTEX
  5
2CBE
  8
3
 10
51.47035115105087
 20
90.148909853739795
 30
0.0
  0
VERTEX
  5
2CBF
  8
3
 10
52.22471180155631
 20
90.810208285816827
 30
0.0
  0
VERTEX
  5
2CC0
  8
3
 10
52.903088803088806
 20
91.0
 30
0.0
  0
SEQEND
  5
2CC1
  8
3
  0
POLYLINE
  5
19E8
  8
0
 66
     1
 10
0.0
 20
0.0
 30
0.0
  0
VERTEX
  5
2CC2
  8
0
 10
53.79958317619117
 20
82.490250437387488
 30
0.0
  0
VERTEX
  5
2CC3
  8
0
 10
53.185749289933511
 20
82.943019995716327
 30
0.0
  0
VERTEX
  5
2CC4
  8
0
 10
52.620973288373889
 20
83.399669765425358
 30
0.0
  0
VERTEX
  5
2CC5
  8
0
 10
52.107307206857001
 20
83.856816768565579
 30
0.0
  0
VERTEX
  5
2CC6
  8
0
 10
51.633349614167791
 20
84.325097209882685
 30
0.0
  0
VERTEX
  5
2CC7
  8
0
 10
51.215539790714402
 20
84.789326660149825
 30
0.0
  0
VERTEX
  5
2CC8
  8
0
 10
50.856150962157002
 20
85.246275599299508
 30
0.0
  0
VERTEX
  5
2CC9
  8
0
 10
50.519966617790267
 20
85.755007227351484
 30
0.0
  0
VERTEX
  5
2CCA
  8
0
 10
50.263764271271647
 20
86.248460636392622
 30
0.0
  0
VERTEX
  5
2CCB
  8
0
 10
50.087741338922349
 20
86.732374083596824
 30
0.0
  0
VERTEX
  5
2CCC
  8
0
 10
50.000000000000007
 20
87.194287171911014
 30
0.0
  0
SEQEND
  5
2CCD
  8
0
  0
POLYLINE
  5
19EB
  8
0
 66
     1
 10
0.0
 20
0.0
 30
0.0
  0
VERTEX
  5
2CCE
  8
0
 10
83.200000000000003
 20
87.194287171911114
 30
0.0
  0
VERTEX
  5
2CCF
  8
0
 10
83.135438395654489
 20
86.820575089604347
 30
0.0
  0
VERTEX
  5
2CD0
  8
0
 10
83.012132969039527
 20
86.431659490964819
 30
0.0
  0
VERTEX
  5
2CD1
  8
0
 10
82.831653960989655
 20
86.029732956001112
 30
0.0
  0
VERTEX
  5
2CD2
  8
0
 10
82.587172142518554
 20
85.603423437521386
 30
0.0
  0
VERTEX
  5
2CD3
  8
0
 10
82.284768669022554
 20
85.166345145588252
 30
0.0
  0
VERTEX
  5
2CD4
  8
0
 10
81.926497274874336
 20
84.721255503120048
 30
0.0
  0
VERTEX
  5
2CD5
  8
0
 10
81.41703040843673
 20
84.171545565244969
 30
0.0
  0
VERTEX
  5
2CD6
  8
0
 10
80.829377551920871
 20
83.616833557517054
 30
0.0
  0
VERTEX
  5
2CD7
  8
0
 10
80.153013048781204
 20
83.051333250828634
 30
0.0
  0
VERTEX
  5
2CD8
  8
0
 10
79.40041682380884
 20
82.490250437387488
 30
0.0
  0
SEQEND
  5
2CD9
  8
0
  0
LINE
  5
19EC
  8
3
 10
79.599999999999994
 20
90.799678971885555
 30
0.0
 11
80.296911196911196
 21
91.0
 31
0.0
  0
LINE
  5
19ED
  8
3
 10
52.903088803088806
 20
91.0
 30
0.0
 11
53.600000000000009
 21
90.799678971885555
 31
0.0
  0
POLYLINE
  5
19EE
  8
3
 66
     1
 10
0.0
 20
0.0
 30
0.0
  0
VERTEX
  5
2CDA
  8
3
 10
80.296911196911196
 20
91.0
 30
0.0
  0
VERTEX
  5
2CDB
  8
3
 10
81.056158859360636
 20
90.762168630734095
 30
0.0
  0
VERTEX
  5
2CDC
  8
3
 10
81.809628188652553
 20
90.050484563263012
 30
0.0
  0
VERTEX
  5
2CDD
  8
3
 10
82.551584828233842
 20
88.870364143066766
 30
0.0
  0
VERTEX
  5
2CDE
  8
3
 10
83.200000000000003
 20
87.427360368520965
 30
0.0
  0
SEQEND
  5
2CDF
  8
3
  0
POLYLINE
  5
19EF
  8
3
 66
     1
 10
0.0
 20
0.0
 30
0.0
  0
VERTEX
  5
2CE0
  8
3
 10
79.171573180942232
 20
89.275690646184387
 30
0.0
  0
VERTEX
  5
2CE1
  8
3
 10
79.410948419272245
 20
90.315118724893225
 30
0.0
  0
VERTEX
  5
2CE2
  8
3
 10
79.599999999999994
 20
90.799678971885555
 30
0.0
  0
SEQEND
  5
2CE3
  8
3
  0
LINE
  5
19F1
  8
3
 10
79.438519892447047
 20
99.095324542420144
 30
0.0
 11
79.599999999999994
 21
100.1568040067082
 31
0.0
  0
LINE
  5
19F2
  8
3
 10
53.600000000000009
 20
100.1568040067082
 30
0.0
 11
53.761480107552948
 21
99.095324542420144
 31
0.0
  0
POLYLINE
  5
19F4
  8
3
 66
     1
 10
0.0
 20
0.0
 30
0.0
  0
VERTEX
  5
2CE4
  8
3
 10
53.600000000000009
 20
90.799678971885555
 30
0.0
  0
VERTEX
  5
2CE5
  8
3
 10
53.841983375858419
 20
90.126831170871924
 30
0.0
  0
VERTEX
  5
2CE6
  8
3
 10
54.028426819057749
 20
89.275690646184387
 30
0.0
  0
SEQEND
  5
2CE7
  8
3
  0
LINE
  5
19F5
  8
3
 10
54.599999999999987
 20
88.520748659188996
 30
0.0
 11
54.485062611806789
 21
88.470000000000027
 31
0.0
  0
POLYLINE
  5
19F6
  8
3
 66
     1
 10
0.0
 20
0.0
 30
0.0
  0
VERTEX
  5
2CE8
  8
3
 10
79.171573180942232
 20
89.275690646184387
 30
0.0
  0
VERTEX
  5
2CE9
  8
3
 10
78.919226497100723
 20
88.630456971844183
 30
0.0
  0
VERTEX
  5
2CEA
  8
3
 10
78.714937388193192
 20
88.46999999999997
 30
0.0
  0
SEQEND
  5
2CEB
  8
3
  0
LINE
  5
19F7
  8
3
 10
78.599999999999994
 20
88.470000000000027
 30
0.0
 11
78.714937388193192
 21
88.470000000000027
 31
0.0
  0
LINE
  5
19F8
  8
3
 10
54.485062611806789
 20
88.470000000000027
 30
0.0
 11
54.600000000000001
 21
88.470000000000027
 31
0.0
  0
POLYLINE
  5
19F9
  8
3
 66
     1
 10
0.0
 20
0.0
 30
0.0
  0
VERTEX
  5
2CEC
  8
3
 10
54.485062611806789
 20
88.470000000000027
 30
0.0
  0
VERTEX
  5
2CED
  8
3
 10
54.231313110336657
 20
88.717725154227367
 30
0.0
  0
VERTEX
  5
2CEE
  8
3
 10
54.028426819057749
 20
89.275690646184387
 30
0.0
  0
SEQEND
  5
2CEF
  8
3
  0
LINE
  5
19FA
  8
3
 10
78.714937388193192
 20
88.46999999999997
 30
0.0
 11
78.599999999999994
 21
88.520748659188996
 31
0.0
  0
POLYLINE
  5
19FB
  8
3
 66
     1
 10
0.0
 20
0.0
 30
0.0
  0
VERTEX
  5
2CF0
  8
3
 10
79.438519892447061
 20
99.095324542420144
 30
0.0
  0
VERTEX
  5
2CF1
  8
3
 10
79.152756294501117
 20
97.737079083856585
 30
0.0
  0
VERTEX
  5
2CF2
  8
3
 10
78.862785887390658
 20
96.940898947077756
 30
0.0
  0
VERTEX
  5
2CF3
  8
3
 10
78.599999999999994
 20
96.709999999999994
 30
0.0
  0
SEQEND
  5
2CF4
  8
3
  0
POLYLINE
  5
19FE
  8
3
 66
     1
 10
0.0
 20
0.0
 30
0.0
  0
VERTEX
  5
2CF5
  8
3
 10
54.599999999999987
 20
96.710000000000036
 30
0.0
  0
VERTEX
  5
2CF6
  8
3
 10
54.308129605682247
 20
96.994941006890073
 30
0.0
  0
VERTEX
  5
2CF7
  8
3
 10
54.018480521301441
 20
97.847595454445866
 30
0.0
  0
VERTEX
  5
2CF8
  8
3
 10
53.761480107552948
 20
99.095324542420144
 30
0.0
  0
SEQEND
  5
2CF9
  8
3
  0
POLYLINE
  5
1A00
  8
0
 66
     1
 10
0.0
 20
0.0
 30
0.0
  0
VERTEX
  5
2CFA
  8
0
 10
70.365981039500966
 20
99.726347732985161
 30
0.0
  0
VERTEX
  5
2CFB
  8
0
 10
70.415449410584216
 20
99.730812944088939
 30
0.0
  0
VERTEX
  5
2CFC
  8
0
 10
70.561634455735515
 20
99.753797446248953
 30
0.0
  0
VERTEX
  5
2CFD
  8
0
 10
70.695154560211364
 20
99.785008642149151
 30
0.0
  0
VERTEX
  5
2CFE
  8
0
 10
70.815203620076005
 20
99.824735077160881
 30
0.0
  0
VERTEX
  5
2CFF
  8
0
 10
70.916156226262771
 20
99.871251712237452
 30
0.0
  0
VERTEX
  5
2D00
  8
0
 10
70.99989130023026
 20
99.926743586577629
 30
0.0
  0
VERTEX
  5
2D01
  8
0
 10
71.058839175935503
 20
99.987280272803957
 30
0.0
  0
VERTEX
  5
2D02
  8
0
 10
71.099999999999994
 20
100.10349602250849
 30
0.0
  0
SEQEND
  5
2D03
  8
0
  0
POLYLINE
  5
1A02
  8
0
 66
     1
 10
0.0
 20
0.0
 30
0.0
  0
VERTEX
  5
2D04
  8
0
 10
62.099999999999987
 20
100.10349602250849
 30
0.0
  0
VERTEX
  5
2D05
  8
0
 10
62.115907223657551
 20
100.0305385463847
 30
0.0
  0
VERTEX
  5
2D06
  8
0
 10
62.163200989441201
 20
99.960880810572689
 30
0.0
  0
VERTEX
  5
2D07
  8
0
 10
62.241986976257287
 20
99.896337328078289
 30
0.0
  0
VERTEX
  5
2D08
  8
0
 10
62.350352385294741
 20
99.838870952806204
 30
0.0
  0
VERTEX
  5
2D09
  8
0
 10
62.479118331885232
 20
99.792504232508534
 30
0.0
  0
VERTEX
  5
2D0A
  8
0
 10
62.629130497547727
 20
99.755573381528279
 30
0.0
  0
VERTEX
  5
2D0B
  8
0
 10
62.784111662921617
 20
99.730912336020594
 30
0.0
  0
VERTEX
  5
2D0C
  8
0
 10
62.834131174572939
 20
99.726458511284534
 30
0.0
  0
SEQEND
  5
2D0D
  8
0
  0
LINE
  5
1A06
  8
0
 10
62.099999999999987
 20
83.0
 30
0.0
 11
62.099999999999987
 21
103.5
 31
0.0
  0
LINE
  5
1A07
  8
0
 10
62.099999999999987
 20
103.5
 30
0.0
 11
54.599999999999987
 21
103.5
 31
0.0
  0
LINE
  5
1A08
  8
0
 10
54.599999999999987
 20
80.5
 30
0.0
 11
54.599999999999987
 21
80.400000000000034
 31
0.0
  0
LINE
  5
1A09
  8
0
 10
54.599999999999987
 20
103.5
 30
0.0
 11
54.599999999999987
 21
81.380463061704845
 31
0.0
  0
LINE
  5
1A0A
  8
0
 10
78.600000000000023
 20
81.380457074028513
 30
0.0
 11
78.599999999999994
 21
103.5
 31
0.0
  0
LINE
  5
1A0B
  8
0
 10
78.599999999999994
 20
80.400000000000034
 30
0.0
 11
78.599999999999994
 21
80.5
 31
0.0
  0
LINE
  5
1A0C
  8
0
 10
78.599999999999994
 20
103.5
 30
0.0
 11
71.099999999999994
 21
103.5
 31
0.0
  0
LINE
  5
1A0D
  8
0
 10
71.099999999999994
 20
103.5
 30
0.0
 11
71.099999999999994
 21
83.0
 31
0.0
  0
LINE
  5
1A5A
  8
1
 10
131.59999999999999
 20
173.5
 30
0.0
 11
251.15000000000001
 21
173.49999999999989
 31
0.0
  0
LINE
  5
1A5B
  8
1
 10
150.15000000000001
 20
192.0500000000001
 30
0.0
 11
150.15000000000001
 21
154.9499999999999
 31
0.0
  0
POLYLINE
  5
1A61
  8
0
 66
     1
 10
0.0
 20
0.0
 30
0.0
  0
VERTEX
  5
2D0E
  8
0
 10
145.98821809405231
 20
161.5
 30
0.0
  0
VERTEX
  5
2D0F
  8
0
 10
146.72869318594351
 20
161.26951923740981
 30
0.0
  0
VERTEX
  5
2D10
  8
0
 10
147.45819705628199
 20
161.08854573741701
 30
0.0
  0
VERTEX
  5
2D11
  8
0
 10
148.22137150500521
 20
160.94729542575411
 30
0.0
  0
VERTEX
  5
2D12
  8
0
 10
149.004709565848
 20
160.85174676797459
 30
0.0
  0
VERTEX
  5
2D13
  8
0
 10
149.77127269285651
 20
160.80564827859169
 30
0.0
  0
VERTEX
  5
2D14
  8
0
 10
150.54641912723829
 20
160.80618844178159
 30
0.0
  0
VERTEX
  5
2D15
  8
0
 10
151.336664967096
 20
160.85556144955939
 30
0.0
  0
VERTEX
  5
2D16
  8
0
 10
152.1237760524362
 20
160.95431516038971
 30
0.0
  0
VERTEX
  5
2D17
  8
0
 10
152.67450150159851
 20
161.0534540035022
 30
0.0
  0
VERTEX
  5
2D18
  8
0
 10
153.2157612107371
 20
161.17558893095739
 30
0.0
  0
VERTEX
  5
2D19
  8
0
 10
153.74961687035301
 20
161.32080633265619
 30
0.0
  0
VERTEX
  5
2D1A
  8
0
 10
154.31083961064431
 20
161.5
 30
0.0
  0
SEQEND
  5
2D1B
  8
0
  0
LINE
  5
1A62
  8
0
 10
154.5500000000001
 20
161.5
 30
0.0
 11
154.5499999999999
 21
161.0075002850632
 31
0.0
  0
POLYLINE
  5
1A63
  8
0
 66
     1
 10
0.0
 20
0.0
 30
0.0
  0
VERTEX
  5
2D1C
  8
0
 10
155.2890025342713
 20
160.9680889328032
 30
0.0
  0
VERTEX
  5
2D1D
  8
0
 10
155.09237709944369
 20
160.90129292070489
 30
0.0
  0
VERTEX
  5
2D1E
  8
0
 10
154.88344164645241
 20
160.86503965583611
 30
0.0
  0
VERTEX
  5
2D1F
  8
0
 10
154.77905684612591
 20
160.8634866683106
 30
0.0
  0
VERTEX
  5
2D20
  8
0
 10
154.6730905564319
 20
160.88009063174931
 30
0.0
  0
VERTEX
  5
2D21
  8
0
 10
154.61070649811489
 20
160.90674256856451
 30
0.0
  0
VERTEX
  5
2D22
  8
0
 10
154.57722565121691
 20
160.9345604983076
 30
0.0
  0
VERTEX
  5
2D23
  8
0
 10
154.55837877640121
 20
160.9644502477644
 30
0.0
  0
VERTEX
  5
2D24
  8
0
 10
154.55025409321331
 20
160.9995626724648
 30
0.0
  0
VERTEX
  5
2D25
  8
0
 10
154.5499999999999
 20
161.0075002850632
 30
0.0
  0
SEQEND
  5
2D26
  8
0
  0
LINE
  5
1A64
  8
0
 10
156.36769844986
 20
161.47760474566681
 30
0.0
 11
156.40993078725421
 21
161.5
 31
0.0
  0
POLYLINE
  5
1A65
  8
0
 66
     1
 10
0.0
 20
0.0
 30
0.0
  0
VERTEX
  5
2D27
  8
0
 10
155.2890025342713
 20
160.9680889328032
 30
0.0
  0
VERTEX
  5
2D28
  8
0
 10
155.74980752235481
 20
161.17131362442171
 30
0.0
  0
VERTEX
  5
2D29
  8
0
 10
156.1962093226476
 20
161.38857007072511
 30
0.0
  0
VERTEX
  5
2D2A
  8
0
 10
156.36769844986
 20
161.47760474566681
 30
0.0
  0
SEQEND
  5
2D2B
  8
0
  0
POLYLINE
  5
1A66
  8
0
 66
     1
 10
0.0
 20
0.0
 30
0.0
  0
VERTEX
  5
2D2C
  8
0
 10
156.36802817743501
 20
185.5222210058505
 30
0.0
  0
VERTEX
  5
2D2D
  8
0
 10
156.22944992154021
 20
185.59441848119789
 30
0.0
  0
VERTEX
  5
2D2E
  8
0
 10
155.7669917945845
 20
185.8207003298684
 30
0.0
  0
VERTEX
  5
2D2F
  8
0
 10
155.2890025342713
 20
186.0319110671968
 30
0.0
  0
SEQEND
  5
2D30
  8
0
  0
LINE
  5
1A67
  8
0
 10
156.40992701338891
 20
185.5
 30
0.0
 11
156.36802817743501
 21
185.5222210058505
 31
0.0
  0
POLYLINE
  5
1A68
  8
0
 66
     1
 10
0.0
 20
0.0
 30
0.0
  0
VERTEX
  5
2D31
  8
0
 10
154.55000000000001
 20
185.99249971493691
 30
0.0
  0
VERTEX
  5
2D32
  8
0
 10
154.5536468799377
 20
186.02159935364941
 30
0.0
  0
VERTEX
  5
2D33
  8
0
 10
154.5682455797951
 20
186.053789015631
 30
0.0
  0
VERTEX
  5
2D34
  8
0
 10
154.59683073004771
 20
186.0836878231344
 30
0.0
  0
VERTEX
  5
2D35
  8
0
 10
154.65456523220081
 20
186.1139541839882
 30
0.0
  0
VERTEX
  5
2D36
  8
0
 10
154.78576769870469
 20
186.13684724471841
 30
0.0
  0
VERTEX
  5
2D37
  8
0
 10
154.94245934597819
 20
186.12869075415179
 30
0.0
  0
VERTEX
  5
2D38
  8
0
 10
155.09920287745049
 20
186.09690080935209
 30
0.0
  0
VERTEX
  5
2D39
  8
0
 10
155.2890025342713
 20
186.0319110671968
 30
0.0
  0
SEQEND
  5
2D3A
  8
0
  0
LINE
  5
1A69
  8
0
 10
154.55000000000001
 20
185.99249971493691
 30
0.0
 11
154.550000000003
 21
185.5
 31
0.0
  0
POLYLINE
  5
1A6A
  8
0
 66
     1
 10
0.0
 20
0.0
 30
0.0
  0
VERTEX
  5
2D3B
  8
0
 10
154.3117819059477
 20
185.5
 30
0.0
  0
VERTEX
  5
2D3C
  8
0
 10
153.5713068140565
 20
185.7304807625903
 30
0.0
  0
VERTEX
  5
2D3D
  8
0
 10
152.84180294371799
 20
185.91145426258311
 30
0.0
  0
VERTEX
  5
2D3E
  8
0
 10
152.0786284949948
 20
186.05270457424589
 30
0.0
  0
VERTEX
  5
2D3F
  8
0
 10
151.29529043415201
 20
186.14825323202541
 30
0.0
  0
VERTEX
  5
2D40
  8
0
 10
150.52872730714341
 20
186.19435172140831
 30
0.0
  0
VERTEX
  5
2D41
  8
0
 10
149.75358087276169
 20
186.19381155821841
 30
0.0
  0
VERTEX
  5
2D42
  8
0
 10
148.96333503290401
 20
186.14443855044061
 30
0.0
  0
VERTEX
  5
2D43
  8
0
 10
148.17622394756381
 20
186.04568483961029
 30
0.0
  0
VERTEX
  5
2D44
  8
0
 10
147.62549849840161
 20
185.9465459964978
 30
0.0
  0
VERTEX
  5
2D45
  8
0
 10
147.08423878926291
 20
185.82441106904261
 30
0.0
  0
VERTEX
  5
2D46
  8
0
 10
146.55038312964689
 20
185.67919366734401
 30
0.0
  0
VERTEX
  5
2D47
  8
0
 10
145.9891603893557
 20
185.5
 30
0.0
  0
SEQEND
  5
2D48
  8
0
  0
LINE
  5
1A6B
  8
0
 10
145.7499999999973
 20
185.49999999999989
 30
0.0
 11
145.75
 21
185.99249971493691
 31
0.0
  0
POLYLINE
  5
1A6C
  8
0
 66
     1
 10
0.0
 20
0.0
 30
0.0
  0
VERTEX
  5
2D49
  8
0
 10
145.01099746572871
 20
186.0319110671968
 30
0.0
  0
VERTEX
  5
2D4A
  8
0
 10
145.20762290055629
 20
186.09870707929511
 30
0.0
  0
VERTEX
  5
2D4B
  8
0
 10
145.41655835354749
 20
186.13496034416389
 30
0.0
  0
VERTEX
  5
2D4C
  8
0
 10
145.5209431538741
 20
186.1365133316894
 30
0.0
  0
VERTEX
  5
2D4D
  8
0
 10
145.62690944356811
 20
186.11990936825069
 30
0.0
  0
VERTEX
  5
2D4E
  8
0
 10
145.68929350188509
 20
186.0932574314356
 30
0.0
  0
VERTEX
  5
2D4F
  8
0
 10
145.7227743487831
 20
186.0654395016924
 30
0.0
  0
VERTEX
  5
2D50
  8
0
 10
145.7416212235988
 20
186.0355497522356
 30
0.0
  0
VERTEX
  5
2D51
  8
0
 10
145.7497459067867
 20
186.00043732753531
 30
0.0
  0
VERTEX
  5
2D52
  8
0
 10
145.75
 20
185.99249971493691
 30
0.0
  0
SEQEND
  5
2D53
  8
0
  0
POLYLINE
  5
1A6D
  8
0
 66
     1
 10
0.0
 20
0.0
 30
0.0
  0
VERTEX
  5
2D54
  8
0
 10
145.75
 20
161.0075002850632
 30
0.0
  0
VERTEX
  5
2D55
  8
0
 10
145.74635312006231
 20
160.97840064635059
 30
0.0
  0
VERTEX
  5
2D56
  8
0
 10
145.73175442020479
 20
160.946210984369
 30
0.0
  0
VERTEX
  5
2D57
  8
0
 10
145.70316926995241
 20
160.91631217686569
 30
0.0
  0
VERTEX
  5
2D58
  8
0
 10
145.6454347677992
 20
160.8860458160118
 30
0.0
  0
VERTEX
  5
2D59
  8
0
 10
145.51423230129541
 20
160.86315275528159
 30
0.0
  0
VERTEX
  5
2D5A
  8
0
 10
145.3575406540219
 20
160.87130924584821
 30
0.0
  0
VERTEX
  5
2D5B
  8
0
 10
145.20079712254969
 20
160.90309919064791
 30
0.0
  0
VERTEX
  5
2D5C
  8
0
 10
145.01099746572871
 20
160.9680889328032
 30
0.0
  0
SEQEND
  5
2D5D
  8
0
  0
LINE
  5
1A6E
  8
0
 10
145.75
 20
161.0075002850632
 30
0.0
 11
145.75
 21
161.5
 31
0.0
  0
POLYLINE
  5
1A6F
  8
0
 66
     1
 10
0.0
 20
0.0
 30
0.0
  0
VERTEX
  5
2D5E
  8
0
 10
143.8899639470398
 20
161.5
 30
0.0
  0
VERTEX
  5
2D5F
  8
0
 10
144.0705500784598
 20
161.40558151880211
 30
0.0
  0
VERTEX
  5
2D60
  8
0
 10
144.53300820541551
 20
161.1792996701316
 30
0.0
  0
VERTEX
  5
2D61
  8
0
 10
145.01099746572871
 20
160.9680889328032
 30
0.0
  0
SEQEND
  5
2D62
  8
0
  0
POLYLINE
  5
1A70
  8
0
 66
     1
 10
0.0
 20
0.0
 30
0.0
  0
VERTEX
  5
2D63
  8
0
 10
145.01099746572871
 20
186.0319110671968
 30
0.0
  0
VERTEX
  5
2D64
  8
0
 10
144.5501924776452
 20
185.82868637557829
 30
0.0
  0
VERTEX
  5
2D65
  8
0
 10
144.10379067735229
 20
185.61142992927489
 30
0.0
  0
VERTEX
  5
2D66
  8
0
 10
143.88991954077031
 20
185.5
 30
0.0
  0
SEQEND
  5
2D67
  8
0
  0
LINE
  5
1A74
  8
0
 10
158.612269199216
 20
169.0
 30
0.0
 11
158.612269199216
 21
178.0
 31
0.0
  0
LINE
  5
1A75
  8
0
 10
141.68773080078401
 20
178.0
 30
0.0
 11
141.68773080078401
 21
169.0
 31
0.0
  0
ARC
  5
1A77
  8
0
 10
150.15000000000001
 20
173.5
 30
0.0
 40
13.55000000000005
 50
62.326540699037373
 51
117.67345930096261
  0
ARC
  5
1A79
  8
0
 10
150.15000000000001
 20
173.5
 30
0.0
 40
13.550000000000001
 50
152.3265406990395
 51
207.6734593009605
  0
ARC
  5
1A7B
  8
0
 10
150.15000000000001
 20
173.5
 30
0.0
 40
13.54999999999999
 50
242.32654069903731
 51
297.67345930096269
  0
LINE
  5
1A81
  8
0
 10
155.65000000000001
 20
169.0
 30
0.0
 11
155.65000000000001
 21
178.0
 31
0.0
  0
LINE
  5
1A82
  8
0
 10
144.65000000000001
 20
178.0
 30
0.0
 11
144.65000000000001
 21
169.0
 31
0.0
  0
POLYLINE
  5
1A84
  8
0
 66
     1
 10
0.0
 20
0.0
 30
0.0
  0
VERTEX
  5
2D68
  8
0
 10
244.84692515335209
 20
167.02727407866311
 30
0.0
  0
VERTEX
  5
2D69
  8
0
 10
245.17806115898691
 20
167.8737339363401
 30
0.0
  0
VERTEX
  5
2D6A
  8
0
 10
245.4596821930042
 20
168.7278783264984
 30
0.0
  0
VERTEX
  5
2D6B
  8
0
 10
245.6923883496415
 20
169.58651071684639
 30
0.0
  0
VERTEX
  5
2D6C
  8
0
 10
245.88182274934351
 20
170.47435809797111
 30
0.0
  0
VERTEX
  5
2D6D
  8
0
 10
246.02169969448499
 20
171.36316424085689
 30
0.0
  0
VERTEX
  5
2D6E
  8
0
 10
246.11237178609849
 20
172.243043032141
 30
0.0
  0
VERTEX
  5
2D6F
  8
0
 10
246.1313196775358
 20
172.5243270264248
 30
0.0
  0
VERTEX
  5
2D70
  8
0
 10
246.1407335130489
 20
172.7002115911082
 30
0.0
  0
VERTEX
  5
2D71
  8
0
 10
246.14678761256451
 20
172.83762477142761
 30
0.0
  0
VERTEX
  5
2D72
  8
0
 10
246.1488017002535
 20
172.8901786198694
 30
0.0
  0
VERTEX
  5
2D73
  8
0
 10
246.14980234686271
 20
172.9180532282987
 30
0.0
  0
VERTEX
  5
2D74
  8
0
 10
246.15000000000001
 20
172.92371881863079
 30
0.0
  0
SEQEND
  5
2D75
  8
0
  0
POLYLINE
  5
1A85
  8
0
 66
     1
 10
0.0
 20
0.0
 30
0.0
  0
VERTEX
  5
2D76
  8
0
 10
246.15000000000001
 20
174.0762811813693
 30
0.0
  0
VERTEX
  5
2D77
  8
0
 10
246.1496736473029
 20
174.0856063550201
 30
0.0
  0
VERTEX
  5
2D78
  8
0
 10
246.14835289640411
 20
174.1219172987114
 30
0.0
  0
VERTEX
  5
2D79
  8
0
 10
246.14539875589239
 20
174.1961223294459
 30
0.0
  0
VERTEX
  5
2D7A
  8
0
 10
246.14162436922979
 20
174.28108948935599
 30
0.0
  0
VERTEX
  5
2D7B
  8
0
 10
246.11656456441969
 20
174.6987803190336
 30
0.0
  0
VERTEX
  5
2D7C
  8
0
 10
246.07932255270259
 20
175.1351134360406
 30
0.0
  0
VERTEX
  5
2D7D
  8
0
 10
245.92151526930201
 20
176.30293933659939
 30
0.0
  0
VERTEX
  5
2D7E
  8
0
 10
245.6772473730511
 20
177.47428725716659
 30
0.0
  0
VERTEX
  5
2D7F
  8
0
 10
245.34528585949371
 20
178.63819468460269
 30
0.0
  0
VERTEX
  5
2D80
  8
0
 10
245.11155939450069
 20
179.3077414112901
 30
0.0
  0
VERTEX
  5
2D81
  8
0
 10
244.84692515335209
 20
179.97272592133689
 30
0.0
  0
SEQEND
  5
2D82
  8
0
  0
LINE
  5
1A86
  8
0
 10
246.15000000000001
 20
172.9237188186307
 30
0.0
 11
246.15000000000001
 21
174.0762811813693
 31
0.0
  0
LINE
  5
1A87
  8
0
 10
203.65000000000001
 20
160.5
 30
0.0
 11
181.28999999999999
 21
161.5
 31
0.0
  0
LINE
  5
1A88
  8
0
 10
181.28999999999991
 20
185.5
 30
0.0
 11
203.65000000000001
 21
186.5
 31
0.0
  0
LINE
  5
1A89
  8
0
 10
229.4782548476455
 20
190.09999999999999
 30
0.0
 11
203.65000000000001
 21
186.5
 31
0.0
  0
LINE
  5
1A8A
  8
0
 10
203.65000000000001
 20
160.5
 30
0.0
 11
229.4782548476455
 21
156.90000000000001
 31
0.0
  0
LINE
  5
1A8C
  8
0
 10
230.126281181369
 20
156.90000000000001
 30
0.0
 11
229.4782548476455
 21
156.90000000000001
 31
0.0
  0
POLYLINE
  5
1A8D
  8
0
 66
     1
 10
0.0
 20
0.0
 30
0.0
  0
VERTEX
  5
2D83
  8
0
 10
230.12628118136911
 20
156.90000000000001
 30
0.0
  0
VERTEX
  5
2D84
  8
0
 10
231.11750428776261
 20
156.9642197384546
 30
0.0
  0
VERTEX
  5
2D85
  8
0
 10
232.09572082052989
 20
157.08633575192559
 30
0.0
  0
VERTEX
  5
2D86
  8
0
 10
233.0562065763545
 20
157.26427964505649
 30
0.0
  0
VERTEX
  5
2D87
  8
0
 10
234.0257170363297
 20
157.50444030374729
 30
0.0
  0
VERTEX
  5
2D88
  8
0
 10
234.97259674947719
 20
157.8001469087628
 30
0.0
  0
VERTEX
  5
2D89
  8
0
 10
235.8931193228469
 20
158.14887830625639
 30
0.0
  0
VERTEX
  5
2D8A
  8
0
 10
236.75842395683779
 20
158.53572072918089
 30
0.0
  0
VERTEX
  5
2D8B
  8
0
 10
237.5968460090406
 20
158.96936740985819
 30
0.0
  0
VERTEX
  5
2D8C
  8
0
 10
238.4058949166444
 20
159.44776796286959
 30
0.0
  0
VERTEX
  5
2D8D
  8
0
 10
239.20302553858889
 20
159.98295261425761
 30
0.0
  0
VERTEX
  5
2D8E
  8
0
 10
239.967756100939
 20
160.56315998056931
 30
0.0
  0
VERTEX
  5
2D8F
  8
0
 10
240.69778451228149
 20
161.18663326024381
 30
0.0
  0
VERTEX
  5
2D90
  8
0
 10
241.44071674830161
 20
161.9024860855512
 30
0.0
  0
VERTEX
  5
2D91
  8
0
 10
242.14150748470411
 20
162.66738962370519
 30
0.0
  0
VERTEX
  5
2D92
  8
0
 10
242.79696357450089
 20
163.47951817247051
 30
0.0
  0
VERTEX
  5
2D93
  8
0
 10
243.42484593638849
 20
164.36880793588719
 30
0.0
  0
VERTEX
  5
2D94
  8
0
 10
243.9998492118383
 20
165.3090318027339
 30
0.0
  0
VERTEX
  5
2D95
  8
0
 10
244.51701685592079
 20
166.29718760243031
 30
0.0
  0
VERTEX
  5
2D96
  8
0
 10
244.84692515335209
 20
167.02727407866311
 30
0.0
  0
SEQEND
  5
2D97
  8
0
  0
POLYLINE
  5
1A8F
  8
0
 66
     1
 10
0.0
 20
0.0
 30
0.0
  0
VERTEX
  5
2D98
  8
0
 10
244.84692515335209
 20
179.97272592133689
 30
0.0
  0
VERTEX
  5
2D99
  8
0
 10
244.34182729470641
 20
181.0554720281917
 30
0.0
  0
VERTEX
  5
2D9A
  8
0
 10
243.7671270112584
 20
182.0874680042275
 30
0.0
  0
VERTEX
  5
2D9B
  8
0
 10
243.1284910578932
 20
183.06529951670751
 30
0.0
  0
VERTEX
  5
2D9C
  8
0
 10
242.4315861894957
 20
183.985552232895
 30
0.0
  0
VERTEX
  5
2D9D
  8
0
 10
241.6820791609511
 20
184.84481182005311
 30
0.0
  0
VERTEX
  5
2D9E
  8
0
 10
240.88542220334341
 20
185.64064910844741
 30
0.0
  0
VERTEX
  5
2D9F
  8
0
 10
240.03726020425191
 20
186.3801514664251
 30
0.0
  0
VERTEX
  5
2DA0
  8
0
 10
239.14134597064481
 20
187.0604942551719
 30
0.0
  0
VERTEX
  5
2DA1
  8
0
 10
238.20143230949
 20
187.67885283587361
 30
0.0
  0
VERTEX
  5
2DA2
  8
0
 10
237.2212720277555
 20
188.2324025697161
 30
0.0
  0
VERTEX
  5
2DA3
  8
0
 10
236.26581759433449
 20
188.69109916597441
 30
0.0
  0
VERTEX
  5
2DA4
  8
0
 10
235.2727437523923
 20
189.09136366734629
 30
0.0
  0
VERTEX
  5
2DA5
  8
0
 10
234.2470389415974
 20
189.43001433868619
 30
0.0
  0
VERTEX
  5
2DA6
  8
0
 10
233.1936916016187
 20
189.70386944484849
 30
0.0
  0
VERTEX
  5
2DA7
  8
0
 10
232.11769017212501
 20
189.9097472506875
 30
0.0
  0
VERTEX
  5
2DA8
  8
0
 10
231.02402309278509
 20
190.04446602105779
 30
0.0
  0
VERTEX
  5
2DA9
  8
0
 10
230.12628118136951
 20
190.09999999999999
 30
0.0
  0
SEQEND
  5
2DAA
  8
0
  0
LINE
  5
1A90
  8
0
 10
230.126281181369
 20
190.09999999999999
 30
0.0
 11
229.4782548476455
 21
190.09999999999999
 31
0.0
  0
LINE
  5
1A91
  8
0
 10
138.15000000000001
 20
169.0
 30
0.0
 11
159.65000000000001
 21
169.0
 31
0.0
  0
LINE
  5
1A92
  8
0
 10
159.65000000000001
 20
178.0
 30
0.0
 11
138.15000000000001
 21
178.0
 31
0.0
  0
POLYLINE
  5
1A93
  8
0
 66
     1
 10
0.0
 20
0.0
 30
0.0
  0
VERTEX
  5
2DAB
  8
0
 10
159.65000000000001
 20
178.0
 30
0.0
  0
VERTEX
  5
2DAC
  8
0
 10
159.82711734570029
 20
177.98409277634241
 30
0.0
  0
VERTEX
  5
2DAD
  8
0
 10
159.9998679948439
 20
177.9367990105589
 30
0.0
  0
VERTEX
  5
2DAE
  8
0
 10
160.16338610507131
 20
177.8580130237427
 30
0.0
  0
VERTEX
  5
2DAF
  8
0
 10
160.31183718070741
 20
177.74964761470531
 30
0.0
  0
VERTEX
  5
2DB0
  8
0
 10
160.4337314188505
 20
177.62088166811481
 30
0.0
  0
VERTEX
  5
2DB1
  8
0
 10
160.5322028744344
 20
177.4708695024523
 30
0.0
  0
VERTEX
  5
2DB2
  8
0
 10
160.59866520206489
 20
177.31588833707841
 30
0.0
  0
VERTEX
  5
2DB3
  8
0
 10
160.63855157412331
 20
177.1508833499706
 30
0.0
  0
VERTEX
  5
2DB4
  8
0
 10
160.65000000000009
 20
177.0
 30
0.0
  0
SEQEND
  5
2DB5
  8
0
  0
LINE
  5
1A94
  8
0
 10
160.65000000000001
 20
170.0
 30
0.0
 11
160.65000000000001
 21
177.0
 31
0.0
  0
POLYLINE
  5
1A95
  8
0
 66
     1
 10
0.0
 20
0.0
 30
0.0
  0
VERTEX
  5
2DB6
  8
0
 10
160.65000000000001
 20
170.0
 30
0.0
  0
VERTEX
  5
2DB7
  8
0
 10
160.63700857061821
 20
169.83997713608269
 30
0.0
  0
VERTEX
  5
2DB8
  8
0
 10
160.59894239517581
 20
169.68455058941581
 30
0.0
  0
VERTEX
  5
2DB9
  8
0
 10
160.5369683517946
 20
169.53836554426451
 30
0.0
  0
VERTEX
  5
2DBA
  8
0
 10
160.4536112551848
 20
169.40484543978869
 30
0.0
  0
VERTEX
  5
2DBB
  8
0
 10
160.34880254210401
 20
169.2847963799241
 30
0.0
  0
VERTEX
  5
2DBC
  8
0
 10
160.2278313026589
 20
169.18384377373721
 30
0.0
  0
VERTEX
  5
2DBD
  8
0
 10
160.0859379814913
 20
169.10010869976981
 30
0.0
  0
VERTEX
  5
2DBE
  8
0
 10
159.9339497045099
 20
169.04116082406449
 30
0.0
  0
VERTEX
  5
2DBF
  8
0
 10
159.65000000000001
 20
169.0
 30
0.0
  0
SEQEND
  5
2DC0
  8
0
  0
LINE
  5
1A98
  8
0
 10
181.28999999999999
 20
185.5
 30
0.0
 11
138.15000000000001
 21
185.5
 31
0.0
  0
LINE
  5
1A99
  8
0
 10
138.15000000000001
 20
185.5
 30
0.0
 11
138.15000000000001
 21
178.0
 31
0.0
  0
LINE
  5
1A9B
  8
0
 10
138.15000000000001
 20
169.0
 30
0.0
 11
138.15000000000001
 21
161.5
 31
0.0
  0
LINE
  5
1A9C
  8
0
 10
138.15000000000001
 20
161.5
 30
0.0
 11
181.28999999999999
 21
161.5
 31
0.0
  0
CIRCLE
  5
1B59
  8
0
 10
150.15000000000001
 20
173.5
 30
0.0
 40
4.0
  0
ARC
  5
1B5A
  8
3
 10
150.15000000000001
 20
173.5
 30
0.0
 40
3.323499999999739
 50
100.4007820932385
 51
259.5992179067614
  0
LINE
  5
1C2C
  8
3
 10
70.788000000000082
 20
25.108000000000061
 30
0.0
 11
70.788000000000082
 21
74.999999999999943
 31
0.0
  0
LINE
  5
1C2D
  8
3
 10
62.411999999999878
 20
25.108000000000121
 30
0.0
 11
62.411999999999907
 21
74.999999999999943
 31
0.0
  0
LINE
  5
1D90
  8
0
 10
163.69999999999999
 20
77.0
 30
0.0
 11
136.59999999999999
 21
77.0
 31
0.0
  0
LINE
  5
1D92
  8
0
 10
80.149999999999977
 20
77.0
 30
0.0
 11
53.049999999999997
 21
77.0
 31
0.0
  0
LINE
  5
25D9
  8
0
 10
62.621192042556743
 20
98.500000000000057
 30
0.0
 11
62.100000000000023
 21
98.500000000000057
 31
0.0
  0
LINE
  5
25DA
  8
0
 10
71.100000000000023
 20
98.500000000000057
 30
0.0
 11
70.578807957443303
 21
98.500000000000057
 31
0.0
  0
POLYLINE
  5
2624
  8
0
 66
     1
 10
0.0
 20
0.0
 30
0.0
 70
   128
  0
VERTEX
  5
2DC1
  8
0
 10
70.595818350203672
 20
87.501760100425457
 30
0.0
  0
VERTEX
  5
2DC2
  8
0
 10
70.595818350203672
 20
87.501760100425457
 30
0.0
  0
VERTEX
  5
2DC3
  8
0
 10
70.439144782496498
 20
87.566836931038566
 30
0.0
  0
VERTEX
  5
2DC4
  8
0
 10
70.081030945458508
 20
87.708933140591384
 30
0.0
  0
VERTEX
  5
2DC5
  8
0
 10
69.535246497315029
 20
87.906000000000063
 30
0.0
  0
SEQEND
  5
2DC6
  8
0
  0
ARC
  5
2625
  8
0
 10
66.600000000000023
 20
83.501531375413776
 30
0.0
 40
5.2929212978245861
 50
56.319533132280732
 51
123.6804668677192
  0
ARC
  5
2626
  8
0
 10
68.813372293127259
 20
72.807462268405544
 30
0.0
 40
15.952244891603121
 50
108.82943550595429
 51
112.9224877817912
  0
POLYLINE
  5
2627
  8
0
 66
     1
 10
0.0
 20
0.0
 30
0.0
 70
   128
  0
VERTEX
  5
2DC7
  8
0
 10
62.621192042556743
 20
98.500000000000057
 30
0.0
  0
VERTEX
  5
2DC8
  8
0
 10
62.621192042556743
 20
98.500000000000057
 30
0.0
  0
VERTEX
  5
2DC9
  8
0
 10
62.760855217503547
 20
98.433163068961576
 30
0.0
  0
VERTEX
  5
2DCA
  8
0
 10
63.118969054541537
 20
98.291066859408744
 30
0.0
  0
VERTEX
  5
2DCB
  8
0
 10
63.664753502685009
 20
98.094000000000065
 30
0.0
  0
SEQEND
  5
2DCC
  8
0
  0
ARC
  5
2628
  8
0
 10
66.600000000000023
 20
102.49846862458639
 30
0.0
 40
5.2929212978246607
 50
236.31953313228081
 51
303.68046686771919
  0
ARC
  5
2629
  8
0
 10
65.971094942085159
 20
108.79926960992211
 30
0.0
 40
11.28299489186133
 50
288.41437026342521
 51
294.1029067751515
  0
LINE
  5
297B
  8
0
 10
150.75
 20
177.45474398665701
 30
0.0
 11
150.75
 21
169.54525601334299
 31
0.0
  0
LINE
  5
297C
  8
0
 10
149.55000000000001
 20
177.45474398665701
 30
0.0
 11
149.55000000000001
 21
169.54525601334299
 31
0.0
  0
ARC
  5
297D
  8
3
 10
150.15000000000001
 20
173.5
 30
0.0
 40
3.323499999999739
 50
280.40078209323849
 51
79.599217906761453
  0
LINE
  5
2A58
  8
3
 10
63.276500000000247
 20
87.767982389420055
 30
0.0
 11
63.276500000000247
 21
87.500000000000057
 31
0.0
  0
LINE
  5
2A59
  8
3
 10
69.923499999999734
 20
87.765812974355114
 30
0.0
 11
69.923499999999734
 21
87.500000000000057
 31
0.0
  0
LINE
  5
2A60
  8
0
 10
62.099999999999987
 20
87.500000000000057
 30
0.0
 11
71.099999999999994
 21
87.500000000000057
 31
0.0
  0
ENDSEC
  0
EOF
