  0
SECTION
  2
HEADER
  9
$ACADVER
  1
AC1009
  9
$INSBASE
 10
0.0
 20
0.0
 30
0.0
  9
$EXTMIN
 10
0.0
 20
-2.960436562073669
 30
0.0
  9
$EXTMAX
 10
146.4000018356418877
 20
118.5475993210084056
 30
0.0
  9
$LIMMIN
 10
0.0
 20
0.0
  9
$LIMMAX
 10
375.0
 20
270.0
  9
$ORTHOMODE
 70
     0
  9
$REGENMODE
 70
     1
  9
$FILLMODE
 70
     1
  9
$QTEXTMODE
 70
     0
  9
$MIRRTEXT
 70
     0
  9
$DRAGMODE
 70
     2
  9
$LTSCALE
 40
5.0
  9
$OSMODE
 70
    37
  9
$ATTMODE
 70
     1
  9
$TEXTSIZE
 40
0.2
  9
$TRACEWID
 40
0.05
  9
$TEXTSTYLE
  7
STANDARD
  9
$CLAYER
  8
0
  9
$CELTYPE
  6
BYLAYER
  9
$CECOLOR
 62
   256
  9
$DIMSCALE
 40
1.0
  9
$DIMASZ
 40
3.0
  9
$DIMEXO
 40
2.0
  9
$DIMDLI
 40
10.0
  9
$DIMRND
 40
0.0
  9
$DIMDLE
 40
0.0
  9
$DIMEXE
 40
2.0
  9
$DIMTP
 40
0.0
  9
$DIMTM
 40
0.0
  9
$DIMTXT
 40
3.2000000000000002
  9
$DIMCEN
 40
0.09
  9
$DIMTSZ
 40
0.0
  9
$DIMTOL
 70
     0
  9
$DIMLIM
 70
     0
  9
$DIMTIH
 70
     0
  9
$DIMTOH
 70
     0
  9
$DIMSE1
 70
     0
  9
$DIMSE2
 70
     0
  9
$DIMTAD
 70
     1
  9
$DIMZIN
 70
     8
  9
$DIMBLK
  1

  9
$DIMASO
 70
     0
  9
$DIMSHO
 70
     0
  9
$DIMPOST
  1

  9
$DIMAPOST
  1

  9
$DIMALT
 70
     0
  9
$DIMALTD
 70
     2
  9
$DIMALTF
 40
25.3999999999999986
  9
$DIMLFAC
 40
1.0
  9
$DIMTOFL
 70
     1
  9
$DIMTVP
 40
1.6000000000000001
  9
$DIMTIX
 70
     0
  9
$DIMSOXD
 70
     0
  9
$DIMSAH
 70
     0
  9
$DIMBLK1
  1

  9
$DIMBLK2
  1

  9
$DIMSTYLE
  2
STANDARD
  9
$DIMCLRD
 70
     0
  9
$DIMCLRE
 70
     0
  9
$DIMCLRT
 70
     0
  9
$DIMTFAC
 40
1.0
  9
$DIMGAP
 40
0.09
  9
$LUNITS
 70
     2
  9
$LUPREC
 70
     1
  9
$SKETCHINC
 40
0.1
  9
$FILLETRAD
 40
0.0
  9
$AUNITS
 70
     0
  9
$AUPREC
 70
     0
  9
$MENU
  1
E:\r13\win\SUPPORT\ACAD
  9
$ELEVATION
 40
0.0
  9
$PELEVATION
 40
0.0
  9
$THICKNESS
 40
0.0
  9
$LIMCHECK
 70
     0
  9
$BLIPMODE
 70
     0
  9
$CHAMFERA
 40
0.0
  9
$CHAMFERB
 40
0.0
  9
$SKPOLY
 70
     0
  9
$TDCREATE
 40
2449840.6171180559322238
  9
$TDUPDATE
 40
2460566.521365740802139
  9
$TDINDWG
 40
0.1875796528
  9
$TDUSRTIMER
 40
0.1875796528
  9
$USRTIMER
 70
     1
  9
$ANGBASE
 50
0.0
  9
$ANGDIR
 70
     0
  9
$PDMODE
 70
     0
  9
$PDSIZE
 40
0.0
  9
$PLINEWID
 40
0.0
  9
$COORDS
 70
     1
  9
$SPLFRAME
 70
     0
  9
$SPLINETYPE
 70
     6
  9
$SPLINESEGS
 70
     8
  9
$ATTDIA
 70
     1
  9
$ATTREQ
 70
     1
  9
$HANDLING
 70
     1
  9
$HANDSEED
  5
23FA
  9
$SURFTAB1
 70
     6
  9
$SURFTAB2
 70
     6
  9
$SURFTYPE
 70
     6
  9
$SURFU
 70
     6
  9
$SURFV
 70
     6
  9
$UCSNAME
  2

  9
$UCSORG
 10
0.0
 20
0.0
 30
0.0
  9
$UCSXDIR
 10
1.0
 20
0.0
 30
0.0
  9
$UCSYDIR
 10
0.0
 20
1.0
 30
0.0
  9
$PUCSNAME
  2

  9
$PUCSORG
 10
0.0
 20
0.0
 30
0.0
  9
$PUCSXDIR
 10
1.0
 20
0.0
 30
0.0
  9
$PUCSYDIR
 10
0.0
 20
1.0
 30
0.0
  9
$USERI1
 70
     0
  9
$USERI2
 70
     1
  9
$USERI3
 70
     0
  9
$USERI4
 70
     0
  9
$USERI5
 70
     0
  9
$USERR1
 40
0.0
  9
$USERR2
 40
0.0
  9
$USERR3
 40
0.0
  9
$USERR4
 40
0.0
  9
$USERR5
 40
0.0
  9
$WORLDVIEW
 70
     1
  9
$SHADEDGE
 70
     3
  9
$SHADEDIF
 70
    70
  9
$TILEMODE
 70
     1
  9
$MAXACTVP
 70
    16
  9
$PLIMCHECK
 70
     0
  9
$PEXTMIN
 10
1.0000000000000000E+20
 20
1.0000000000000000E+20
 30
1.0000000000000000E+20
  9
$PEXTMAX
 10
-1.0000000000000000E+20
 20
-1.0000000000000000E+20
 30
-1.0000000000000000E+20
  9
$PLIMMIN
 10
0.0
 20
0.0
  9
$PLIMMAX
 10
12.0
 20
9.0
  9
$UNITMODE
 70
     0
  9
$VISRETAIN
 70
     0
  9
$PLINEGEN
 70
     0
  9
$PSLTSCALE
 70
     0
  0
ENDSEC
  0
SECTION
  2
TABLES
  0
TABLE
  2
VPORT
 70
     1
  0
VPORT
  2
*ACTIVE
 70
     0
 10
0.0
 20
0.0
 11
1.0
 21
1.0
 12
99.2701474706768892
 22
60.7563885898508786
 13
0.0
 23
0.0
 14
10.0
 24
10.0
 15
10.0
 25
10.0
 16
0.0
 26
0.0
 36
1.0
 17
0.0
 27
0.0
 37
0.0
 40
128.4727693240560882
 41
2.3485221674876842
 42
50.0
 43
0.0
 44
0.0
 50
0.0
 51
0.0
 71
     0
 72
   100
 73
     1
 74
     0
 75
     0
 76
     0
 77
     0
 78
     0
  0
ENDTAB
  0
TABLE
  2
LTYPE
 70
     4
  0
LTYPE
  2
CONTINUOUS
 70
     0
  3
Solid Line
 72
    65
 73
     0
 40
0.0
  0
LTYPE
  2
CENTER
 70
     0
  3
____ _ ____ _ ____ _ ____ _ ____ _ ____ _ ____
 72
    65
 73
     4
 40
2.0
 49
1.25
 49
-0.25
 49
0.25
 49
-0.25
  0
LTYPE
  2
PHANTOM2
 70
     0
  3
___ _ _ ___ _ _ ___ _ _ ___ _ _
 72
    65
 73
     6
 40
1.25
 49
0.625
 49
-0.125
 49
0.125
 49
-0.125
 49
0.125
 49
-0.125
  0
LTYPE
  2
HIDDEN
 70
     0
  3
Hidden __ __ __ __ __ __ __ __ __ __ __ __ __ _
 72
    65
 73
     2
 40
0.375
 49
0.25
 49
-0.125
  0
ENDTAB
  0
TABLE
  2
LAYER
 70
     5
  0
LAYER
  2
0
 70
     0
 62
     7
  6
CONTINUOUS
  0
LAYER
  2
1
 70
     0
 62
     1
  6
CENTER
  0
LAYER
  2
3
 70
     0
 62
     3
  6
CONTINUOUS
  0
LAYER
  2
DEFPOINTS
 70
     0
 62
     7
  6
CONTINUOUS
  0
LAYER
  2
2
 70
     0
 62
     2
  6
HIDDEN
  0
ENDTAB
  0
TABLE
  2
STYLE
 70
     2
  0
STYLE
  2
STANDARD
 70
     0
 40
0.0
 41
1.0
 50
0.0
 71
     0
 42
0.2
  3
TXT
  4
BIGFONT
  0
STYLE
  2
STANDARD1
 70
     0
 40
0.0
 41
1.0
 50
0.0
 71
     0
 42
3.0
  3
txt
  4

  0
ENDTAB
  0
TABLE
  2
VIEW
 70
     1
  0
VIEW
  2
ALL
 70
     0
 40
270.0
 10
220.9915970000000129
 20
135.0
 41
0.0
 11
0.0
 21
0.0
 31
1.0
 12
0.0
 22
0.0
 32
0.0
 42
0.0
 43
0.0
 44
0.0
 50
0.0
 71
     0
  0
ENDTAB
  0
TABLE
  2
UCS
 70
     0
  0
ENDTAB
  0
TABLE
  2
APPID
 70
     6
  0
APPID
  2
ACAD
 70
     0
  0
APPID
  2
ACAD_EXEMPT_FROM_CAD_STANDARDS
 70
     0
  0
APPID
  2
ACAD_MLEADERVER
 70
     0
  0
APPID
  2
ACAD_NAV_VCDISPLAY
 70
     0
  0
APPID
  2
ACAD_DSTYLE_DIMJAG
 70
     0
  0
APPID
  2
ACAD_DSTYLE_DIMTALN
 70
     0
  0
ENDTAB
  0
TABLE
  2
DIMSTYLE
 70
     1
  0
DIMSTYLE
  2
STANDARD
 70
     0
  3

  4

  5

  6

  7

 40
1.0
 41
0.18
 42
0.0625
 43
0.38
 44
0.18
 45
0.0
 46
0.0
 47
0.0
 48
0.0
140
0.18
141
0.09
142
0.0
143
25.3999999999999986
144
1.0
145
0.0
146
1.0
147
0.09
 71
     0
 72
     0
 73
     1
 74
     1
 75
     0
 76
     0
 77
     0
 78
     0
170
     0
171
     2
172
     0
173
     0
174
     0
175
     0
176
     0
177
     0
178
     0
  0
ENDTAB
  0
ENDSEC
  0
SECTION
  2
BLOCKS
  0
BLOCK
  8
0
  2
$MODEL_SPACE
 70
     0
 10
0.0
 20
0.0
 30
0.0
  3
$MODEL_SPACE
  1

  0
ENDBLK
  5
E8
  8
0
  0
BLOCK
 67
     1
  8
0
  2
$PAPER_SPACE
 70
     0
 10
0.0
 20
0.0
 30
0.0
  3
$PAPER_SPACE
  1

  0
ENDBLK
  5
E6
 67
     1
  8
0
  0
ENDSEC
  0
SECTION
  2
ENTITIES
  0
TEXT
  5
E87
  8
0
 62
     3
 10
0.0
 20
0.0
 30
0.0
 40
10.0
  1
KCLS04AX10
  7
STANDARD1
  0
LINE
  5
10BE
  8
1
 10
57.1999999997016602
 20
76.5000000000260059
 30
0.0
 11
57.1999999998974715
 21
47.0000001259370421
 31
0.0
  0
LINE
  5
10C7
  8
1
 10
107.1999999998490978
 20
47.0000001259370421
 30
0.0
 11
107.1999999998712951
 21
76.5000001258466398
 31
0.0
  0
LINE
  5
2160
  8
0
 10
105.1999999998025999
 20
60.0000001259370279
 30
0.0
 11
105.1999999998520963
 21
50.4295001259340765
 31
0.0
  0
LINE
  5
2161
  8
0
 10
105.1999999998490978
 20
50.4295001259370395
 30
0.0
 11
105.629499999899096
 21
50.0000001259370279
 31
0.0
  0
LINE
  5
2162
  8
3
 10
105.5789999998504953
 20
60.0000001259370208
 30
0.0
 11
105.5789999998504953
 21
50.0505001259797311
 31
0.0
  0
LINE
  5
2163
  8
3
 10
108.8209999998477002
 20
60.0000001259370208
 30
0.0
 11
108.8209999998477002
 21
50.0505001258915598
 31
0.0
  0
LINE
  5
2164
  8
0
 10
105.1999999998991058
 20
50.4295001259369897
 30
0.0
 11
109.1999999998991058
 21
50.4295001259370608
 31
0.0
  0
LINE
  5
2165
  8
0
 10
109.1999999998490978
 20
50.4295001259370395
 30
0.0
 11
108.7704999998990019
 21
50.0000001259370279
 31
0.0
  0
LINE
  5
2166
  8
0
 10
108.7704999998991013
 20
50.0000001259370421
 30
0.0
 11
105.629499999899096
 21
50.0000001259370421
 31
0.0
  0
LINE
  5
2167
  8
0
 10
109.1999999998025999
 20
60.0000001259370279
 30
0.0
 11
109.1999999998520963
 21
50.4295001259399882
 31
0.0
  0
LINE
  5
2172
  8
0
 10
55.1999999997856534
 20
60.0000000000370477
 30
0.0
 11
55.1999999998351001
 21
50.4295000000370166
 31
0.0
  0
LINE
  5
2173
  8
3
 10
55.5789999998335205
 20
60.0000000000370477
 30
0.0
 11
55.5789999998335205
 21
50.0505000004053926
 31
0.0
  0
LINE
  5
2174
  8
3
 10
58.8209999998307609
 20
60.0000000000370477
 30
0.0
 11
58.8209999998307609
 21
50.0505000000121996
 31
0.0
  0
LINE
  5
2175
  8
0
 10
55.1999999996446107
 20
50.4295000000370166
 30
0.0
 11
59.1999999996445609
 21
50.4295000000370877
 31
0.0
  0
LINE
  5
2176
  8
0
 10
59.1999999998556206
 20
50.4295000000370877
 30
0.0
 11
58.7704999998556019
 21
50.0000000000370477
 31
0.0
  0
LINE
  5
2177
  8
0
 10
58.7704999998556019
 20
50.0000000000370406
 30
0.0
 11
55.629500000204537
 21
50.0000000000370477
 31
0.0
  0
LINE
  5
2178
  8
0
 10
59.1999999997856392
 20
60.0000000000370406
 30
0.0
 11
59.1999999998351001
 21
50.4295000000165672
 31
0.0
  0
LINE
  5
2179
  8
0
 10
55.2000000002343612
 20
50.4294999999847278
 30
0.0
 11
55.6295000002456419
 21
49.9999999999959286
 31
0.0
  0
ARC
  5
22AE
  8
3
 10
107.1999999998308937
 20
109.7975993098084047
 30
0.0
 40
1.6209999999999991
 50
284.2859425515185876
 51
75.7140574484813698
  0
CIRCLE
  5
22AF
  8
0
 10
107.1999999998308937
 20
109.7975993098084047
 30
0.0
 40
2.0
  0
LINE
  5
22B4
  8
0
 10
112.5499999998712042
 20
60.6000001258466199
 30
0.0
 11
112.5499999998712042
 21
62.800000125846843
 31
0.0
  0
LINE
  5
22B5
  8
0
 10
101.8499999998712013
 20
62.800000125846843
 30
0.0
 11
101.8499999998712013
 21
60.6000001258466199
 31
0.0
  0
LINE
  5
22B6
  8
0
 10
101.8499999998698939
 20
60.6000001258466199
 30
0.0
 11
102.4499999998699025
 21
60.0000001258466611
 31
0.0
  0
LINE
  5
22B7
  8
0
 10
111.9499999998726025
 20
60.0000001258466611
 30
0.0
 11
112.5499999998725968
 21
60.6000001258466199
 31
0.0
  0
LINE
  5
22B8
  8
0
 10
102.4499999998699025
 20
63.4000001258458425
 30
0.0
 11
101.8499999998709029
 21
62.800000125846843
 31
0.0
  0
LINE
  5
22B9
  8
0
 10
112.5499999998716021
 20
62.800000125846843
 30
0.0
 11
111.9499999998726025
 21
63.4000001258458425
 31
0.0
  0
LINE
  5
22BA
  8
0
 10
112.5499999998710052
 20
62.8000001258469567
 30
0.0
 11
108.991647286589
 21
62.8000001258469567
 31
0.0
  0
LINE
  5
22BB
  8
0
 10
105.4083527131537039
 20
62.8000001258468927
 30
0.0
 11
101.8499999998711019
 21
62.800000125846843
 31
0.0
  0
LINE
  5
22BC
  8
0
 10
101.8499999998712013
 20
60.6000001258466199
 30
0.0
 11
112.5499999998712042
 21
60.6000001258466199
 31
0.0
  0
LINE
  5
22BD
  8
0
 10
102.4499999998699025
 20
60.0000001258466611
 30
0.0
 11
111.9499999998726025
 21
60.0000001258466611
 31
0.0
  0
LINE
  5
22BE
  8
0
 10
104.1850373135356023
 20
63.4000001258462689
 30
0.0
 11
102.4499999998703004
 21
63.4000001258460628
 31
0.0
  0
LINE
  5
22BF
  8
0
 10
111.9499999998722046
 20
63.4000001258460628
 30
0.0
 11
110.2883956088089974
 21
63.4000001258462476
 31
0.0
  0
CIRCLE
  5
22C0
  8
0
 10
107.1999999998712951
 20
69.000000125846654
 30
0.0
 40
3.0000000000427458
  0
ARC
  5
22C1
  8
0
 10
125.6315225123065034
 20
-10.0915116143146992
 30
0.0
 40
79.7000000001292506
 50
82.0897321241978943
 51
83.6112823396196774
  0
LINE
  5
22C2
  8
0
 10
133.1999999998710962
 20
69.2503568038334265
 30
0.0
 11
134.4999999998711928
 21
69.1135394056370842
 31
0.0
  0
ARC
  5
22C3
  8
0
 10
129.7999999998710052
 20
30.7000001258459712
 30
0.0
 40
42.3000000000007006
 50
80.7491910297115538
 51
85.3896920845549801
  0
ARC
  5
22C4
  8
0
 10
129.7999999998712042
 20
30.7000001258510302
 30
0.0
 40
38.6999999999956401
 50
84.9597641405644595
 51
90.8883422500393436
  0
ARC
  5
22C5
  8
0
 10
129.7999999998712042
 20
30.7000001258462483
 30
0.0
 40
42.3000000000004022
 50
85.3896920845549801
 51
90.8127333472064322
  0
ARC
  5
22C6
  8
0
 10
129.7999999998710905
 20
30.7000001258530695
 30
0.0
 40
38.6999999999936009
 50
90.8883422500376952
 51
95.1132898591220766
  0
ARC
  5
22C7
  8
0
 10
129.7999999998710052
 20
30.7000001258458006
 30
0.0
 40
42.3000000000008711
 50
90.8127333472064322
 51
94.6771016110746473
  0
ARC
  5
22C8
  8
0
 10
141.9999999998717897
 20
68.9310311319101174
 30
0.0
 40
0.9999999999989171
 50
258.4630409612634026
 51
323.1301023541897735
  0
LINE
  5
22C9
  8
0
 10
142.7050847882063067
 20
70.9833563242306695
 30
0.0
 11
142.7999999998712894
 21
70.947546270902194
 31
0.0
  0
ARC
  5
22CA
  8
0
 10
125.6275810047250019
 20
-10.1143128147444408
 30
0.0
 40
79.7231266849835976
 50
78.2959033303234122
 51
82.0891815719912046
  0
ARC
  5
22CB
  8
0
 10
129.7990725083276118
 20
30.6961389343747904
 30
0.0
 40
42.3039600745117497
 50
72.2371366137183344
 51
80.7487918698480343
  0
ARC
  5
22CC
  8
0
 10
113.6143229176073959
 20
121.0798951965160057
 30
0.0
 40
49.6999999999904389
 50
277.6145784739355236
 51
283.4803703897890159
  0
LINE
  5
22CD
  8
0
 10
121.9999999998713065
 20
68.0000001258466114
 30
0.0
 11
120.1999999998707978
 21
67.6750162250252743
 31
0.0
  0
ARC
  5
22CE
  8
0
 10
129.8997509749669916
 20
49.8399631609792522
 30
0.0
 40
19.8038634623115115
 50
102.5397435605685956
 51
113.5093981044690992
  0
LINE
  5
22CF
  8
0
 10
125.5999999998712013
 20
69.171418087757047
 30
0.0
 11
126.3508498066648968
 21
69.2459903575776821
 31
0.0
  0
LINE
  5
22D0
  8
0
 10
125.1999999998713946
 20
72.7491380480443013
 30
0.0
 11
126.3508498066648968
 21
72.8591434158223592
 31
0.0
  0
ARC
  5
22D1
  8
0
 10
112.164474795356
 20
117.3290224550092944
 30
0.0
 40
50.2999999999968779
 50
275.0589938723127261
 51
279.192501256591413
  0
ARC
  5
22D2
  8
0
 10
118.499999999871207
 20
57.0000001258467677
 30
0.0
 40
10.3999999999998796
 50
100.5266185500537972
 51
122.5789703928047061
  0
ARC
  5
22D3
  8
0
 10
117.6960669942886
 20
91.2394764227909576
 30
0.0
 40
20.0000000000006004
 50
245.8075178616429923
 51
257.3025169558638936
  0
ARC
  5
22D4
  8
0
 10
116.2999999998712042
 20
91.3000001258461538
 30
0.0
 40
19.7999999999995104
 50
261.285257981381676
 51
275.7973395408441206
  0
ARC
  5
22D5
  8
0
 10
116.6130702486813959
 20
60.5507777848105135
 30
0.0
 40
6.4000000000000021
 50
125.4623053106660961
 51
143.026829130637708
  0
ARC
  5
22D6
  8
0
 10
107.1999999998712951
 20
68.0000001258466682
 30
0.0
 40
5.5000000000000089
 50
65.2801488170775741
 51
293.5781784782021759
  0
ARC
  5
22D7
  8
0
 10
107.3647897443960062
 20
68.1762464291235801
 30
0.0
 40
5.6000000000000068
 50
291.3110188876880216
 51
317.5978810614338954
  0
ARC
  5
22D8
  8
0
 10
113.6143229176053069
 20
121.0798951965273034
 30
0.0
 40
49.7000000000019213
 50
275.4098357876877117
 51
277.614578473937172
  0
LINE
  5
22D9
  8
0
 10
142.9397934233597027
 20
68.5892880688244873
 30
0.0
 11
143.3397934233597084
 21
69.6892880688244531
 31
0.0
  0
ARC
  5
22DA
  8
0
 10
142.3999999999448107
 20
70.031031131959196
 30
0.0
 40
0.9999999999265298
 50
359.9999999972382057
 51
66.4218215245535788
  0
ARC
  5
22DB
  8
0
 10
142.4000000002455977
 20
70.0310311318451113
 30
0.0
 40
0.9999999996257145
 50
340.0168934743246041
 51
0.0000000037747332
  0
ARC
  5
22DC
  8
0
 10
141.9999999998817941
 20
68.9310311319056268
 30
0.0
 40
0.9999999999882255
 50
323.1301023540514166
 51
340.0168934781968915
  0
LINE
  5
22DD
  8
0
 10
62.5516269889113872
 20
60.6000000000259575
 30
0.0
 11
62.5516269889113872
 21
62.5000000000259988
 31
0.0
  0
LINE
  5
22DE
  8
0
 10
51.8516269889113701
 20
62.5000000000259988
 30
0.0
 11
51.8516269889113701
 21
60.6000000000259575
 31
0.0
  0
LINE
  5
22DF
  8
0
 10
51.8516269889100201
 20
60.6000000000259575
 30
0.0
 11
52.4516269889100428
 21
60.0000000000259988
 31
0.0
  0
LINE
  5
22E0
  8
0
 10
61.9516269889127713
 20
60.0000000000259988
 30
0.0
 11
62.5516269889127514
 21
60.6000000000259575
 31
0.0
  0
LINE
  5
22E6
  8
0
 10
51.4516269889114
 20
62.5000000000259988
 30
0.0
 11
51.8516269889113985
 21
62.5000000000259988
 31
0.0
  0
LINE
  5
22E7
  8
0
 10
55.1016269889113772
 20
73.5000000000260059
 30
0.0
 11
51.4516269889114
 21
73.5000000000260059
 31
0.0
  0
LINE
  5
22E8
  8
0
 10
62.5516269889113872
 20
62.5000000000259988
 30
0.0
 11
62.9516269889113929
 21
62.5000000000259988
 31
0.0
  0
LINE
  5
22E9
  8
0
 10
62.9516269889113929
 20
73.5000000000260059
 30
0.0
 11
59.3016269889114227
 21
73.5000000000260059
 31
0.0
  0
LINE
  5
22EA
  8
0
 10
64.180495202783149
 20
73.0000000000260059
 30
0.0
 11
62.9516269889114781
 21
73.0000000000260059
 31
0.0
  0
LINE
  5
22EB
  8
0
 10
59.3016269889114795
 20
73.0000000000260059
 30
0.0
 11
55.1016269889114909
 21
73.0000000000260059
 31
0.0
  0
LINE
  5
22EC
  8
0
 10
51.4516269889114781
 20
73.0000000000260059
 30
0.0
 11
50.2228690222872132
 21
73.0000000000260059
 31
0.0
  0
POLYLINE
  5
22ED
  8
0
 66
     1
 10
0.0
 20
0.0
 30
0.0
 70
   128
  0
VERTEX
  5
23CF
  8
0
 10
52.1784307952513515
 20
62.8000000000259035
 30
0.0
  0
VERTEX
  5
23D0
  8
0
 10
51.9902657967922011
 20
62.627629642342491
 30
0.0
  0
VERTEX
  5
23D1
  8
0
 10
51.8777576950173298
 20
62.5240945075107319
 30
0.0
  0
VERTEX
  5
23D2
  8
0
 10
51.8591552198244727
 20
62.506942125869692
 30
0.0
  0
SEQEND
  5
23D3
  8
0
  0
LINE
  5
22EE
  8
0
 10
62.2248231825711713
 20
62.8000000000262304
 30
0.0
 11
52.1784307952508328
 21
62.8000000000258325
 31
0.0
  0
POLYLINE
  5
22EF
  8
0
 66
     1
 10
0.0
 20
0.0
 30
0.0
 70
   128
  0
VERTEX
  5
23D4
  8
0
 10
62.5440987579983627
 20
62.506942125869692
 30
0.0
  0
VERTEX
  5
23D5
  8
0
 10
62.5494554247006675
 20
62.5020030201512427
 30
0.0
  0
VERTEX
  5
23D6
  8
0
 10
62.4837674526431286
 20
62.5625347165935395
 30
0.0
  0
VERTEX
  5
23D7
  8
0
 10
62.3779062359357184
 20
62.6598433671677668
 30
0.0
  0
VERTEX
  5
23D8
  8
0
 10
62.2248231825707094
 20
62.8000000000265786
 30
0.0
  0
SEQEND
  5
23D9
  8
0
  0
LINE
  5
22F0
  8
0
 10
51.8516269889113701
 20
60.6000000000259575
 30
0.0
 11
62.5516269889113872
 21
60.6000000000259575
 31
0.0
  0
LINE
  5
22F1
  8
0
 10
52.4516269889100428
 20
60.0000000000259988
 30
0.0
 11
61.9516269889127713
 21
60.0000000000259988
 31
0.0
  0
ARC
  5
22F2
  8
0
 10
53.5664635236172302
 20
44.2172148014534088
 30
0.0
 40
20.50090480247394
 50
65.0175669411488855
 51
68.9943813691666605
  0
ARC
  5
22F3
  8
0
 10
60.9111425070972103
 20
44.0420015494856472
 30
0.0
 40
20.6911275602054303
 50
111.0239061859532939
 51
114.9641455037255042
  0
POLYLINE
  5
22F4
  8
0
 66
     1
 10
0.0
 20
0.0
 30
0.0
 70
   128
  0
VERTEX
  5
23DA
  8
0
 10
53.4880464083909786
 20
63.3557376981976503
 30
0.0
  0
VERTEX
  5
23DB
  8
0
 10
53.6478206252844387
 20
63.3980209832948987
 30
0.0
  0
VERTEX
  5
23DC
  8
0
 10
53.6813287060991584
 20
63.4000000000331383
 30
0.0
  0
SEQEND
  5
23DD
  8
0
  0
LINE
  5
22F5
  8
0
 10
60.7219252717289208
 20
63.400000000025571
 30
0.0
 11
53.6813287060938791
 21
63.400000000025571
 31
0.0
  0
POLYLINE
  5
22F6
  8
0
 66
     1
 10
0.0
 20
0.0
 30
0.0
 70
   128
  0
VERTEX
  5
23DE
  8
0
 10
60.7219252717281819
 20
63.4000000000259689
 30
0.0
  0
VERTEX
  5
23DF
  8
0
 10
60.8338604578580231
 20
63.3824888265493982
 30
0.0
  0
VERTEX
  5
23E0
  8
0
 10
60.9152075694318427
 20
63.3557376981976503
 30
0.0
  0
SEQEND
  5
23E1
  8
0
  0
LINE
  5
22F8
  8
0
 10
55.1016269889113772
 20
63.4000000000251802
 30
0.0
 11
55.1016269889113772
 21
73.5000000000260059
 31
0.0
  0
LINE
  5
22F9
  8
0
 10
51.4516269889114
 20
73.5000000000260059
 30
0.0
 11
51.4516269889114
 21
62.5000000000259988
 31
0.0
  0
LINE
  5
22FA
  8
0
 10
62.9516269889113929
 20
62.5000000000259988
 30
0.0
 11
62.9516269889113929
 21
73.5000000000260059
 31
0.0
  0
LINE
  5
22FB
  8
0
 10
59.3016269889114227
 20
73.5000000000260059
 30
0.0
 11
59.3016269889114227
 21
63.4000000000251802
 31
0.0
  0
ARC
  5
2302
  8
0
 10
49.4499595393754632
 20
71.8273417493178101
 30
0.0
 40
2.0184888815780249
 50
7.4021520157146634
 51
27.1728467233967983
  0
ARC
  5
2303
  8
0
 10
64.9604393879604771
 20
71.8251197716841432
 30
0.0
 40
2.0258603966896618
 50
152.8635294200404928
 51
172.5616846229397083
  0
LINE
  5
2304
  8
0
 10
51.1016269889114128
 20
72.8591432900016969
 30
0.0
 11
51.2456736537796331
 21
72.7491379222236247
 31
0.0
  0
ARC
  5
2305
  8
0
 10
48.6987216901036319
 20
68.0207711543632456
 30
0.0
 40
2.753030868213119
 50
0.5472372592953345
 51
24.7056321063652184
  0
LINE
  5
2306
  8
0
 10
51.1997596517420419
 20
69.1714179619363847
 30
0.0
 11
51.1016269889114128
 21
69.2459902317570055
 31
0.0
  0
LINE
  5
2307
  8
0
 10
63.1575803240431384
 20
72.7491379222236247
 30
0.0
 11
63.3016269889114014
 21
72.8591432900016969
 31
0.0
  0
LINE
  5
2308
  8
0
 10
63.2034943260807012
 20
69.1714179619363847
 30
0.0
 11
63.3016269889113588
 21
69.2459902317570055
 31
0.0
  0
ARC
  5
2309
  8
0
 10
65.6986560013957757
 20
68.0220937703070661
 30
0.0
 40
2.7471399460940189
 50
155.2682038413690861
 51
179.4850912498104947
  0
POLYLINE
  5
230A
  8
0
 66
     1
 10
0.0
 20
0.0
 30
0.0
 70
   128
  0
VERTEX
  5
23E2
  8
0
 10
64.1016269889114909
 20
72.9957444668160349
 30
0.0
  0
VERTEX
  5
23E3
  8
0
 10
64.2319136719982993
 20
72.9981911572498063
 30
0.0
  0
VERTEX
  5
23E4
  8
0
 10
64.3255453241614106
 20
72.9772145742374221
 30
0.0
  0
VERTEX
  5
23E5
  8
0
 10
64.382332048616064
 20
72.9322520528901066
 30
0.0
  0
VERTEX
  5
23E6
  8
0
 10
64.4016269889113318
 20
72.8631355570501853
 30
0.0
  0
SEQEND
  5
23E7
  8
0
  0
ARC
  5
230B
  8
0
 10
64.7943319971927139
 20
66.52805532984965
 30
0.0
 40
6.5046785470867716
 50
96.1132116592250725
 51
103.2665620613861961
  0
ARC
  5
230C
  8
0
 10
49.6115338912733108
 20
66.5433518929055197
 30
0.0
 40
6.489190890339378
 50
76.7248903948048593
 51
83.8953358845826074
  0
POLYLINE
  5
230D
  8
0
 66
     1
 10
0.0
 20
0.0
 30
0.0
 70
   128
  0
VERTEX
  5
23E8
  8
0
 10
50.0016269889114113
 20
72.8631355570502421
 30
0.0
  0
VERTEX
  5
23E9
  8
0
 10
50.0205553990653229
 20
72.9316992604236418
 30
0.0
  0
VERTEX
  5
23EA
  8
0
 10
50.0765423772771001
 20
72.9767006973935111
 30
0.0
  0
VERTEX
  5
23EB
  8
0
 10
50.1702503458744573
 20
72.9981004229151438
 30
0.0
  0
VERTEX
  5
23EC
  8
0
 10
50.3016269889114795
 20
72.9957444668160349
 30
0.0
  0
SEQEND
  5
23ED
  8
0
  0
ARC
  5
230E
  8
0
 10
64.7991148948170945
 20
63.4422537177150332
 30
0.0
 40
5.9938157756773043
 50
96.6825311663880029
 51
104.4679750386488024
  0
POLYLINE
  5
230F
  8
0
 66
     1
 10
0.0
 20
0.0
 30
0.0
 70
   128
  0
VERTEX
  5
23EE
  8
0
 10
64.1016269889114341
 20
69.3953485577015101
 30
0.0
  0
VERTEX
  5
23EF
  8
0
 10
64.2319027563097933
 20
69.3980238639110496
 30
0.0
  0
VERTEX
  5
23F0
  8
0
 10
64.325535475427543
 20
69.3750983915032577
 30
0.0
  0
VERTEX
  5
23F1
  8
0
 10
64.3823324879269165
 20
69.3259376310300297
 30
0.0
  0
VERTEX
  5
23F2
  8
0
 10
64.4016269889113886
 20
69.2503566780127642
 30
0.0
  0
SEQEND
  5
23F3
  8
0
  0
LINE
  5
2310
  8
0
 10
64.4016269889113318
 20
69.2503566780127642
 30
0.0
 11
64.3223162622792159
 21
69.1135392798164219
 31
0.0
  0
LINE
  5
2311
  8
0
 10
50.0809377155435769
 20
69.1135392798164219
 30
0.0
 11
50.0016269889114398
 21
69.2503566780127642
 31
0.0
  0
POLYLINE
  5
2312
  8
0
 66
     1
 10
0.0
 20
0.0
 30
0.0
 70
   128
  0
VERTEX
  5
23F4
  8
0
 10
50.0016269889114113
 20
69.2503566780127642
 30
0.0
  0
VERTEX
  5
23F5
  8
0
 10
50.0205345291519023
 20
69.3252992814717857
 30
0.0
  0
VERTEX
  5
23F6
  8
0
 10
50.0764868136287618
 20
69.3745049252780461
 30
0.0
  0
VERTEX
  5
23F7
  8
0
 10
50.1701999876291111
 20
69.3979190603157861
 30
0.0
  0
VERTEX
  5
23F8
  8
0
 10
50.3016269889114511
 20
69.3953485577015101
 30
0.0
  0
SEQEND
  5
23F9
  8
0
  0
ARC
  5
2313
  8
0
 10
49.6068311975624709
 20
63.4566733466967534
 30
0.0
 40
5.9791809182761977
 50
75.5224822542414529
 51
83.3270115407217276
  0
LINE
  5
2314
  8
0
 10
50.0016269889114113
 20
72.8631355570502421
 30
0.0
 11
50.0016269889114113
 21
69.2503566780127642
 31
0.0
  0
LINE
  5
2315
  8
0
 10
64.4016269889113318
 20
72.8631355570501853
 30
0.0
 11
64.4016269889113886
 21
69.2503566780127642
 31
0.0
  0
ARC
  5
2316
  8
0
 10
61.746044798027512
 20
73.0298459576255539
 30
0.0
 40
4.7977920729957884
 50
284.9481979072713216
 51
299.4044968698786988
  0
ARC
  5
2317
  8
0
 10
52.7345755761404433
 20
73.2221955896998509
 30
0.0
 40
5.0034201211321969
 50
240.9051325658550979
 51
254.7609697125533899
  0
ARC
  5
2318
  8
0
 10
62.402900382636652
 20
70.4974968767877783
 30
0.0
 40
2.366325410681938
 50
315.8793402037887859
 51
324.2072424974070941
  0
ARC
  5
2319
  8
0
 10
51.8545492127795811
 20
70.3753400876014155
 30
0.0
 40
2.176657764016813
 50
215.4291963222445077
 51
224.4842209765535017
  0
LINE
  5
231E
  8
0
 10
104.1999999998308937
 20
111.897599309808399
 30
0.0
 11
104.1999999998308937
 21
107.6975993098083961
 31
0.0
  0
LINE
  5
231F
  8
0
 10
110.1999999998308937
 20
107.6975993098083961
 30
0.0
 11
110.1999999998308937
 21
111.897599309808399
 31
0.0
  0
LINE
  5
2320
  8
0
 10
101.6999999998308937
 20
115.5475993098084047
 30
0.0
 11
101.6999999998308937
 21
111.897599309808399
 31
0.0
  0
LINE
  5
2321
  8
0
 10
101.6999999998308937
 20
107.6975993098083961
 30
0.0
 11
101.6999999998308937
 21
104.0475993098084047
 31
0.0
  0
ARC
  5
2322
  8
0
 10
107.1999999998308937
 20
109.7975993098084047
 30
0.0
 40
5.3499999999999952
 50
156.8883980983655988
 51
203.1116019016378971
  0
ARC
  5
2323
  8
0
 10
107.1999999998308937
 20
109.7975993098084047
 30
0.0
 40
4.7500000000013358
 50
153.7617174556785073
 51
206.2382825443214927
  0
ARC
  5
2324
  8
0
 10
131.4754249032266102
 20
78.0357482149661905
 30
0.0
 40
39.000000000006203
 50
82.4495364584987129
 51
87.4655614031574373
  0
ARC
  5
2325
  8
0
 10
134.4990904462711114
 20
106.9200547242042063
 30
0.0
 40
10.0007099285859091
 50
34.8609951446940229
 51
77.8731914958357834
  0
ARC
  5
2326
  8
0
 10
134.4991388541481001
 20
112.6750711264069054
 30
0.0
 40
10.0006286141331202
 50
282.1266249364009013
 51
325.1391884230692995
  0
ARC
  5
2327
  8
0
 10
131.4754249032264966
 20
141.5594504046677002
 30
0.0
 40
39.0000000000231708
 50
272.5344385968425058
 51
277.5504635414980044
  0
ARC
  5
2328
  8
0
 10
133.2137497372511064
 20
129.5975958087580011
 30
0.0
 40
26.9999999999734897
 50
261.4508711926495721
 51
269.9708221497173213
  0
ARC
  5
2329
  8
0
 10
132.3536128090754005
 20
119.6025305054070031
 30
0.0
 40
17.0000000000093507
 50
249.3227304178199972
 51
259.3093282033200921
  0
LINE
  5
232A
  8
0
 10
125.1999999998311068
 20
103.8416459746766947
 30
0.0
 11
126.3508498066245949
 21
103.6975993098083961
 31
0.0
  0
LINE
  5
232B
  8
0
 10
126.3508498066245949
 20
115.897599309808399
 30
0.0
 11
125.1999999998311068
 21
115.7535526449401999
 31
0.0
  0
ARC
  5
232C
  8
0
 10
132.3536128090723025
 20
99.9926681142182616
 30
0.0
 40
17.0000000000003091
 50
100.6906717966764973
 51
110.6772695821816939
  0
ARC
  5
232D
  8
0
 10
133.2137497372536927
 20
89.9976028108427641
 30
0.0
 40
26.9999999999895692
 50
90.0291778502892157
 51
98.5491288073519911
  0
ARC
  5
232E
  8
0
 10
110.6999999998308937
 20
107.897599309808399
 30
0.0
 40
0.1999999999999886
 50
269.9999999999919282
 51
0.0
  0
LINE
  5
232F
  8
0
 10
110.8999999998308965
 20
107.897599309808399
 30
0.0
 11
110.8999999998308965
 21
111.6975993098083961
 31
0.0
  0
ARC
  5
2330
  8
0
 10
110.6999999998307942
 20
111.6975993098082967
 30
0.0
 40
0.2000000000001023
 50
0.0000000000227982
 51
89.9999999999837144
  0
LINE
  5
2331
  8
0
 10
110.6999999998308937
 20
107.6975993098083961
 30
0.0
 11
101.6999999998308937
 21
107.6975993098083961
 31
0.0
  0
LINE
  5
2332
  8
0
 10
110.6999999998308937
 20
111.897599309808399
 30
0.0
 11
101.6999999998308937
 21
111.897599309808399
 31
0.0
  0
ARC
  5
2333
  8
0
 10
121.1807224681121937
 20
67.0605991146064753
 30
0.0
 40
36.9999999999954667
 50
83.7637034781105569
 51
91.5188605429876958
  0
ARC
  5
2334
  8
0
 10
121.1807224681121937
 20
152.534599505008714
 30
0.0
 40
36.999999999993733
 50
268.4811394570123184
 51
276.2362965218911199
  0
LINE
  5
2335
  8
0
 10
120.1999999998304958
 20
104.0475993098084047
 30
0.0
 11
101.6999999998308937
 21
104.0475993098084047
 31
0.0
  0
LINE
  5
2336
  8
0
 10
101.6999999998308937
 20
115.5475993098084047
 30
0.0
 11
120.1999999998304958
 21
115.5475993098084047
 31
0.0
  0
ARC
  5
2337
  8
0
 10
136.9000592980966928
 20
109.8253639101938006
 30
0.0
 40
6.4999999999304343
 50
335.1871229293109877
 51
359.7552616523317965
  0
ARC
  5
2338
  8
0
 10
136.9000592980607109
 20
109.7698347094149938
 30
0.0
 40
6.4999999999664499
 50
0.2447383475899842
 51
24.8128770706198587
  0
LINE
  5
2339
  8
0
 10
142.705084788165891
 20
106.9588639917946011
 30
0.0
 11
142.7999999998309022
 21
107.0975993098084018
 31
0.0
  0
ARC
  5
233A
  8
0
 10
134.4995130818720099
 20
106.920690049194107
 30
0.0
 40
9.9999999988166124
 50
33.8962598376819528
 51
34.8593923690090293
  0
LINE
  5
233B
  8
1
 10
98.1999999476309142
 20
109.7975993098084047
 30
0.0
 11
146.4000018356418877
 21
109.7975993098084047
 31
0.0
  0
LINE
  5
233C
  8
1
 10
107.1999999998308937
 20
118.5475993210084056
 30
0.0
 11
107.1999999998308937
 21
101.0475992986084037
 31
0.0
  0
LINE
  5
233E
  8
1
 10
115.6999999998712951
 20
68.0000001258466398
 30
0.0
 11
98.6999999998712951
 21
68.0000001258466398
 31
0.0
  0
LINE
  5
233F
  8
1
 10
115.6999999998712951
 20
69.000000125846654
 30
0.0
 11
98.6999999998712951
 21
69.000000125846654
 31
0.0
  0
LINE
  5
2343
  8
1
 10
46.9999999998540119
 20
69.0000000000260059
 30
0.0
 11
67.3999999998540176
 21
69.0000000000260059
 31
0.0
  0
LINE
  5
2344
  8
0
 10
106.7999999998309022
 20
111.7571911040349022
 30
0.0
 11
106.7999999998309022
 21
107.8380075155818929
 31
0.0
  0
LINE
  5
2345
  8
0
 10
107.5999999998308994
 20
111.7571911040349022
 30
0.0
 11
107.5999999998308994
 21
107.8380075155818929
 31
0.0
  0
ARC
  5
2346
  8
3
 10
107.1999999998308937
 20
109.7975993098084047
 30
0.0
 40
1.6209999999999991
 50
104.2859425515190992
 51
255.7140574484809008
  0
LINE
  5
2350
  8
0
 10
55.7016280063466809
 20
72.0000000000255795
 30
0.0
 11
55.1016269889613994
 21
72.0000000000255795
 31
0.0
  0
LINE
  5
2351
  8
0
 10
59.3016269889614023
 20
72.0000000000255795
 30
0.0
 11
58.701625193361977
 21
72.0000000000255795
 31
0.0
  0
LINE
  5
2352
  8
0
 10
55.1016269889614065
 20
66.0000000000255795
 30
0.0
 11
59.3016269889614023
 21
66.0000000000255795
 31
0.0
  0
ARC
  5
2354
  8
0
 10
57.201626599854329
 20
76.2513257472376722
 30
0.0
 40
4.5081888147496061
 50
250.565575794725504
 51
289.4344340928785755
  0
ARC
  5
2355
  8
0
 10
57.2016269889613866
 20
61.7486724774182392
 30
0.0
 40
4.5081909569669483
 50
70.5655804571043461
 51
109.4344195428950002
  0
LINE
  5
2356
  8
0
 10
55.2161269887447332
 20
72.0000000000255795
 30
0.0
 11
55.4161269887420005
 21
72.200000000025554
 31
0.0
  0
LINE
  5
2357
  8
0
 10
58.9871269889713972
 20
72.200000000025554
 30
0.0
 11
55.4161269887420005
 21
72.200000000025554
 31
0.0
  0
LINE
  5
2358
  8
0
 10
58.6584145075843395
 20
71.9850000000255648
 30
0.0
 11
55.7448386921242616
 21
71.9850000000255648
 31
0.0
  0
LINE
  5
2359
  8
0
 10
59.2016269888697906
 20
66.0000000000255795
 30
0.0
 11
59.2016269888697906
 21
63.400000000025571
 31
0.0
  0
LINE
  5
235A
  8
0
 10
55.2016269888829285
 20
66.0000000000255795
 30
0.0
 11
55.2016269888829285
 21
63.400000000025571
 31
0.0
  0
LINE
  5
235B
  8
3
 10
55.5806269889393434
 20
72.0000000000255795
 30
0.0
 11
55.5806269889393434
 21
72.200952216101399
 31
0.0
  0
LINE
  5
235C
  8
3
 10
58.8226269889365696
 20
72.0000000000255795
 30
0.0
 11
58.8226269889365696
 21
72.200000000025554
 31
0.0
  0
LINE
  5
235D
  8
0
 10
59.1871269889437386
 20
72.000000000056815
 30
0.0
 11
58.9871269889433165
 21
72.2000000000536488
 31
0.0
  0
ENDSEC
  0
EOF
