  0
SECTION
  2
HEADER
  9
$ACADVER
  1
AC1009
  9
$INSBASE
 10
0.0
 20
0.0
 30
0.0
  9
$EXTMIN
 10
0.0
 20
-2.960436562073669
 30
0.0
  9
$EXTMAX
 10
249.51020249771929
 20
221.10405717335249
 30
0.0
  9
$LIMMIN
 10
0.0
 20
0.0
  9
$LIMMAX
 10
375.0
 20
270.0
  9
$ORTHOMODE
 70
     1
  9
$REGENMODE
 70
     1
  9
$FILLMODE
 70
     1
  9
$QTEXTMODE
 70
     0
  9
$MIRRTEXT
 70
     0
  9
$DRAGMODE
 70
     2
  9
$LTSCALE
 40
5.0
  9
$OSMODE
 70
  3071
  9
$ATTMODE
 70
     1
  9
$TEXTSIZE
 40
0.2
  9
$TRACEWID
 40
0.05
  9
$TEXTSTYLE
  7
STANDARD
  9
$CLAYER
  8
0
  9
$CELTYPE
  6
BYLAYER
  9
$CECOLOR
 62
   256
  9
$DIMSCALE
 40
1.0
  9
$DIMASZ
 40
3.0
  9
$DIMEXO
 40
2.0
  9
$DIMDLI
 40
0.38
  9
$DIMRND
 40
0.0
  9
$DIMDLE
 40
0.0
  9
$DIMEXE
 40
2.0
  9
$DIMTP
 40
0.0
  9
$DIMTM
 40
0.0
  9
$DIMTXT
 40
3.2000000000000002
  9
$DIMCEN
 40
0.0
  9
$DIMTSZ
 40
0.0
  9
$DIMTOL
 70
     0
  9
$DIMLIM
 70
     0
  9
$DIMTIH
 70
     0
  9
$DIMTOH
 70
     0
  9
$DIMSE1
 70
     0
  9
$DIMSE2
 70
     0
  9
$DIMTAD
 70
     1
  9
$DIMZIN
 70
     0
  9
$DIMBLK
  1

  9
$DIMASO
 70
     1
  9
$DIMSHO
 70
     0
  9
$DIMPOST
  1

  9
$DIMAPOST
  1

  9
$DIMALT
 70
     0
  9
$DIMALTD
 70
     2
  9
$DIMALTF
 40
25.399999999999999
  9
$DIMLFAC
 40
1.0
  9
$DIMTOFL
 70
     0
  9
$DIMTVP
 40
1.6000000000000001
  9
$DIMTIX
 70
     1
  9
$DIMSOXD
 70
     0
  9
$DIMSAH
 70
     0
  9
$DIMBLK1
  1

  9
$DIMBLK2
  1

  9
$DIMSTYLE
  2
STANDARD
  9
$DIMCLRD
 70
     0
  9
$DIMCLRE
 70
     0
  9
$DIMCLRT
 70
     0
  9
$DIMTFAC
 40
1.0
  9
$DIMGAP
 40
0.09
  9
$LUNITS
 70
     2
  9
$LUPREC
 70
     4
  9
$SKETCHINC
 40
0.1
  9
$FILLETRAD
 40
5.0
  9
$AUNITS
 70
     0
  9
$AUPREC
 70
     0
  9
$MENU
  1
E:\r13\win\SUPPORT\ACAD
  9
$ELEVATION
 40
0.0
  9
$PELEVATION
 40
0.0
  9
$THICKNESS
 40
0.0
  9
$LIMCHECK
 70
     0
  9
$BLIPMODE
 70
     0
  9
$CHAMFERA
 40
0.0
  9
$CHAMFERB
 40
0.0
  9
$SKPOLY
 70
     0
  9
$TDCREATE
 40
2449840.6135995369
  9
$TDUPDATE
 40
2456597.4740271298
  9
$TDINDWG
 40
0.0031000231
  9
$TDUSRTIMER
 40
0.0031000231
  9
$USRTIMER
 70
     1
  9
$ANGBASE
 50
0.0
  9
$ANGDIR
 70
     0
  9
$PDMODE
 70
     0
  9
$PDSIZE
 40
0.0
  9
$PLINEWID
 40
0.0
  9
$COORDS
 70
     1
  9
$SPLFRAME
 70
     0
  9
$SPLINETYPE
 70
     6
  9
$SPLINESEGS
 70
     8
  9
$ATTDIA
 70
     0
  9
$ATTREQ
 70
     1
  9
$HANDLING
 70
     1
  9
$HANDSEED
  5
7B2
  9
$SURFTAB1
 70
     6
  9
$SURFTAB2
 70
     6
  9
$SURFTYPE
 70
     6
  9
$SURFU
 70
     6
  9
$SURFV
 70
     6
  9
$UCSNAME
  2

  9
$UCSORG
 10
0.0
 20
0.0
 30
0.0
  9
$UCSXDIR
 10
1.0
 20
0.0
 30
0.0
  9
$UCSYDIR
 10
0.0
 20
1.0
 30
0.0
  9
$PUCSNAME
  2

  9
$PUCSORG
 10
0.0
 20
0.0
 30
0.0
  9
$PUCSXDIR
 10
1.0
 20
0.0
 30
0.0
  9
$PUCSYDIR
 10
0.0
 20
1.0
 30
0.0
  9
$USERI1
 70
     0
  9
$USERI2
 70
     1
  9
$USERI3
 70
     1
  9
$USERI4
 70
     0
  9
$USERI5
 70
     0
  9
$USERR1
 40
0.0
  9
$USERR2
 40
0.0
  9
$USERR3
 40
0.0
  9
$USERR4
 40
0.0
  9
$USERR5
 40
0.0
  9
$WORLDVIEW
 70
     1
  9
$SHADEDGE
 70
     3
  9
$SHADEDIF
 70
    70
  9
$TILEMODE
 70
     1
  9
$MAXACTVP
 70
    16
  9
$PLIMCHECK
 70
     0
  9
$PEXTMIN
 10
1.0000000000000000E+020
 20
1.0000000000000000E+020
 30
1.0000000000000000E+020
  9
$PEXTMAX
 10
-1.0000000000000000E+020
 20
-1.0000000000000000E+020
 30
-1.0000000000000000E+020
  9
$PLIMMIN
 10
0.0
 20
0.0
  9
$PLIMMAX
 10
12.0
 20
9.0
  9
$UNITMODE
 70
     0
  9
$VISRETAIN
 70
     0
  9
$PLINEGEN
 70
     0
  9
$PSLTSCALE
 70
     0
  0
ENDSEC
  0
SECTION
  2
TABLES
  0
TABLE
  2
VPORT
 70
     1
  0
VPORT
  2
*ACTIVE
 70
     0
 10
0.0
 20
0.0
 11
1.0
 21
1.0
 12
187.49427839065231
 22
162.8616388594717
 13
0.0
 23
0.0
 14
10.0
 24
10.0
 15
10.0
 25
10.0
 16
0.0
 26
0.0
 36
1.0
 17
0.0
 27
0.0
 37
0.0
 40
334.81001162774987
 41
1.9089595375722539
 42
50.0
 43
0.0
 44
0.0
 50
0.0
 51
0.0
 71
     0
 72
   500
 73
     1
 74
     0
 75
     0
 76
     0
 77
     0
 78
     0
  0
ENDTAB
  0
TABLE
  2
LTYPE
 70
     4
  0
LTYPE
  2
CONTINUOUS
 70
     0
  3
Solid Line
 72
    65
 73
     0
 40
0.0
  0
LTYPE
  2
CENTER
 70
     0
  3
____ _ ____ _ ____ _ ____ _ ____ _ ____ _ ____
 72
    65
 73
     4
 40
2.0
 49
1.25
 49
-0.25
 49
0.25
 49
-0.25
  0
LTYPE
  2
HIDDEN
 70
     0
  3
_ _ _ _ _ _ _ _ _ _ _ _ _ _ _ _ _ _ _ _ _ _ _
 72
    65
 73
     2
 40
0.375
 49
0.25
 49
-0.125
  0
LTYPE
  2
PHANTOM2
 70
     0
  3
___ _ _ ___ _ _ ___ _ _ ___ _ _
 72
    65
 73
     6
 40
1.25
 49
0.625
 49
-0.125
 49
0.125
 49
-0.125
 49
0.125
 49
-0.125
  0
ENDTAB
  0
TABLE
  2
LAYER
 70
     4
  0
LAYER
  2
0
 70
     0
 62
     7
  6
CONTINUOUS
  0
LAYER
  2
1
 70
     0
 62
     1
  6
CENTER
  0
LAYER
  2
3
 70
     0
 62
     3
  6
CONTINUOUS
  0
LAYER
  2
2
 70
     0
 62
     2
  6
HIDDEN
  0
ENDTAB
  0
TABLE
  2
STYLE
 70
     2
  0
STYLE
  2
STANDARD
 70
     0
 40
0.0
 41
1.0
 50
0.0
 71
     0
 42
0.2
  3
TXT
  4
BIGFONT
  0
STYLE
  2
STANDARD1
 70
     0
 40
0.0
 41
1.0
 50
0.0
 71
     0
 42
3.0
  3
txt
  4

  0
ENDTAB
  0
TABLE
  2
VIEW
 70
     1
  0
VIEW
  2
ALL
 70
     0
 40
270.0
 10
220.99159663865549
 20
135.0
 41
0.0
 11
0.0
 21
0.0
 31
1.0
 12
0.0
 22
0.0
 32
0.0
 42
0.0
 43
0.0
 44
0.0
 50
0.0
 71
     0
  0
ENDTAB
  0
TABLE
  2
UCS
 70
     0
  0
ENDTAB
  0
TABLE
  2
APPID
 70
     3
  0
APPID
  2
ACAD
 70
     0
  0
APPID
  2
ACAD_MLEADERVER
 70
     0
  0
APPID
  2
ACAD_NAV_VCDISPLAY
 70
     0
  0
ENDTAB
  0
TABLE
  2
DIMSTYLE
 70
     1
  0
DIMSTYLE
  2
STANDARD
 70
     0
  3

  4

  5

  6

  7

 40
1.0
 41
0.18
 42
0.0625
 43
0.38
 44
0.18
 45
0.0
 46
0.0
 47
0.0
 48
0.0
140
0.18
141
0.09
142
0.0
143
25.399999999999999
144
1.0
145
0.0
146
1.0
147
0.09
 71
     0
 72
     0
 73
     1
 74
     1
 75
     0
 76
     0
 77
     0
 78
     0
170
     0
171
     2
172
     0
173
     0
174
     0
175
     0
176
     0
177
     0
178
     0
  0
ENDTAB
  0
ENDSEC
  0
SECTION
  2
BLOCKS
  0
BLOCK
  8
0
  2
$MODEL_SPACE
 70
     0
 10
0.0
 20
0.0
 30
0.0
  3
$MODEL_SPACE
  1

  0
ENDBLK
  5
15E
  8
0
  0
BLOCK
 67
     1
  8
0
  2
$PAPER_SPACE
 70
     0
 10
0.0
 20
0.0
 30
0.0
  3
$PAPER_SPACE
  1

  0
ENDBLK
  5
15C
 67
     1
  8
0
  0
ENDSEC
  0
SECTION
  2
ENTITIES
  0
ARC
  5
1B2
  8
0
 10
164.8934331032749
 20
58.707069879551142
 30
0.0
 40
8.6249159925568257
 50
329.9013394463675
 51
30.647860450664488
  0
LINE
  5
1B4
  8
0
 10
119.29097317207381
 20
140.81374714780159
 30
0.0
 11
119.29097317207381
 21
140.70882914307001
 31
0.0
  0
POLYLINE
  5
1B5
  8
0
 10
247.14121430544989
 20
141.05313181382559
 30
0.0
 66
     1
 70
     8
  0
VERTEX
  8
0
  5
424
 10
247.141
 20
141.053
 30
0.000000
  70
    32
  0
VERTEX
  8
0
  5
425
 10
247.141
 20
141.067
 30
0.000000
  70
    32
  0
VERTEX
  8
0
  5
426
 10
247.141
 20
141.081
 30
0.000000
  70
    32
  0
VERTEX
  8
0
  5
427
 10
247.140
 20
141.095
 30
0.000000
  70
    32
  0
VERTEX
  8
0
  5
428
 10
247.139
 20
141.108
 30
0.000000
  70
    32
  0
VERTEX
  8
0
  5
429
 10
247.137
 20
141.122
 30
0.000000
  70
    32
  0
VERTEX
  8
0
  5
42A
 10
247.135
 20
141.136
 30
0.000000
  70
    32
  0
VERTEX
  8
0
  5
42B
 10
247.133
 20
141.150
 30
0.000000
  70
    32
  0
VERTEX
  8
0
  5
42C
 10
247.131
 20
141.164
 30
0.000000
  70
    32
  0
VERTEX
  8
0
  5
42D
 10
247.128
 20
141.178
 30
0.000000
  70
    32
  0
VERTEX
  8
0
  5
42E
 10
247.125
 20
141.191
 30
0.000000
  70
    32
  0
VERTEX
  8
0
  5
42F
 10
247.122
 20
141.205
 30
0.000000
  70
    32
  0
VERTEX
  8
0
  5
430
 10
247.118
 20
141.219
 30
0.000000
  70
    32
  0
VERTEX
  8
0
  5
431
 10
247.114
 20
141.233
 30
0.000000
  70
    32
  0
VERTEX
  8
0
  5
432
 10
247.109
 20
141.246
 30
0.000000
  70
    32
  0
VERTEX
  8
0
  5
433
 10
247.105
 20
141.260
 30
0.000000
  70
    32
  0
VERTEX
  8
0
  5
434
 10
247.100
 20
141.274
 30
0.000000
  70
    32
  0
VERTEX
  8
0
  5
435
 10
247.094
 20
141.288
 30
0.000000
  70
    32
  0
VERTEX
  8
0
  5
436
 10
247.089
 20
141.302
 30
0.000000
  70
    32
  0
VERTEX
  8
0
  5
437
 10
247.083
 20
141.315
 30
0.000000
  70
    32
  0
VERTEX
  8
0
  5
438
 10
247.076
 20
141.329
 30
0.000000
  70
    32
  0
VERTEX
  8
0
  5
439
 10
247.070
 20
141.343
 30
0.000000
  70
    32
  0
VERTEX
  8
0
  5
43A
 10
247.063
 20
141.356
 30
0.000000
  70
    32
  0
VERTEX
  8
0
  5
43B
 10
247.056
 20
141.370
 30
0.000000
  70
    32
  0
VERTEX
  8
0
  5
43C
 10
247.048
 20
141.384
 30
0.000000
  70
    32
  0
VERTEX
  8
0
  5
43D
 10
247.040
 20
141.397
 30
0.000000
  70
    32
  0
VERTEX
  8
0
  5
43E
 10
247.032
 20
141.411
 30
0.000000
  70
    32
  0
VERTEX
  8
0
  5
43F
 10
247.023
 20
141.425
 30
0.000000
  70
    32
  0
VERTEX
  8
0
  5
440
 10
247.014
 20
141.438
 30
0.000000
  70
    32
  0
VERTEX
  8
0
  5
441
 10
247.005
 20
141.452
 30
0.000000
  70
    32
  0
VERTEX
  8
0
  5
442
 10
246.996
 20
141.465
 30
0.000000
  70
    32
  0
VERTEX
  8
0
  5
443
 10
246.986
 20
141.479
 30
0.000000
  70
    32
  0
VERTEX
  8
0
  5
444
 10
246.976
 20
141.493
 30
0.000000
  70
    32
  0
VERTEX
  8
0
  5
445
 10
246.965
 20
141.506
 30
0.000000
  70
    32
  0
VERTEX
  8
0
  5
446
 10
246.955
 20
141.520
 30
0.000000
  70
    32
  0
VERTEX
  8
0
  5
447
 10
246.943
 20
141.533
 30
0.000000
  70
    32
  0
VERTEX
  8
0
  5
448
 10
246.932
 20
141.547
 30
0.000000
  70
    32
  0
VERTEX
  8
0
  5
449
 10
246.920
 20
141.560
 30
0.000000
  70
    32
  0
VERTEX
  8
0
  5
44A
 10
246.908
 20
141.573
 30
0.000000
  70
    32
  0
VERTEX
  8
0
  5
44B
 10
246.896
 20
141.587
 30
0.000000
  70
    32
  0
VERTEX
  8
0
  5
44C
 10
246.883
 20
141.600
 30
0.000000
  70
    32
  0
VERTEX
  8
0
  5
44D
 10
246.870
 20
141.614
 30
0.000000
  70
    32
  0
VERTEX
  8
0
  5
44E
 10
246.857
 20
141.627
 30
0.000000
  70
    32
  0
VERTEX
  8
0
  5
44F
 10
246.843
 20
141.640
 30
0.000000
  70
    32
  0
VERTEX
  8
0
  5
450
 10
246.829
 20
141.654
 30
0.000000
  70
    32
  0
VERTEX
  8
0
  5
451
 10
246.815
 20
141.667
 30
0.000000
  70
    32
  0
VERTEX
  8
0
  5
452
 10
246.801
 20
141.680
 30
0.000000
  70
    32
  0
VERTEX
  8
0
  5
453
 10
246.786
 20
141.693
 30
0.000000
  70
    32
  0
VERTEX
  8
0
  5
454
 10
246.771
 20
141.707
 30
0.000000
  70
    32
  0
VERTEX
  8
0
  5
455
 10
246.755
 20
141.720
 30
0.000000
  70
    32
  0
VERTEX
  8
0
  5
456
 10
246.739
 20
141.733
 30
0.000000
  70
    32
  0
VERTEX
  8
0
  5
457
 10
246.723
 20
141.746
 30
0.000000
  70
    32
  0
VERTEX
  8
0
  5
458
 10
246.707
 20
141.759
 30
0.000000
  70
    32
  0
VERTEX
  8
0
  5
459
 10
246.690
 20
141.772
 30
0.000000
  70
    32
  0
VERTEX
  8
0
  5
45A
 10
246.673
 20
141.785
 30
0.000000
  70
    32
  0
VERTEX
  8
0
  5
45B
 10
246.656
 20
141.798
 30
0.000000
  70
    32
  0
VERTEX
  8
0
  5
45C
 10
246.638
 20
141.811
 30
0.000000
  70
    32
  0
VERTEX
  8
0
  5
45D
 10
246.620
 20
141.824
 30
0.000000
  70
    32
  0
VERTEX
  8
0
  5
45E
 10
246.602
 20
141.837
 30
0.000000
  70
    32
  0
VERTEX
  8
0
  5
45F
 10
246.584
 20
141.850
 30
0.000000
  70
    32
  0
VERTEX
  8
0
  5
460
 10
246.565
 20
141.863
 30
0.000000
  70
    32
  0
VERTEX
  8
0
  5
461
 10
246.546
 20
141.875
 30
0.000000
  70
    32
  0
VERTEX
  8
0
  5
462
 10
246.526
 20
141.888
 30
0.000000
  70
    32
  0
VERTEX
  8
0
  5
463
 10
246.506
 20
141.901
 30
0.000000
  70
    32
  0
VERTEX
  8
0
  5
464
 10
246.486
 20
141.914
 30
0.000000
  70
    32
  0
VERTEX
  8
0
  5
465
 10
246.466
 20
141.926
 30
0.000000
  70
    32
  0
VERTEX
  8
0
  5
466
 10
246.445
 20
141.939
 30
0.000000
  70
    32
  0
VERTEX
  8
0
  5
467
 10
246.425
 20
141.951
 30
0.000000
  70
    32
  0
VERTEX
  8
0
  5
468
 10
246.403
 20
141.964
 30
0.000000
  70
    32
  0
VERTEX
  8
0
  5
469
 10
246.382
 20
141.977
 30
0.000000
  70
    32
  0
VERTEX
  8
0
  5
46A
 10
246.360
 20
141.989
 30
0.000000
  70
    32
  0
VERTEX
  8
0
  5
46B
 10
246.338
 20
142.001
 30
0.000000
  70
    32
  0
VERTEX
  8
0
  5
46C
 10
246.316
 20
142.014
 30
0.000000
  70
    32
  0
VERTEX
  8
0
  5
46D
 10
246.293
 20
142.026
 30
0.000000
  70
    32
  0
VERTEX
  8
0
  5
46E
 10
246.270
 20
142.039
 30
0.000000
  70
    32
  0
VERTEX
  8
0
  5
46F
 10
246.247
 20
142.051
 30
0.000000
  70
    32
  0
VERTEX
  8
0
  5
470
 10
246.223
 20
142.063
 30
0.000000
  70
    32
  0
VERTEX
  8
0
  5
471
 10
246.199
 20
142.075
 30
0.000000
  70
    32
  0
VERTEX
  8
0
  5
472
 10
246.175
 20
142.087
 30
0.000000
  70
    32
  0
VERTEX
  8
0
  5
473
 10
246.151
 20
142.100
 30
0.000000
  70
    32
  0
VERTEX
  8
0
  5
474
 10
246.126
 20
142.112
 30
0.000000
  70
    32
  0
VERTEX
  8
0
  5
475
 10
246.101
 20
142.124
 30
0.000000
  70
    32
  0
VERTEX
  8
0
  5
476
 10
246.076
 20
142.136
 30
0.000000
  70
    32
  0
VERTEX
  8
0
  5
477
 10
246.050
 20
142.148
 30
0.000000
  70
    32
  0
VERTEX
  8
0
  5
478
 10
246.025
 20
142.159
 30
0.000000
  70
    32
  0
VERTEX
  8
0
  5
479
 10
245.999
 20
142.171
 30
0.000000
  70
    32
  0
VERTEX
  8
0
  5
47A
 10
245.972
 20
142.183
 30
0.000000
  70
    32
  0
VERTEX
  8
0
  5
47B
 10
245.946
 20
142.195
 30
0.000000
  70
    32
  0
VERTEX
  8
0
  5
47C
 10
245.919
 20
142.207
 30
0.000000
  70
    32
  0
VERTEX
  8
0
  5
47D
 10
245.891
 20
142.218
 30
0.000000
  70
    32
  0
VERTEX
  8
0
  5
47E
 10
245.864
 20
142.230
 30
0.000000
  70
    32
  0
VERTEX
  8
0
  5
47F
 10
245.836
 20
142.241
 30
0.000000
  70
    32
  0
VERTEX
  8
0
  5
480
 10
245.808
 20
142.253
 30
0.000000
  70
    32
  0
VERTEX
  8
0
  5
481
 10
245.780
 20
142.264
 30
0.000000
  70
    32
  0
VERTEX
  8
0
  5
482
 10
245.751
 20
142.276
 30
0.000000
  70
    32
  0
VERTEX
  8
0
  5
483
 10
245.723
 20
142.287
 30
0.000000
  70
    32
  0
VERTEX
  8
0
  5
484
 10
245.694
 20
142.298
 30
0.000000
  70
    32
  0
VERTEX
  8
0
  5
485
 10
245.664
 20
142.310
 30
0.000000
  70
    32
  0
VERTEX
  8
0
  5
486
 10
245.635
 20
142.321
 30
0.000000
  70
    32
  0
VERTEX
  8
0
  5
487
 10
245.605
 20
142.332
 30
0.000000
  70
    32
  0
VERTEX
  8
0
  5
488
 10
245.575
 20
142.343
 30
0.000000
  70
    32
  0
VERTEX
  8
0
  5
489
 10
245.544
 20
142.354
 30
0.000000
  70
    32
  0
VERTEX
  8
0
  5
48A
 10
245.514
 20
142.365
 30
0.000000
  70
    32
  0
VERTEX
  8
0
  5
48B
 10
245.483
 20
142.376
 30
0.000000
  70
    32
  0
VERTEX
  8
0
  5
48C
 10
245.452
 20
142.387
 30
0.000000
  70
    32
  0
VERTEX
  8
0
  5
48D
 10
245.420
 20
142.398
 30
0.000000
  70
    32
  0
VERTEX
  8
0
  5
48E
 10
245.389
 20
142.409
 30
0.000000
  70
    32
  0
VERTEX
  8
0
  5
48F
 10
245.357
 20
142.419
 30
0.000000
  70
    32
  0
VERTEX
  8
0
  5
490
 10
245.324
 20
142.430
 30
0.000000
  70
    32
  0
VERTEX
  8
0
  5
491
 10
245.292
 20
142.441
 30
0.000000
  70
    32
  0
VERTEX
  8
0
  5
492
 10
245.259
 20
142.451
 30
0.000000
  70
    32
  0
VERTEX
  8
0
  5
493
 10
245.227
 20
142.462
 30
0.000000
  70
    32
  0
VERTEX
  8
0
  5
494
 10
245.193
 20
142.472
 30
0.000000
  70
    32
  0
VERTEX
  8
0
  5
495
 10
245.160
 20
142.483
 30
0.000000
  70
    32
  0
VERTEX
  8
0
  5
496
 10
245.126
 20
142.493
 30
0.000000
  70
    32
  0
VERTEX
  8
0
  5
497
 10
245.092
 20
142.503
 30
0.000000
  70
    32
  0
VERTEX
  8
0
  5
498
 10
245.058
 20
142.513
 30
0.000000
  70
    32
  0
VERTEX
  8
0
  5
499
 10
245.024
 20
142.524
 30
0.000000
  70
    32
  0
VERTEX
  8
0
  5
49A
 10
244.989
 20
142.534
 30
0.000000
  70
    32
  0
VERTEX
  8
0
  5
49B
 10
244.955
 20
142.544
 30
0.000000
  70
    32
  0
VERTEX
  8
0
  5
49C
 10
244.919
 20
142.554
 30
0.000000
  70
    32
  0
VERTEX
  8
0
  5
49D
 10
244.884
 20
142.564
 30
0.000000
  70
    32
  0
VERTEX
  8
0
  5
49E
 10
244.849
 20
142.573
 30
0.000000
  70
    32
  0
VERTEX
  8
0
  5
49F
 10
244.813
 20
142.583
 30
0.000000
  70
    32
  0
VERTEX
  8
0
  5
4A0
 10
244.777
 20
142.593
 30
0.000000
  70
    32
  0
VERTEX
  8
0
  5
4A1
 10
244.741
 20
142.602
 30
0.000000
  70
    32
  0
VERTEX
  8
0
  5
4A2
 10
244.704
 20
142.612
 30
0.000000
  70
    32
  0
VERTEX
  8
0
  5
4A3
 10
244.668
 20
142.622
 30
0.000000
  70
    32
  0
VERTEX
  8
0
  5
4A4
 10
244.631
 20
142.631
 30
0.000000
  70
    32
  0
SEQEND
  8
0
  5
4A5
  0
LINE
  5
1B6
  8
0
 10
248.16020249771941
 20
131.3530406250315
 30
0.0
 11
247.840201700172
 21
121.61370145634839
 31
0.0
  0
ARC
  5
1B7
  8
0
 10
226.159869039066
 20
133.15921054831401
 30
0.0
 40
22.417199694281759
 50
4.4264788931797909
 51
20.618067986054282
  0
ARC
  5
1B8
  8
0
 10
248.46020249771919
 20
131.3530406250315
 30
0.0
 40
0.3
 50
90.0
 51
180.0
  0
LINE
  5
1B9
  8
0
 10
248.51020249771929
 20
134.88936557613891
 30
0.0
 11
248.46020249771919
 21
131.65304062503151
 31
0.0
  0
LINE
  5
1BA
  8
0
 10
230.36020249771931
 20
131.3530406250315
 30
0.0
 11
230.68020329526649
 21
121.61370145634839
 31
0.0
  0
ARC
  5
1BB
  8
0
 10
252.36053595637259
 20
133.15921054831421
 30
0.0
 40
22.417199694281681
 50
159.38193201394569
 51
175.57352110682021
  0
LINE
  5
1BC
  8
0
 10
230.01020249771929
 20
134.88936557613891
 30
0.0
 11
230.0602024977193
 21
131.65304062503151
 31
0.0
  0
ARC
  5
1BD
  8
0
 10
230.0602024977193
 20
131.3530406250315
 30
0.0
 40
0.3
 50
0.0
 51
90.0
  0
POLYLINE
  5
1BE
  8
0
 10
233.88972119825527
 20
142.63106234504801
 30
0.0
 66
     1
 70
     8
  0
VERTEX
  8
0
  5
4A6
 10
233.890
 20
142.631
 30
0.000000
  70
    32
  0
VERTEX
  8
0
  5
4A7
 10
233.853
 20
142.622
 30
0.000000
  70
    32
  0
VERTEX
  8
0
  5
4A8
 10
233.816
 20
142.612
 30
0.000000
  70
    32
  0
VERTEX
  8
0
  5
4A9
 10
233.780
 20
142.602
 30
0.000000
  70
    32
  0
VERTEX
  8
0
  5
4AA
 10
233.744
 20
142.593
 30
0.000000
  70
    32
  0
VERTEX
  8
0
  5
4AB
 10
233.708
 20
142.583
 30
0.000000
  70
    32
  0
VERTEX
  8
0
  5
4AC
 10
233.672
 20
142.573
 30
0.000000
  70
    32
  0
VERTEX
  8
0
  5
4AD
 10
233.636
 20
142.564
 30
0.000000
  70
    32
  0
VERTEX
  8
0
  5
4AE
 10
233.601
 20
142.554
 30
0.000000
  70
    32
  0
VERTEX
  8
0
  5
4AF
 10
233.566
 20
142.544
 30
0.000000
  70
    32
  0
VERTEX
  8
0
  5
4B0
 10
233.531
 20
142.534
 30
0.000000
  70
    32
  0
VERTEX
  8
0
  5
4B1
 10
233.496
 20
142.524
 30
0.000000
  70
    32
  0
VERTEX
  8
0
  5
4B2
 10
233.462
 20
142.513
 30
0.000000
  70
    32
  0
VERTEX
  8
0
  5
4B3
 10
233.428
 20
142.503
 30
0.000000
  70
    32
  0
VERTEX
  8
0
  5
4B4
 10
233.394
 20
142.493
 30
0.000000
  70
    32
  0
VERTEX
  8
0
  5
4B5
 10
233.360
 20
142.483
 30
0.000000
  70
    32
  0
VERTEX
  8
0
  5
4B6
 10
233.327
 20
142.472
 30
0.000000
  70
    32
  0
VERTEX
  8
0
  5
4B7
 10
233.294
 20
142.462
 30
0.000000
  70
    32
  0
VERTEX
  8
0
  5
4B8
 10
233.261
 20
142.451
 30
0.000000
  70
    32
  0
VERTEX
  8
0
  5
4B9
 10
233.228
 20
142.441
 30
0.000000
  70
    32
  0
VERTEX
  8
0
  5
4BA
 10
233.196
 20
142.430
 30
0.000000
  70
    32
  0
VERTEX
  8
0
  5
4BB
 10
233.164
 20
142.419
 30
0.000000
  70
    32
  0
VERTEX
  8
0
  5
4BC
 10
233.132
 20
142.409
 30
0.000000
  70
    32
  0
VERTEX
  8
0
  5
4BD
 10
233.100
 20
142.398
 30
0.000000
  70
    32
  0
VERTEX
  8
0
  5
4BE
 10
233.069
 20
142.387
 30
0.000000
  70
    32
  0
VERTEX
  8
0
  5
4BF
 10
233.038
 20
142.376
 30
0.000000
  70
    32
  0
VERTEX
  8
0
  5
4C0
 10
233.007
 20
142.365
 30
0.000000
  70
    32
  0
VERTEX
  8
0
  5
4C1
 10
232.976
 20
142.354
 30
0.000000
  70
    32
  0
VERTEX
  8
0
  5
4C2
 10
232.946
 20
142.343
 30
0.000000
  70
    32
  0
VERTEX
  8
0
  5
4C3
 10
232.916
 20
142.332
 30
0.000000
  70
    32
  0
VERTEX
  8
0
  5
4C4
 10
232.886
 20
142.321
 30
0.000000
  70
    32
  0
VERTEX
  8
0
  5
4C5
 10
232.856
 20
142.310
 30
0.000000
  70
    32
  0
VERTEX
  8
0
  5
4C6
 10
232.827
 20
142.298
 30
0.000000
  70
    32
  0
VERTEX
  8
0
  5
4C7
 10
232.798
 20
142.287
 30
0.000000
  70
    32
  0
VERTEX
  8
0
  5
4C8
 10
232.769
 20
142.276
 30
0.000000
  70
    32
  0
VERTEX
  8
0
  5
4C9
 10
232.740
 20
142.264
 30
0.000000
  70
    32
  0
VERTEX
  8
0
  5
4CA
 10
232.712
 20
142.253
 30
0.000000
  70
    32
  0
VERTEX
  8
0
  5
4CB
 10
232.684
 20
142.241
 30
0.000000
  70
    32
  0
VERTEX
  8
0
  5
4CC
 10
232.656
 20
142.230
 30
0.000000
  70
    32
  0
VERTEX
  8
0
  5
4CD
 10
232.629
 20
142.218
 30
0.000000
  70
    32
  0
VERTEX
  8
0
  5
4CE
 10
232.602
 20
142.207
 30
0.000000
  70
    32
  0
VERTEX
  8
0
  5
4CF
 10
232.575
 20
142.195
 30
0.000000
  70
    32
  0
VERTEX
  8
0
  5
4D0
 10
232.548
 20
142.183
 30
0.000000
  70
    32
  0
VERTEX
  8
0
  5
4D1
 10
232.522
 20
142.171
 30
0.000000
  70
    32
  0
VERTEX
  8
0
  5
4D2
 10
232.496
 20
142.159
 30
0.000000
  70
    32
  0
VERTEX
  8
0
  5
4D3
 10
232.470
 20
142.148
 30
0.000000
  70
    32
  0
VERTEX
  8
0
  5
4D4
 10
232.444
 20
142.136
 30
0.000000
  70
    32
  0
VERTEX
  8
0
  5
4D5
 10
232.419
 20
142.124
 30
0.000000
  70
    32
  0
VERTEX
  8
0
  5
4D6
 10
232.394
 20
142.112
 30
0.000000
  70
    32
  0
VERTEX
  8
0
  5
4D7
 10
232.370
 20
142.100
 30
0.000000
  70
    32
  0
VERTEX
  8
0
  5
4D8
 10
232.345
 20
142.087
 30
0.000000
  70
    32
  0
VERTEX
  8
0
  5
4D9
 10
232.321
 20
142.075
 30
0.000000
  70
    32
  0
VERTEX
  8
0
  5
4DA
 10
232.297
 20
142.063
 30
0.000000
  70
    32
  0
VERTEX
  8
0
  5
4DB
 10
232.274
 20
142.051
 30
0.000000
  70
    32
  0
VERTEX
  8
0
  5
4DC
 10
232.251
 20
142.039
 30
0.000000
  70
    32
  0
VERTEX
  8
0
  5
4DD
 10
232.228
 20
142.026
 30
0.000000
  70
    32
  0
VERTEX
  8
0
  5
4DE
 10
232.205
 20
142.014
 30
0.000000
  70
    32
  0
VERTEX
  8
0
  5
4DF
 10
232.182
 20
142.001
 30
0.000000
  70
    32
  0
VERTEX
  8
0
  5
4E0
 10
232.160
 20
141.989
 30
0.000000
  70
    32
  0
VERTEX
  8
0
  5
4E1
 10
232.139
 20
141.977
 30
0.000000
  70
    32
  0
VERTEX
  8
0
  5
4E2
 10
232.117
 20
141.964
 30
0.000000
  70
    32
  0
VERTEX
  8
0
  5
4E3
 10
232.096
 20
141.951
 30
0.000000
  70
    32
  0
VERTEX
  8
0
  5
4E4
 10
232.075
 20
141.939
 30
0.000000
  70
    32
  0
VERTEX
  8
0
  5
4E5
 10
232.054
 20
141.926
 30
0.000000
  70
    32
  0
VERTEX
  8
0
  5
4E6
 10
232.034
 20
141.914
 30
0.000000
  70
    32
  0
VERTEX
  8
0
  5
4E7
 10
232.014
 20
141.901
 30
0.000000
  70
    32
  0
VERTEX
  8
0
  5
4E8
 10
231.994
 20
141.888
 30
0.000000
  70
    32
  0
VERTEX
  8
0
  5
4E9
 10
231.975
 20
141.875
 30
0.000000
  70
    32
  0
VERTEX
  8
0
  5
4EA
 10
231.956
 20
141.863
 30
0.000000
  70
    32
  0
VERTEX
  8
0
  5
4EB
 10
231.937
 20
141.850
 30
0.000000
  70
    32
  0
VERTEX
  8
0
  5
4EC
 10
231.918
 20
141.837
 30
0.000000
  70
    32
  0
VERTEX
  8
0
  5
4ED
 10
231.900
 20
141.824
 30
0.000000
  70
    32
  0
VERTEX
  8
0
  5
4EE
 10
231.882
 20
141.811
 30
0.000000
  70
    32
  0
VERTEX
  8
0
  5
4EF
 10
231.865
 20
141.798
 30
0.000000
  70
    32
  0
VERTEX
  8
0
  5
4F0
 10
231.847
 20
141.785
 30
0.000000
  70
    32
  0
VERTEX
  8
0
  5
4F1
 10
231.830
 20
141.772
 30
0.000000
  70
    32
  0
VERTEX
  8
0
  5
4F2
 10
231.814
 20
141.759
 30
0.000000
  70
    32
  0
VERTEX
  8
0
  5
4F3
 10
231.797
 20
141.746
 30
0.000000
  70
    32
  0
VERTEX
  8
0
  5
4F4
 10
231.781
 20
141.733
 30
0.000000
  70
    32
  0
VERTEX
  8
0
  5
4F5
 10
231.765
 20
141.720
 30
0.000000
  70
    32
  0
VERTEX
  8
0
  5
4F6
 10
231.750
 20
141.707
 30
0.000000
  70
    32
  0
VERTEX
  8
0
  5
4F7
 10
231.735
 20
141.693
 30
0.000000
  70
    32
  0
VERTEX
  8
0
  5
4F8
 10
231.720
 20
141.680
 30
0.000000
  70
    32
  0
VERTEX
  8
0
  5
4F9
 10
231.705
 20
141.667
 30
0.000000
  70
    32
  0
VERTEX
  8
0
  5
4FA
 10
231.691
 20
141.654
 30
0.000000
  70
    32
  0
VERTEX
  8
0
  5
4FB
 10
231.677
 20
141.640
 30
0.000000
  70
    32
  0
VERTEX
  8
0
  5
4FC
 10
231.663
 20
141.627
 30
0.000000
  70
    32
  0
VERTEX
  8
0
  5
4FD
 10
231.650
 20
141.614
 30
0.000000
  70
    32
  0
VERTEX
  8
0
  5
4FE
 10
231.637
 20
141.600
 30
0.000000
  70
    32
  0
VERTEX
  8
0
  5
4FF
 10
231.625
 20
141.587
 30
0.000000
  70
    32
  0
VERTEX
  8
0
  5
500
 10
231.612
 20
141.573
 30
0.000000
  70
    32
  0
VERTEX
  8
0
  5
501
 10
231.600
 20
141.560
 30
0.000000
  70
    32
  0
VERTEX
  8
0
  5
502
 10
231.588
 20
141.547
 30
0.000000
  70
    32
  0
VERTEX
  8
0
  5
503
 10
231.577
 20
141.533
 30
0.000000
  70
    32
  0
VERTEX
  8
0
  5
504
 10
231.566
 20
141.520
 30
0.000000
  70
    32
  0
VERTEX
  8
0
  5
505
 10
231.555
 20
141.506
 30
0.000000
  70
    32
  0
VERTEX
  8
0
  5
506
 10
231.545
 20
141.493
 30
0.000000
  70
    32
  0
VERTEX
  8
0
  5
507
 10
231.534
 20
141.479
 30
0.000000
  70
    32
  0
VERTEX
  8
0
  5
508
 10
231.525
 20
141.465
 30
0.000000
  70
    32
  0
VERTEX
  8
0
  5
509
 10
231.515
 20
141.452
 30
0.000000
  70
    32
  0
VERTEX
  8
0
  5
50A
 10
231.506
 20
141.438
 30
0.000000
  70
    32
  0
VERTEX
  8
0
  5
50B
 10
231.497
 20
141.425
 30
0.000000
  70
    32
  0
VERTEX
  8
0
  5
50C
 10
231.489
 20
141.411
 30
0.000000
  70
    32
  0
VERTEX
  8
0
  5
50D
 10
231.480
 20
141.397
 30
0.000000
  70
    32
  0
VERTEX
  8
0
  5
50E
 10
231.472
 20
141.384
 30
0.000000
  70
    32
  0
VERTEX
  8
0
  5
50F
 10
231.465
 20
141.370
 30
0.000000
  70
    32
  0
VERTEX
  8
0
  5
510
 10
231.458
 20
141.356
 30
0.000000
  70
    32
  0
VERTEX
  8
0
  5
511
 10
231.451
 20
141.343
 30
0.000000
  70
    32
  0
VERTEX
  8
0
  5
512
 10
231.444
 20
141.329
 30
0.000000
  70
    32
  0
VERTEX
  8
0
  5
513
 10
231.438
 20
141.315
 30
0.000000
  70
    32
  0
VERTEX
  8
0
  5
514
 10
231.432
 20
141.302
 30
0.000000
  70
    32
  0
VERTEX
  8
0
  5
515
 10
231.426
 20
141.288
 30
0.000000
  70
    32
  0
VERTEX
  8
0
  5
516
 10
231.421
 20
141.274
 30
0.000000
  70
    32
  0
VERTEX
  8
0
  5
517
 10
231.416
 20
141.260
 30
0.000000
  70
    32
  0
VERTEX
  8
0
  5
518
 10
231.411
 20
141.246
 30
0.000000
  70
    32
  0
VERTEX
  8
0
  5
519
 10
231.407
 20
141.233
 30
0.000000
  70
    32
  0
VERTEX
  8
0
  5
51A
 10
231.403
 20
141.219
 30
0.000000
  70
    32
  0
VERTEX
  8
0
  5
51B
 10
231.399
 20
141.205
 30
0.000000
  70
    32
  0
VERTEX
  8
0
  5
51C
 10
231.395
 20
141.191
 30
0.000000
  70
    32
  0
VERTEX
  8
0
  5
51D
 10
231.392
 20
141.178
 30
0.000000
  70
    32
  0
VERTEX
  8
0
  5
51E
 10
231.390
 20
141.164
 30
0.000000
  70
    32
  0
VERTEX
  8
0
  5
51F
 10
231.387
 20
141.150
 30
0.000000
  70
    32
  0
VERTEX
  8
0
  5
520
 10
231.385
 20
141.136
 30
0.000000
  70
    32
  0
VERTEX
  8
0
  5
521
 10
231.383
 20
141.122
 30
0.000000
  70
    32
  0
VERTEX
  8
0
  5
522
 10
231.382
 20
141.108
 30
0.000000
  70
    32
  0
VERTEX
  8
0
  5
523
 10
231.381
 20
141.095
 30
0.000000
  70
    32
  0
VERTEX
  8
0
  5
524
 10
231.380
 20
141.081
 30
0.000000
  70
    32
  0
VERTEX
  8
0
  5
525
 10
231.379
 20
141.067
 30
0.000000
  70
    32
  0
VERTEX
  8
0
  5
526
 10
231.379
 20
141.053
 30
0.000000
  70
    32
  0
SEQEND
  8
0
  5
527
  0
ARC
  5
1BF
  8
0
 10
128.6622454921698
 20
51.449820986008518
 30
0.0
 40
1.0
 50
92.613238997640451
 51
134.3978334950626
  0
ARC
  5
1C0
  8
0
 10
128.6622454921698
 20
66.097053258492707
 30
0.0
 40
1.0
 50
225.6021665049374
 51
267.3867610023587
  0
CIRCLE
  5
1C1
  8
0
 10
121.49097317207379
 20
58.773437122250613
 30
0.0
 40
9.25
  0
ARC
  5
1C2
  8
0
 10
128.6611090857904
 20
202.029328442619
 30
0.0
 40
1.0
 50
92.588024473806584
 51
134.38894357748981
  0
ARC
  5
1C3
  8
0
 10
128.6611090857904
 20
216.67878590408591
 30
0.0
 40
1.0
 50
225.61105642251019
 51
267.41197552619258
  0
ARC
  5
1C4
  8
0
 10
121.49097317207379
 20
209.35405717335249
 30
0.0
 40
9.25
 50
45.611056422510181
 51
314.38894357748978
  0
ARC
  5
1C5
  8
0
 10
178.74097317207381
 20
58.77343712225067
 30
0.0
 40
7.75
 50
214.51823445234859
 51
146.03096544468301
  0
ARC
  5
1C6
  8
0
 10
58.621743846428267
 20
153.06374714780151
 30
0.0
 40
7.75
 50
308.67561681770809
 51
231.32438318229191
  0
CIRCLE
  5
1C7
  8
0
 10
239.26020249771929
 20
153.06374714780151
 30
0.0
 40
7.75
  0
ARC
  5
1C8
  8
0
 10
178.74097317207381
 20
153.06374714780151
 30
0.0
 40
7.75
 50
227.6296677216823
 51
167.38074145813039
  0
ARC
  5
1C9
  8
0
 10
178.74097317207381
 20
209.3540571733524
 30
0.0
 40
7.75
 50
214.145079194083
 51
145.85492080591609
  0
CIRCLE
  5
1CA
  8
0
 10
121.49097317207379
 20
58.773437122250613
 30
0.0
 40
8.75
  0
LINE
  5
1CB
  8
0
 10
245.59520249771941
 20
134.88936557613891
 30
0.0
 11
245.59520249771941
 21
131.65304062503151
 31
0.0
  0
LINE
  5
1CC
  8
0
 10
232.92520249771931
 20
134.88936557613891
 30
0.0
 11
232.92520249771931
 21
131.65304062503151
 31
0.0
  0
CIRCLE
  5
1CD
  8
0
 10
121.49097317207379
 20
58.773437122250591
 30
0.0
 40
3.3235000000000001
  0
CIRCLE
  5
1CE
  8
3
 10
121.49097317207379
 20
58.773437122250591
 30
0.0
 40
4.0
  0
CIRCLE
  5
1CF
  8
0
 10
121.49097317207379
 20
58.773437122250613
 30
0.0
 40
8.5799992024527683
  0
CIRCLE
  5
1D0
  8
0
 10
121.49097317207379
 20
58.773437122250591
 30
0.0
 40
8.2747634805215284
  0
CIRCLE
  5
1D1
  8
0
 10
121.49097317207379
 20
58.773437122250613
 30
0.0
 40
6.7499999999999432
  0
CIRCLE
  5
1D2
  8
0
 10
121.49097317207379
 20
58.773437122250591
 30
0.0
 40
6.4500000000242599
  0
LINE
  5
1D3
  8
1
 10
188.99097317207381
 20
58.773437122250591
 30
0.0
 11
109.74097317207379
 21
58.773437122250591
 31
0.0
  0
LINE
  5
1D4
  8
1
 10
121.49097317207379
 20
47.023437122250613
 30
0.0
 11
121.49097317207379
 21
70.523437122250613
 31
0.0
  0
LINE
  5
1D5
  8
1
 10
178.74097317207381
 20
48.523437122250677
 30
0.0
 11
178.74097317207381
 21
69.02343712225067
 31
0.0
  0
LINE
  5
1D6
  8
0
 10
172.3135907552188
 20
54.443165159948109
 30
0.0
 11
128.6166516790195
 21
52.448781047373558
 31
0.0
  0
LINE
  5
1D7
  8
0
 10
172.3135907552188
 20
63.10370908455311
 30
0.0
 11
128.61665167901941
 21
65.098093197127668
 31
0.0
  0
LINE
  5
1D8
  8
0
 10
63.989169098379023
 20
142.63184038201291
 30
0.0
 11
62.97174384642824
 21
151.13321591498411
 31
0.0
  0
LINE
  5
1D9
  8
0
 10
54.271743846428251
 20
151.13321591498411
 30
0.0
 11
53.254318594477553
 21
142.631840382013
 31
0.0
  0
LINE
  5
1DA
  8
0
 10
234.43402138966769
 20
146.99988073170309
 30
0.0
 11
232.92520249771931
 21
134.88936557613891
 31
0.0
  0
LINE
  5
1DB
  8
0
 10
245.59520249771941
 20
134.88936557613891
 30
0.0
 11
244.08638360577089
 21
146.9998807317032
 31
0.0
  0
POLYLINE
  5
1DC
  8
0
 10
232.97663415729303
 20
135.30091861560877
 30
0.0
 66
     1
 70
     8
  0
VERTEX
  8
0
  5
528
 10
232.977
 20
135.301
 30
0.000000
  70
    32
  0
VERTEX
  8
0
  5
529
 10
232.957
 20
135.216
 30
0.000000
  70
    32
  0
VERTEX
  8
0
  5
52A
 10
232.943
 20
135.130
 30
0.000000
  70
    32
  0
VERTEX
  8
0
  5
52B
 10
232.932
 20
135.044
 30
0.000000
  70
    32
  0
VERTEX
  8
0
  5
52C
 10
232.927
 20
134.959
 30
0.000000
  70
    32
  0
VERTEX
  8
0
  5
52D
 10
232.925
 20
134.873
 30
0.000000
  70
    32
  0
VERTEX
  8
0
  5
52E
 10
232.928
 20
134.787
 30
0.000000
  70
    32
  0
VERTEX
  8
0
  5
52F
 10
232.936
 20
134.701
 30
0.000000
  70
    32
  0
VERTEX
  8
0
  5
530
 10
232.948
 20
134.615
 30
0.000000
  70
    32
  0
VERTEX
  8
0
  5
531
 10
232.964
 20
134.530
 30
0.000000
  70
    32
  0
VERTEX
  8
0
  5
532
 10
232.985
 20
134.445
 30
0.000000
  70
    32
  0
VERTEX
  8
0
  5
533
 10
233.011
 20
134.360
 30
0.000000
  70
    32
  0
VERTEX
  8
0
  5
534
 10
233.040
 20
134.275
 30
0.000000
  70
    32
  0
VERTEX
  8
0
  5
535
 10
233.074
 20
134.191
 30
0.000000
  70
    32
  0
VERTEX
  8
0
  5
536
 10
233.113
 20
134.108
 30
0.000000
  70
    32
  0
VERTEX
  8
0
  5
537
 10
233.156
 20
134.024
 30
0.000000
  70
    32
  0
VERTEX
  8
0
  5
538
 10
233.203
 20
133.942
 30
0.000000
  70
    32
  0
VERTEX
  8
0
  5
539
 10
233.254
 20
133.860
 30
0.000000
  70
    32
  0
VERTEX
  8
0
  5
53A
 10
233.310
 20
133.779
 30
0.000000
  70
    32
  0
VERTEX
  8
0
  5
53B
 10
233.369
 20
133.699
 30
0.000000
  70
    32
  0
VERTEX
  8
0
  5
53C
 10
233.433
 20
133.620
 30
0.000000
  70
    32
  0
VERTEX
  8
0
  5
53D
 10
233.501
 20
133.541
 30
0.000000
  70
    32
  0
VERTEX
  8
0
  5
53E
 10
233.573
 20
133.463
 30
0.000000
  70
    32
  0
VERTEX
  8
0
  5
53F
 10
233.649
 20
133.387
 30
0.000000
  70
    32
  0
VERTEX
  8
0
  5
540
 10
233.729
 20
133.311
 30
0.000000
  70
    32
  0
VERTEX
  8
0
  5
541
 10
233.813
 20
133.237
 30
0.000000
  70
    32
  0
VERTEX
  8
0
  5
542
 10
233.901
 20
133.164
 30
0.000000
  70
    32
  0
VERTEX
  8
0
  5
543
 10
233.993
 20
133.092
 30
0.000000
  70
    32
  0
VERTEX
  8
0
  5
544
 10
234.088
 20
133.021
 30
0.000000
  70
    32
  0
VERTEX
  8
0
  5
545
 10
234.187
 20
132.951
 30
0.000000
  70
    32
  0
VERTEX
  8
0
  5
546
 10
234.289
 20
132.883
 30
0.000000
  70
    32
  0
VERTEX
  8
0
  5
547
 10
234.395
 20
132.817
 30
0.000000
  70
    32
  0
VERTEX
  8
0
  5
548
 10
234.504
 20
132.751
 30
0.000000
  70
    32
  0
VERTEX
  8
0
  5
549
 10
234.617
 20
132.688
 30
0.000000
  70
    32
  0
VERTEX
  8
0
  5
54A
 10
234.733
 20
132.626
 30
0.000000
  70
    32
  0
VERTEX
  8
0
  5
54B
 10
234.852
 20
132.565
 30
0.000000
  70
    32
  0
VERTEX
  8
0
  5
54C
 10
234.975
 20
132.506
 30
0.000000
  70
    32
  0
VERTEX
  8
0
  5
54D
 10
235.100
 20
132.449
 30
0.000000
  70
    32
  0
VERTEX
  8
0
  5
54E
 10
235.228
 20
132.393
 30
0.000000
  70
    32
  0
VERTEX
  8
0
  5
54F
 10
235.359
 20
132.339
 30
0.000000
  70
    32
  0
VERTEX
  8
0
  5
550
 10
235.493
 20
132.287
 30
0.000000
  70
    32
  0
VERTEX
  8
0
  5
551
 10
235.629
 20
132.237
 30
0.000000
  70
    32
  0
VERTEX
  8
0
  5
552
 10
235.768
 20
132.189
 30
0.000000
  70
    32
  0
VERTEX
  8
0
  5
553
 10
235.910
 20
132.143
 30
0.000000
  70
    32
  0
VERTEX
  8
0
  5
554
 10
236.054
 20
132.098
 30
0.000000
  70
    32
  0
VERTEX
  8
0
  5
555
 10
236.200
 20
132.056
 30
0.000000
  70
    32
  0
VERTEX
  8
0
  5
556
 10
236.348
 20
132.015
 30
0.000000
  70
    32
  0
VERTEX
  8
0
  5
557
 10
236.498
 20
131.977
 30
0.000000
  70
    32
  0
VERTEX
  8
0
  5
558
 10
236.651
 20
131.940
 30
0.000000
  70
    32
  0
VERTEX
  8
0
  5
559
 10
236.805
 20
131.906
 30
0.000000
  70
    32
  0
VERTEX
  8
0
  5
55A
 10
236.960
 20
131.874
 30
0.000000
  70
    32
  0
VERTEX
  8
0
  5
55B
 10
237.118
 20
131.844
 30
0.000000
  70
    32
  0
VERTEX
  8
0
  5
55C
 10
237.277
 20
131.816
 30
0.000000
  70
    32
  0
VERTEX
  8
0
  5
55D
 10
237.437
 20
131.790
 30
0.000000
  70
    32
  0
VERTEX
  8
0
  5
55E
 10
237.599
 20
131.766
 30
0.000000
  70
    32
  0
VERTEX
  8
0
  5
55F
 10
237.762
 20
131.745
 30
0.000000
  70
    32
  0
VERTEX
  8
0
  5
560
 10
237.925
 20
131.726
 30
0.000000
  70
    32
  0
VERTEX
  8
0
  5
561
 10
238.090
 20
131.709
 30
0.000000
  70
    32
  0
VERTEX
  8
0
  5
562
 10
238.256
 20
131.694
 30
0.000000
  70
    32
  0
VERTEX
  8
0
  5
563
 10
238.422
 20
131.681
 30
0.000000
  70
    32
  0
VERTEX
  8
0
  5
564
 10
238.589
 20
131.671
 30
0.000000
  70
    32
  0
VERTEX
  8
0
  5
565
 10
238.756
 20
131.663
 30
0.000000
  70
    32
  0
VERTEX
  8
0
  5
566
 10
238.924
 20
131.658
 30
0.000000
  70
    32
  0
VERTEX
  8
0
  5
567
 10
239.092
 20
131.654
 30
0.000000
  70
    32
  0
VERTEX
  8
0
  5
568
 10
239.260
 20
131.653
 30
0.000000
  70
    32
  0
VERTEX
  8
0
  5
569
 10
239.428
 20
131.654
 30
0.000000
  70
    32
  0
VERTEX
  8
0
  5
56A
 10
239.596
 20
131.658
 30
0.000000
  70
    32
  0
VERTEX
  8
0
  5
56B
 10
239.764
 20
131.663
 30
0.000000
  70
    32
  0
VERTEX
  8
0
  5
56C
 10
239.931
 20
131.671
 30
0.000000
  70
    32
  0
VERTEX
  8
0
  5
56D
 10
240.098
 20
131.681
 30
0.000000
  70
    32
  0
VERTEX
  8
0
  5
56E
 10
240.265
 20
131.694
 30
0.000000
  70
    32
  0
VERTEX
  8
0
  5
56F
 10
240.430
 20
131.709
 30
0.000000
  70
    32
  0
VERTEX
  8
0
  5
570
 10
240.595
 20
131.726
 30
0.000000
  70
    32
  0
VERTEX
  8
0
  5
571
 10
240.759
 20
131.745
 30
0.000000
  70
    32
  0
VERTEX
  8
0
  5
572
 10
240.922
 20
131.766
 30
0.000000
  70
    32
  0
VERTEX
  8
0
  5
573
 10
241.083
 20
131.790
 30
0.000000
  70
    32
  0
VERTEX
  8
0
  5
574
 10
241.244
 20
131.816
 30
0.000000
  70
    32
  0
VERTEX
  8
0
  5
575
 10
241.402
 20
131.844
 30
0.000000
  70
    32
  0
VERTEX
  8
0
  5
576
 10
241.560
 20
131.874
 30
0.000000
  70
    32
  0
VERTEX
  8
0
  5
577
 10
241.716
 20
131.906
 30
0.000000
  70
    32
  0
VERTEX
  8
0
  5
578
 10
241.870
 20
131.940
 30
0.000000
  70
    32
  0
VERTEX
  8
0
  5
579
 10
242.022
 20
131.977
 30
0.000000
  70
    32
  0
VERTEX
  8
0
  5
57A
 10
242.172
 20
132.015
 30
0.000000
  70
    32
  0
VERTEX
  8
0
  5
57B
 10
242.321
 20
132.056
 30
0.000000
  70
    32
  0
VERTEX
  8
0
  5
57C
 10
242.467
 20
132.098
 30
0.000000
  70
    32
  0
VERTEX
  8
0
  5
57D
 10
242.611
 20
132.143
 30
0.000000
  70
    32
  0
VERTEX
  8
0
  5
57E
 10
242.752
 20
132.189
 30
0.000000
  70
    32
  0
VERTEX
  8
0
  5
57F
 10
242.891
 20
132.237
 30
0.000000
  70
    32
  0
VERTEX
  8
0
  5
580
 10
243.027
 20
132.287
 30
0.000000
  70
    32
  0
VERTEX
  8
0
  5
581
 10
243.161
 20
132.339
 30
0.000000
  70
    32
  0
VERTEX
  8
0
  5
582
 10
243.292
 20
132.393
 30
0.000000
  70
    32
  0
VERTEX
  8
0
  5
583
 10
243.421
 20
132.449
 30
0.000000
  70
    32
  0
VERTEX
  8
0
  5
584
 10
243.546
 20
132.506
 30
0.000000
  70
    32
  0
VERTEX
  8
0
  5
585
 10
243.668
 20
132.565
 30
0.000000
  70
    32
  0
VERTEX
  8
0
  5
586
 10
243.787
 20
132.626
 30
0.000000
  70
    32
  0
VERTEX
  8
0
  5
587
 10
243.903
 20
132.688
 30
0.000000
  70
    32
  0
VERTEX
  8
0
  5
588
 10
244.016
 20
132.751
 30
0.000000
  70
    32
  0
VERTEX
  8
0
  5
589
 10
244.125
 20
132.817
 30
0.000000
  70
    32
  0
VERTEX
  8
0
  5
58A
 10
244.231
 20
132.883
 30
0.000000
  70
    32
  0
VERTEX
  8
0
  5
58B
 10
244.334
 20
132.951
 30
0.000000
  70
    32
  0
VERTEX
  8
0
  5
58C
 10
244.433
 20
133.021
 30
0.000000
  70
    32
  0
VERTEX
  8
0
  5
58D
 10
244.528
 20
133.092
 30
0.000000
  70
    32
  0
VERTEX
  8
0
  5
58E
 10
244.619
 20
133.164
 30
0.000000
  70
    32
  0
VERTEX
  8
0
  5
58F
 10
244.707
 20
133.237
 30
0.000000
  70
    32
  0
VERTEX
  8
0
  5
590
 10
244.791
 20
133.311
 30
0.000000
  70
    32
  0
VERTEX
  8
0
  5
591
 10
244.871
 20
133.387
 30
0.000000
  70
    32
  0
VERTEX
  8
0
  5
592
 10
244.947
 20
133.463
 30
0.000000
  70
    32
  0
VERTEX
  8
0
  5
593
 10
245.019
 20
133.541
 30
0.000000
  70
    32
  0
VERTEX
  8
0
  5
594
 10
245.087
 20
133.620
 30
0.000000
  70
    32
  0
VERTEX
  8
0
  5
595
 10
245.151
 20
133.699
 30
0.000000
  70
    32
  0
VERTEX
  8
0
  5
596
 10
245.211
 20
133.779
 30
0.000000
  70
    32
  0
VERTEX
  8
0
  5
597
 10
245.266
 20
133.860
 30
0.000000
  70
    32
  0
VERTEX
  8
0
  5
598
 10
245.318
 20
133.942
 30
0.000000
  70
    32
  0
VERTEX
  8
0
  5
599
 10
245.365
 20
134.024
 30
0.000000
  70
    32
  0
VERTEX
  8
0
  5
59A
 10
245.408
 20
134.108
 30
0.000000
  70
    32
  0
VERTEX
  8
0
  5
59B
 10
245.446
 20
134.191
 30
0.000000
  70
    32
  0
VERTEX
  8
0
  5
59C
 10
245.480
 20
134.275
 30
0.000000
  70
    32
  0
VERTEX
  8
0
  5
59D
 10
245.510
 20
134.360
 30
0.000000
  70
    32
  0
VERTEX
  8
0
  5
59E
 10
245.535
 20
134.445
 30
0.000000
  70
    32
  0
VERTEX
  8
0
  5
59F
 10
245.556
 20
134.530
 30
0.000000
  70
    32
  0
VERTEX
  8
0
  5
5A0
 10
245.572
 20
134.615
 30
0.000000
  70
    32
  0
VERTEX
  8
0
  5
5A1
 10
245.584
 20
134.701
 30
0.000000
  70
    32
  0
VERTEX
  8
0
  5
5A2
 10
245.592
 20
134.787
 30
0.000000
  70
    32
  0
VERTEX
  8
0
  5
5A3
 10
245.595
 20
134.873
 30
0.000000
  70
    32
  0
VERTEX
  8
0
  5
5A4
 10
245.594
 20
134.959
 30
0.000000
  70
    32
  0
VERTEX
  8
0
  5
5A5
 10
245.588
 20
135.044
 30
0.000000
  70
    32
  0
VERTEX
  8
0
  5
5A6
 10
245.578
 20
135.130
 30
0.000000
  70
    32
  0
VERTEX
  8
0
  5
5A7
 10
245.563
 20
135.216
 30
0.000000
  70
    32
  0
VERTEX
  8
0
  5
5A8
 10
245.544
 20
135.301
 30
0.000000
  70
    32
  0
SEQEND
  8
0
  5
5A9
  0
LINE
  5
1DD
  8
0
 10
230.0602024977193
 20
131.65304062503151
 30
0.0
 11
248.46020249771919
 21
131.65304062503151
 31
0.0
  0
LINE
  5
1DE
  8
0
 10
230.36020249771931
 20
131.3530406250315
 30
0.0
 11
248.16020249771921
 21
131.3530406250315
 31
0.0
  0
LINE
  5
1DF
  8
0
 10
247.84020170017209
 20
121.61370145634839
 30
0.0
 11
230.68020329526661
 21
121.61370145634839
 31
0.0
  0
LINE
  5
1E0
  8
0
 10
230.68020329526661
 20
121.61370145634839
 30
0.0
 11
230.98543901719779
 21
121.31374714780149
 31
0.0
  0
LINE
  5
1E1
  8
0
 10
247.84020170017209
 20
121.61370145634839
 30
0.0
 11
247.5349659782409
 21
121.31374714780149
 31
0.0
  0
LINE
  5
1E2
  8
0
 10
230.98543901719779
 20
121.31374714780149
 30
0.0
 11
247.5349659782409
 21
121.31374714780149
 31
0.0
  0
LINE
  5
1E3
  8
1
 10
239.26020249771929
 20
163.31374714780151
 30
0.0
 11
239.2602024977194
 21
112.31374714780149
 31
0.0
  0
LINE
  5
1E4
  8
1
 10
229.01020249771929
 20
153.06374714780151
 30
0.0
 11
249.51020249771929
 21
153.06374714780151
 31
0.0
  0
LINE
  5
1E5
  8
0
 10
232.810202497695
 20
114.81374714780149
 30
0.0
 11
245.71020249774361
 21
114.81374714780149
 31
0.0
  0
LINE
  5
1E6
  8
0
 10
245.71020249774361
 20
114.81374714780149
 30
0.0
 11
246.01020249771929
 21
115.11374714778979
 31
0.0
  0
LINE
  5
1E7
  8
0
 10
246.01020249771929
 20
115.11374714778979
 30
0.0
 11
246.01020249771929
 21
121.31374714780149
 31
0.0
  0
LINE
  5
1E8
  8
0
 10
232.51020249771929
 20
115.11374714778979
 30
0.0
 11
232.51020249771929
 21
121.31374714780149
 31
0.0
  0
LINE
  5
1E9
  8
0
 10
232.810202497695
 20
114.81374714780149
 30
0.0
 11
232.51020249771929
 21
115.11374714778979
 31
0.0
  0
LINE
  5
1EA
  8
0
 10
246.01020249771929
 20
115.11374714778979
 30
0.0
 11
232.51020249771929
 21
115.11374714778979
 31
0.0
  0
LINE
  5
1EB
  8
2
 10
242.5837024977192
 20
116.0137471478252
 30
0.0
 11
235.93670249771941
 21
116.0137471478252
 31
0.0
  0
LINE
  5
1EC
  8
2
 10
243.26020249771921
 20
126.8137471478755
 30
0.0
 11
235.2602024977194
 21
126.8137471478755
 31
0.0
  0
LINE
  5
1ED
  8
2
 10
242.5837024977192
 20
129.31374714780151
 30
0.0
 11
235.93670249771941
 21
129.31374714780151
 31
0.0
  0
LINE
  5
1EE
  8
2
 10
243.78370249774301
 20
114.81374714780149
 30
0.0
 11
242.5837024977192
 21
116.0137471478252
 31
0.0
  0
LINE
  5
1EF
  8
2
 10
242.5837024977192
 20
116.0137471478252
 30
0.0
 11
242.5837024977192
 21
129.31374714780151
 31
0.0
  0
LINE
  5
1F0
  8
2
 10
242.5837024977192
 20
129.31374714780151
 30
0.0
 11
239.26020249771929
 21
131.2325707674531
 31
0.0
  0
LINE
  5
1F1
  8
2
 10
243.26020249771921
 20
115.3372471478252
 30
0.0
 11
243.26020249771921
 21
126.8137471478755
 31
0.0
  0
LINE
  5
1F2
  8
2
 10
243.26020249771921
 20
126.8137471478755
 30
0.0
 11
242.5837024977192
 21
127.2043246049824
 31
0.0
  0
LINE
  5
1F3
  8
2
 10
235.2602024977194
 20
126.8137471478755
 30
0.0
 11
235.93670249771941
 21
127.2043246049824
 31
0.0
  0
LINE
  5
1F4
  8
2
 10
235.2602024977194
 20
115.3372471478252
 30
0.0
 11
235.2602024977194
 21
126.8137471478755
 31
0.0
  0
LINE
  5
1F5
  8
2
 10
235.93670249771941
 20
129.31374714780151
 30
0.0
 11
239.26020249771929
 21
131.2325707674531
 31
0.0
  0
LINE
  5
1F6
  8
2
 10
235.93670249771941
 20
116.0137471478252
 30
0.0
 11
235.93670249771941
 21
129.31374714780151
 31
0.0
  0
LINE
  5
1F7
  8
2
 10
234.73670249769569
 20
114.81374714780149
 30
0.0
 11
235.93670249771941
 21
116.0137471478252
 31
0.0
  0
ARC
  5
1F8
  8
0
 10
119.91387509761461
 20
209.3540571733522
 30
0.0
 40
9.0026901720639412
 50
314.37902404484629
 51
45.620975955157242
  0
LINE
  5
1F9
  8
0
 10
56.421743846428321
 20
140.81374714780151
 30
0.0
 11
56.421743846428321
 21
140.06161027459581
 31
0.0
  0
LINE
  5
1FA
  8
0
 10
60.821743846428348
 20
140.81374714780151
 30
0.0
 11
60.821743846428348
 21
140.06161027459581
 31
0.0
  0
ARC
  5
1FB
  8
0
 10
58.621743846428267
 20
136.3037471478016
 30
0.0
 40
8.0
 50
110.15731621557541
 51
119.9999999999993
  0
LINE
  5
1FC
  8
0
 10
54.621743846428423
 20
143.2319503780771
 30
0.0
 11
62.621743846428302
 21
143.23195037807699
 31
0.0
  0
ARC
  5
1FD
  8
0
 10
58.621743846428267
 20
136.3037471478016
 30
0.0
 40
8.0
 50
59.999999999999858
 51
69.842683784424523
  0
LINE
  5
1FE
  8
0
 10
61.378535459880453
 20
143.81374714780151
 30
0.0
 11
55.864952232976208
 21
143.81374714780151
 31
0.0
  0
LINE
  5
1FF
  8
0
 10
62.621743846428302
 20
140.81374714780159
 30
0.0
 11
54.62174384642833
 21
140.81374714780159
 31
0.0
  0
LINE
  5
200
  8
0
 10
54.621743846428423
 20
143.2319503780771
 30
0.0
 11
54.62174384642833
 21
140.81374714780151
 31
0.0
  0
LINE
  5
201
  8
0
 10
62.621743846428302
 20
143.23195037807699
 30
0.0
 11
62.621743846428302
 21
140.81374714780151
 31
0.0
  0
LINE
  5
202
  8
0
 10
125.49097317207389
 20
143.23195037807699
 30
0.0
 11
125.49097317207389
 21
142.38743219928239
 31
0.0
  0
LINE
  5
203
  8
0
 10
117.49097317207401
 20
143.2319503780771
 30
0.0
 11
117.49097317207389
 21
140.81374714780151
 31
0.0
  0
LINE
  5
204
  8
0
 10
119.6784927985443
 20
140.81374714780151
 30
0.0
 11
117.49097317207389
 21
140.81374714780151
 31
0.0
  0
LINE
  5
205
  8
0
 10
124.247764785526
 20
143.81374714780151
 30
0.0
 11
118.7341815586218
 21
143.81374714780151
 31
0.0
  0
ARC
  5
206
  8
0
 10
121.49097317207379
 20
136.30374714780149
 30
0.0
 40
8.0
 50
59.999999999999858
 51
69.842683784424523
  0
LINE
  5
207
  8
0
 10
117.49097317207401
 20
143.2319503780771
 30
0.0
 11
125.49097317207389
 21
143.23195037807699
 31
0.0
  0
ARC
  5
208
  8
0
 10
121.49097317207379
 20
136.30374714780149
 30
0.0
 40
8.0
 50
110.15731621557541
 51
119.9999999999993
  0
LINE
  5
209
  8
2
 10
118.167473172074
 20
129.31374714780151
 30
0.0
 11
121.49097317207389
 21
131.2325707674531
 31
0.0
  0
LINE
  5
20A
  8
2
 10
117.49097317207389
 20
126.8137471478755
 30
0.0
 11
118.167473172074
 21
127.2043246049824
 31
0.0
  0
LINE
  5
20B
  8
2
 10
117.49097317207389
 20
126.8137471478755
 30
0.0
 11
125.49097317207379
 21
126.8137471478755
 31
0.0
  0
LINE
  5
20C
  8
2
 10
118.167473172074
 20
129.31374714780151
 30
0.0
 11
124.8144731720738
 21
129.31374714780151
 31
0.0
  0
LINE
  5
20D
  8
2
 10
125.49097317207379
 20
126.8137471478755
 30
0.0
 11
124.8144731720738
 21
127.2043246049824
 31
0.0
  0
LINE
  5
20E
  8
2
 10
124.8144731720738
 20
129.31374714780151
 30
0.0
 11
121.49097317207389
 21
131.2325707674531
 31
0.0
  0
LINE
  5
20F
  8
0
 10
115.0409731720495
 20
114.81374714780149
 30
0.0
 11
114.74097317207389
 21
115.11374714778979
 31
0.0
  0
LINE
  5
210
  8
0
 10
114.74097317207389
 20
115.11374714778979
 30
0.0
 11
114.74097317207389
 21
121.31374714780149
 31
0.0
  0
LINE
  5
211
  8
2
 10
116.96747317205021
 20
114.81374714780149
 30
0.0
 11
118.167473172074
 21
116.0137471478252
 31
0.0
  0
LINE
  5
212
  8
2
 10
118.167473172074
 20
116.0137471478252
 30
0.0
 11
118.167473172074
 21
129.31374714780151
 31
0.0
  0
LINE
  5
213
  8
2
 10
117.49097317207389
 20
115.3372471478252
 30
0.0
 11
117.49097317207389
 21
126.8137471478755
 31
0.0
  0
LINE
  5
214
  8
0
 10
127.9409731720982
 20
114.81374714780149
 30
0.0
 11
115.0409731720495
 21
114.81374714780149
 31
0.0
  0
LINE
  5
215
  8
0
 10
128.24097317207389
 20
115.11374714778979
 30
0.0
 11
128.24097317207389
 21
121.31374714780149
 31
0.0
  0
LINE
  5
216
  8
0
 10
127.9409731720982
 20
114.81374714780149
 30
0.0
 11
128.24097317207389
 21
115.11374714778979
 31
0.0
  0
LINE
  5
217
  8
0
 10
114.74097317207389
 20
115.11374714778979
 30
0.0
 11
128.24097317207389
 21
115.11374714778979
 31
0.0
  0
LINE
  5
218
  8
2
 10
118.167473172074
 20
116.0137471478252
 30
0.0
 11
124.8144731720738
 21
116.0137471478252
 31
0.0
  0
LINE
  5
219
  8
2
 10
125.49097317207379
 20
115.3372471478252
 30
0.0
 11
125.49097317207379
 21
126.8137471478755
 31
0.0
  0
LINE
  5
21A
  8
2
 10
124.8144731720738
 20
116.0137471478252
 30
0.0
 11
124.8144731720738
 21
129.31374714780151
 31
0.0
  0
LINE
  5
21B
  8
2
 10
126.0144731720975
 20
114.81374714780149
 30
0.0
 11
124.8144731720738
 21
116.0137471478252
 31
0.0
  0
LINE
  5
21C
  8
2
 10
63.145243846451933
 20
114.81374714780149
 30
0.0
 11
61.945243846428177
 21
116.0137471478252
 31
0.0
  0
LINE
  5
21D
  8
2
 10
61.945243846428177
 20
116.0137471478252
 30
0.0
 11
61.945243846428177
 21
129.31374714780151
 31
0.0
  0
LINE
  5
21E
  8
2
 10
61.945243846428177
 20
129.31374714780151
 30
0.0
 11
58.621743846428267
 21
131.2325707674531
 31
0.0
  0
LINE
  5
21F
  8
2
 10
62.621743846428217
 20
115.3372471478252
 30
0.0
 11
62.621743846428217
 21
126.8137471478755
 31
0.0
  0
LINE
  5
220
  8
2
 10
62.621743846428217
 20
126.8137471478755
 30
0.0
 11
61.945243846428177
 21
127.2043246049824
 31
0.0
  0
LINE
  5
221
  8
2
 10
54.62174384642833
 20
126.8137471478755
 30
0.0
 11
55.298243846428363
 21
127.2043246049824
 31
0.0
  0
LINE
  5
222
  8
2
 10
54.62174384642833
 20
115.3372471478252
 30
0.0
 11
54.62174384642833
 21
126.8137471478755
 31
0.0
  0
LINE
  5
223
  8
2
 10
55.298243846428363
 20
129.31374714780151
 30
0.0
 11
58.621743846428267
 21
131.2325707674531
 31
0.0
  0
LINE
  5
224
  8
2
 10
55.298243846428363
 20
116.0137471478252
 30
0.0
 11
55.298243846428363
 21
129.31374714780151
 31
0.0
  0
LINE
  5
225
  8
2
 10
54.098243846404621
 20
114.81374714780149
 30
0.0
 11
55.298243846428363
 21
116.0137471478252
 31
0.0
  0
LINE
  5
226
  8
2
 10
55.298243846428363
 20
129.31374714780151
 30
0.0
 11
61.945243846428177
 21
129.31374714780151
 31
0.0
  0
LINE
  5
227
  8
2
 10
54.62174384642833
 20
126.8137471478755
 30
0.0
 11
62.621743846428217
 21
126.8137471478755
 31
0.0
  0
LINE
  5
228
  8
2
 10
55.298243846428363
 20
116.0137471478252
 30
0.0
 11
61.945243846428177
 21
116.0137471478252
 31
0.0
  0
LINE
  5
229
  8
0
 10
51.871743846428267
 20
115.11374714778979
 30
0.0
 11
65.371743846428274
 21
115.11374714778979
 31
0.0
  0
LINE
  5
22A
  8
0
 10
65.071743846452591
 20
114.81374714780149
 30
0.0
 11
65.371743846428274
 21
115.11374714778979
 31
0.0
  0
LINE
  5
22B
  8
0
 10
65.371743846428274
 20
115.11374714778979
 30
0.0
 11
65.371743846428274
 21
121.31374714780149
 31
0.0
  0
LINE
  5
22C
  8
0
 10
51.871743846428267
 20
115.11374714778979
 30
0.0
 11
51.871743846428267
 21
121.31374714780149
 31
0.0
  0
LINE
  5
22D
  8
0
 10
52.171743846403949
 20
114.81374714780149
 30
0.0
 11
51.871743846428267
 21
115.11374714778979
 31
0.0
  0
LINE
  5
22E
  8
0
 10
65.071743846452591
 20
114.81374714780149
 30
0.0
 11
52.171743846403949
 21
114.81374714780149
 31
0.0
  0
CIRCLE
  5
22F
  8
0
 10
121.49097317207379
 20
209.35405717335249
 30
0.0
 40
4.0
  0
ARC
  5
230
  8
0
 10
123.07097317207371
 20
209.35405717335249
 30
0.0
 40
0.3949999999999999
 50
283.34175822722119
 51
76.658241772778837
  0
ARC
  5
231
  8
0
 10
123.32163507808571
 20
208.29712402912119
 30
0.0
 40
0.6912500000000005
 50
103.34175822722121
 51
196.65824177277699
  0
ARC
  5
232
  8
0
 10
122.2809731720738
 20
207.98573703537301
 30
0.0
 40
0.3949999999999998
 50
223.34175822722139
 51
16.658241772777039
  0
ARC
  5
233
  8
0
 10
121.49097317207379
 20
207.24019088489001
 30
0.0
 40
0.6912499999999989
 50
43.341758227221433
 51
136.65824177277861
  0
ARC
  5
234
  8
0
 10
120.7009731720738
 20
207.98573703537301
 30
0.0
 40
0.3950000000000002
 50
163.3417582272229
 51
316.65824177277852
  0
ARC
  5
235
  8
0
 10
123.32163507808571
 20
210.4109903175837
 30
0.0
 40
0.691250000000001
 50
163.3417582272229
 51
256.65824177277881
  0
ARC
  5
236
  8
0
 10
122.2809731720738
 20
210.72237731133191
 30
0.0
 40
0.3950000000000001
 50
343.3417582272229
 51
136.65824177277861
  0
ARC
  5
237
  8
0
 10
121.49097317207379
 20
211.46792346181491
 30
0.0
 40
0.6912500000000003
 50
223.34175822722139
 51
316.65824177277511
  0
ARC
  5
238
  8
0
 10
120.7009731720738
 20
210.72237731133191
 30
0.0
 40
0.3949999999999998
 50
43.341758227221433
 51
196.65824177277699
  0
ARC
  5
239
  8
0
 10
119.6603112660618
 20
210.4109903175837
 30
0.0
 40
0.6912500000000003
 50
283.34175822722119
 51
16.658241772777039
  0
ARC
  5
23A
  8
0
 10
119.9109731720738
 20
209.35405717335249
 30
0.0
 40
0.3950000000000004
 50
103.34175822722121
 51
256.65824177277881
  0
ARC
  5
23B
  8
0
 10
119.6603112660618
 20
208.29712402912119
 30
0.0
 40
0.6912500000000011
 50
343.3417582272229
 51
76.658241772778837
  0
LINE
  5
23C
  8
0
 10
124.24097317207379
 20
209.87905717335249
 30
0.0
 11
122.8801900729397
 21
209.87905717335249
 31
0.0
  0
LINE
  5
23D
  8
0
 10
124.24097317207379
 20
208.82905717335251
 30
0.0
 11
122.8801900729398
 21
208.82905717335251
 31
0.0
  0
LINE
  5
23E
  8
0
 10
120.10175627120771
 20
208.82905717335251
 30
0.0
 11
118.74097317207379
 21
208.82905717335251
 31
0.0
  0
LINE
  5
23F
  8
0
 10
120.1017562712078
 20
209.87905717335249
 30
0.0
 11
118.74097317207379
 21
209.87905717335249
 31
0.0
  0
ARC
  5
240
  8
0
 10
121.49097317207379
 20
209.35405717335249
 30
0.0
 40
2.7567916134521511
 50
175.97735839170261
 51
184.0226416083006
  0
LINE
  5
241
  8
0
 10
118.74097317207379
 20
208.82905717335251
 30
0.0
 11
118.74097317207379
 21
209.87905717335249
 31
0.0
  0
LINE
  5
242
  8
0
 10
124.24097317207379
 20
208.82905717335251
 30
0.0
 11
124.24097317207379
 21
209.87905717335249
 31
0.0
  0
ARC
  5
243
  8
0
 10
121.49097317207379
 20
209.35405717335249
 30
0.0
 40
2.7567916134521511
 50
190.97839132993789
 51
349.02160867006211
  0
ARC
  5
244
  8
0
 10
121.49097317207379
 20
209.35405717335249
 30
0.0
 40
2.7567916134521511
 50
10.978391329937949
 51
169.02160867006199
  0
ARC
  5
245
  8
0
 10
121.49097317207379
 20
209.35405717335249
 30
0.0
 40
2.7567916134521511
 50
355.9773583916961
 51
4.0226416083039043
  0
POLYLINE
  5
246
  8
0
 10
54.621743846428409
 20
142.91081613629459
 30
0.0
 66
     1
 70
     8
  0
VERTEX
  8
0
  5
5AA
 10
54.6217
 20
142.911
 30
0.000000
  70
    32
  0
VERTEX
  8
0
  5
5AB
 10
54.3483
 20
142.865
 30
0.000000
  70
    32
  0
VERTEX
  8
0
  5
5AC
 10
54.0820
 20
142.816
 30
0.000000
  70
    32
  0
VERTEX
  8
0
  5
5AD
 10
53.8232
 20
142.763
 30
0.000000
  70
    32
  0
VERTEX
  8
0
  5
5AE
 10
53.5723
 20
142.709
 30
0.000000
  70
    32
  0
VERTEX
  8
0
  5
5AF
 10
53.3299
 20
142.651
 30
0.000000
  70
    32
  0
VERTEX
  8
0
  5
5B0
 10
53.0963
 20
142.590
 30
0.000000
  70
    32
  0
VERTEX
  8
0
  5
5B1
 10
52.8718
 20
142.528
 30
0.000000
  70
    32
  0
VERTEX
  8
0
  5
5B2
 10
52.6569
 20
142.462
 30
0.000000
  70
    32
  0
VERTEX
  8
0
  5
5B3
 10
52.4519
 20
142.395
 30
0.000000
  70
    32
  0
VERTEX
  8
0
  5
5B4
 10
52.2572
 20
142.325
 30
0.000000
  70
    32
  0
VERTEX
  8
0
  5
5B5
 10
52.0731
 20
142.253
 30
0.000000
  70
    32
  0
VERTEX
  8
0
  5
5B6
 10
51.8998
 20
142.179
 30
0.000000
  70
    32
  0
VERTEX
  8
0
  5
5B7
 10
51.7377
 20
142.103
 30
0.000000
  70
    32
  0
VERTEX
  8
0
  5
5B8
 10
51.5870
 20
142.025
 30
0.000000
  70
    32
  0
VERTEX
  8
0
  5
5B9
 10
51.4481
 20
141.946
 30
0.000000
  70
    32
  0
VERTEX
  8
0
  5
5BA
 10
51.3210
 20
141.865
 30
0.000000
  70
    32
  0
VERTEX
  8
0
  5
5BB
 10
51.2061
 20
141.783
 30
0.000000
  70
    32
  0
VERTEX
  8
0
  5
5BC
 10
51.1035
 20
141.700
 30
0.000000
  70
    32
  0
VERTEX
  8
0
  5
5BD
 10
51.0134
 20
141.615
 30
0.000000
  70
    32
  0
VERTEX
  8
0
  5
5BE
 10
50.9360
 20
141.530
 30
0.000000
  70
    32
  0
VERTEX
  8
0
  5
5BF
 10
50.8713
 20
141.444
 30
0.000000
  70
    32
  0
VERTEX
  8
0
  5
5C0
 10
50.8195
 20
141.357
 30
0.000000
  70
    32
  0
VERTEX
  8
0
  5
5C1
 10
50.7807
 20
141.270
 30
0.000000
  70
    32
  0
VERTEX
  8
0
  5
5C2
 10
50.7549
 20
141.182
 30
0.000000
  70
    32
  0
VERTEX
  8
0
  5
5C3
 10
50.7422
 20
141.095
 30
0.000000
  70
    32
  0
VERTEX
  8
0
  5
5C4
 10
50.7426
 20
141.007
 30
0.000000
  70
    32
  0
VERTEX
  8
0
  5
5C5
 10
50.7560
 20
140.919
 30
0.000000
  70
    32
  0
VERTEX
  8
0
  5
5C6
 10
50.7826
 20
140.831
 30
0.000000
  70
    32
  0
VERTEX
  8
0
  5
5C7
 10
50.8221
 20
140.744
 30
0.000000
  70
    32
  0
VERTEX
  8
0
  5
5C8
 10
50.8747
 20
140.657
 30
0.000000
  70
    32
  0
VERTEX
  8
0
  5
5C9
 10
50.9401
 20
140.571
 30
0.000000
  70
    32
  0
VERTEX
  8
0
  5
5CA
 10
51.0183
 20
140.486
 30
0.000000
  70
    32
  0
VERTEX
  8
0
  5
5CB
 10
51.1091
 20
140.402
 30
0.000000
  70
    32
  0
VERTEX
  8
0
  5
5CC
 10
51.2124
 20
140.318
 30
0.000000
  70
    32
  0
VERTEX
  8
0
  5
5CD
 10
51.3280
 20
140.236
 30
0.000000
  70
    32
  0
VERTEX
  8
0
  5
5CE
 10
51.4557
 20
140.156
 30
0.000000
  70
    32
  0
VERTEX
  8
0
  5
5CF
 10
51.5953
 20
140.077
 30
0.000000
  70
    32
  0
VERTEX
  8
0
  5
5D0
 10
51.7467
 20
139.999
 30
0.000000
  70
    32
  0
VERTEX
  8
0
  5
5D1
 10
51.9094
 20
139.923
 30
0.000000
  70
    32
  0
VERTEX
  8
0
  5
5D2
 10
52.0833
 20
139.849
 30
0.000000
  70
    32
  0
VERTEX
  8
0
  5
5D3
 10
52.2681
 20
139.778
 30
0.000000
  70
    32
  0
VERTEX
  8
0
  5
5D4
 10
52.4634
 20
139.708
 30
0.000000
  70
    32
  0
VERTEX
  8
0
  5
5D5
 10
52.6690
 20
139.640
 30
0.000000
  70
    32
  0
VERTEX
  8
0
  5
5D6
 10
52.8844
 20
139.575
 30
0.000000
  70
    32
  0
VERTEX
  8
0
  5
5D7
 10
53.1094
 20
139.512
 30
0.000000
  70
    32
  0
VERTEX
  8
0
  5
5D8
 10
53.3435
 20
139.452
 30
0.000000
  70
    32
  0
VERTEX
  8
0
  5
5D9
 10
53.5865
 20
139.395
 30
0.000000
  70
    32
  0
VERTEX
  8
0
  5
5DA
 10
53.8378
 20
139.340
 30
0.000000
  70
    32
  0
VERTEX
  8
0
  5
5DB
 10
54.0970
 20
139.288
 30
0.000000
  70
    32
  0
VERTEX
  8
0
  5
5DC
 10
54.3638
 20
139.239
 30
0.000000
  70
    32
  0
VERTEX
  8
0
  5
5DD
 10
54.6376
 20
139.193
 30
0.000000
  70
    32
  0
VERTEX
  8
0
  5
5DE
 10
54.9181
 20
139.150
 30
0.000000
  70
    32
  0
VERTEX
  8
0
  5
5DF
 10
55.2047
 20
139.110
 30
0.000000
  70
    32
  0
VERTEX
  8
0
  5
5E0
 10
55.4970
 20
139.074
 30
0.000000
  70
    32
  0
VERTEX
  8
0
  5
5E1
 10
55.7944
 20
139.041
 30
0.000000
  70
    32
  0
VERTEX
  8
0
  5
5E2
 10
56.0966
 20
139.011
 30
0.000000
  70
    32
  0
VERTEX
  8
0
  5
5E3
 10
56.4030
 20
138.984
 30
0.000000
  70
    32
  0
VERTEX
  8
0
  5
5E4
 10
56.7131
 20
138.961
 30
0.000000
  70
    32
  0
VERTEX
  8
0
  5
5E5
 10
57.0263
 20
138.942
 30
0.000000
  70
    32
  0
VERTEX
  8
0
  5
5E6
 10
57.3422
 20
138.926
 30
0.000000
  70
    32
  0
VERTEX
  8
0
  5
5E7
 10
57.6602
 20
138.913
 30
0.000000
  70
    32
  0
VERTEX
  8
0
  5
5E8
 10
57.9798
 20
138.904
 30
0.000000
  70
    32
  0
VERTEX
  8
0
  5
5E9
 10
58.3005
 20
138.899
 30
0.000000
  70
    32
  0
VERTEX
  8
0
  5
5EA
 10
58.6217
 20
138.897
 30
0.000000
  70
    32
  0
VERTEX
  8
0
  5
5EB
 10
58.9430
 20
138.899
 30
0.000000
  70
    32
  0
VERTEX
  8
0
  5
5EC
 10
59.2636
 20
138.904
 30
0.000000
  70
    32
  0
VERTEX
  8
0
  5
5ED
 10
59.5833
 20
138.913
 30
0.000000
  70
    32
  0
VERTEX
  8
0
  5
5EE
 10
59.9013
 20
138.926
 30
0.000000
  70
    32
  0
VERTEX
  8
0
  5
5EF
 10
60.2172
 20
138.942
 30
0.000000
  70
    32
  0
VERTEX
  8
0
  5
5F0
 10
60.5304
 20
138.961
 30
0.000000
  70
    32
  0
VERTEX
  8
0
  5
5F1
 10
60.8405
 20
138.984
 30
0.000000
  70
    32
  0
VERTEX
  8
0
  5
5F2
 10
61.1469
 20
139.011
 30
0.000000
  70
    32
  0
VERTEX
  8
0
  5
5F3
 10
61.4490
 20
139.041
 30
0.000000
  70
    32
  0
VERTEX
  8
0
  5
5F4
 10
61.7465
 20
139.074
 30
0.000000
  70
    32
  0
VERTEX
  8
0
  5
5F5
 10
62.0388
 20
139.110
 30
0.000000
  70
    32
  0
VERTEX
  8
0
  5
5F6
 10
62.3254
 20
139.150
 30
0.000000
  70
    32
  0
VERTEX
  8
0
  5
5F7
 10
62.6059
 20
139.193
 30
0.000000
  70
    32
  0
VERTEX
  8
0
  5
5F8
 10
62.8797
 20
139.239
 30
0.000000
  70
    32
  0
VERTEX
  8
0
  5
5F9
 10
63.1465
 20
139.288
 30
0.000000
  70
    32
  0
VERTEX
  8
0
  5
5FA
 10
63.4057
 20
139.340
 30
0.000000
  70
    32
  0
VERTEX
  8
0
  5
5FB
 10
63.6570
 20
139.395
 30
0.000000
  70
    32
  0
VERTEX
  8
0
  5
5FC
 10
63.8999
 20
139.452
 30
0.000000
  70
    32
  0
VERTEX
  8
0
  5
5FD
 10
64.1341
 20
139.512
 30
0.000000
  70
    32
  0
VERTEX
  8
0
  5
5FE
 10
64.3591
 20
139.575
 30
0.000000
  70
    32
  0
VERTEX
  8
0
  5
5FF
 10
64.5745
 20
139.640
 30
0.000000
  70
    32
  0
VERTEX
  8
0
  5
600
 10
64.7801
 20
139.708
 30
0.000000
  70
    32
  0
VERTEX
  8
0
  5
601
 10
64.9754
 20
139.778
 30
0.000000
  70
    32
  0
VERTEX
  8
0
  5
602
 10
65.1602
 20
139.849
 30
0.000000
  70
    32
  0
VERTEX
  8
0
  5
603
 10
65.3341
 20
139.923
 30
0.000000
  70
    32
  0
VERTEX
  8
0
  5
604
 10
65.4968
 20
139.999
 30
0.000000
  70
    32
  0
VERTEX
  8
0
  5
605
 10
65.6481
 20
140.077
 30
0.000000
  70
    32
  0
VERTEX
  8
0
  5
606
 10
65.7878
 20
140.156
 30
0.000000
  70
    32
  0
VERTEX
  8
0
  5
607
 10
65.9155
 20
140.236
 30
0.000000
  70
    32
  0
VERTEX
  8
0
  5
608
 10
66.0311
 20
140.318
 30
0.000000
  70
    32
  0
VERTEX
  8
0
  5
609
 10
66.1344
 20
140.402
 30
0.000000
  70
    32
  0
VERTEX
  8
0
  5
60A
 10
66.2252
 20
140.486
 30
0.000000
  70
    32
  0
VERTEX
  8
0
  5
60B
 10
66.3034
 20
140.571
 30
0.000000
  70
    32
  0
VERTEX
  8
0
  5
60C
 10
66.3688
 20
140.657
 30
0.000000
  70
    32
  0
VERTEX
  8
0
  5
60D
 10
66.4213
 20
140.744
 30
0.000000
  70
    32
  0
VERTEX
  8
0
  5
60E
 10
66.4609
 20
140.831
 30
0.000000
  70
    32
  0
VERTEX
  8
0
  5
60F
 10
66.4875
 20
140.919
 30
0.000000
  70
    32
  0
VERTEX
  8
0
  5
610
 10
66.5009
 20
141.007
 30
0.000000
  70
    32
  0
VERTEX
  8
0
  5
611
 10
66.5013
 20
141.095
 30
0.000000
  70
    32
  0
VERTEX
  8
0
  5
612
 10
66.4886
 20
141.182
 30
0.000000
  70
    32
  0
VERTEX
  8
0
  5
613
 10
66.4628
 20
141.270
 30
0.000000
  70
    32
  0
VERTEX
  8
0
  5
614
 10
66.4240
 20
141.357
 30
0.000000
  70
    32
  0
VERTEX
  8
0
  5
615
 10
66.3722
 20
141.444
 30
0.000000
  70
    32
  0
VERTEX
  8
0
  5
616
 10
66.3075
 20
141.530
 30
0.000000
  70
    32
  0
VERTEX
  8
0
  5
617
 10
66.2300
 20
141.615
 30
0.000000
  70
    32
  0
VERTEX
  8
0
  5
618
 10
66.1400
 20
141.700
 30
0.000000
  70
    32
  0
VERTEX
  8
0
  5
619
 10
66.0374
 20
141.783
 30
0.000000
  70
    32
  0
VERTEX
  8
0
  5
61A
 10
65.9225
 20
141.865
 30
0.000000
  70
    32
  0
VERTEX
  8
0
  5
61B
 10
65.7954
 20
141.946
 30
0.000000
  70
    32
  0
VERTEX
  8
0
  5
61C
 10
65.6565
 20
142.025
 30
0.000000
  70
    32
  0
VERTEX
  8
0
  5
61D
 10
65.5058
 20
142.103
 30
0.000000
  70
    32
  0
VERTEX
  8
0
  5
61E
 10
65.3437
 20
142.179
 30
0.000000
  70
    32
  0
VERTEX
  8
0
  5
61F
 10
65.1704
 20
142.253
 30
0.000000
  70
    32
  0
VERTEX
  8
0
  5
620
 10
64.9863
 20
142.325
 30
0.000000
  70
    32
  0
VERTEX
  8
0
  5
621
 10
64.7915
 20
142.395
 30
0.000000
  70
    32
  0
VERTEX
  8
0
  5
622
 10
64.5866
 20
142.462
 30
0.000000
  70
    32
  0
VERTEX
  8
0
  5
623
 10
64.3717
 20
142.528
 30
0.000000
  70
    32
  0
VERTEX
  8
0
  5
624
 10
64.1472
 20
142.590
 30
0.000000
  70
    32
  0
VERTEX
  8
0
  5
625
 10
63.9136
 20
142.651
 30
0.000000
  70
    32
  0
VERTEX
  8
0
  5
626
 10
63.6711
 20
142.709
 30
0.000000
  70
    32
  0
VERTEX
  8
0
  5
627
 10
63.4203
 20
142.763
 30
0.000000
  70
    32
  0
VERTEX
  8
0
  5
628
 10
63.1615
 20
142.816
 30
0.000000
  70
    32
  0
VERTEX
  8
0
  5
629
 10
62.8952
 20
142.865
 30
0.000000
  70
    32
  0
VERTEX
  8
0
  5
62A
 10
62.6217
 20
142.911
 30
0.000000
  70
    32
  0
SEQEND
  8
0
  5
62B
  0
ARC
  5
247
  8
0
 10
128.74976945561141
 20
142.91938356382599
 30
0.0
 40
0.3
 50
345.6275391096255
 51
104.9999999999996
  0
POLYLINE
  5
248
  8
0
 10
62.971743846428254
 20
151.13321591498411
 30
0.0
 66
     1
 70
     8
  0
VERTEX
  8
0
  5
62C
 10
62.9717
 20
151.133
 30
0.000000
  70
    32
  0
VERTEX
  8
0
  5
62D
 10
62.9704
 20
151.224
 30
0.000000
  70
    32
  0
VERTEX
  8
0
  5
62E
 10
62.9665
 20
151.315
 30
0.000000
  70
    32
  0
VERTEX
  8
0
  5
62F
 10
62.9600
 20
151.405
 30
0.000000
  70
    32
  0
VERTEX
  8
0
  5
630
 10
62.9508
 20
151.496
 30
0.000000
  70
    32
  0
VERTEX
  8
0
  5
631
 10
62.9390
 20
151.586
 30
0.000000
  70
    32
  0
VERTEX
  8
0
  5
632
 10
62.9247
 20
151.676
 30
0.000000
  70
    32
  0
VERTEX
  8
0
  5
633
 10
62.9077
 20
151.765
 30
0.000000
  70
    32
  0
VERTEX
  8
0
  5
634
 10
62.8882
 20
151.855
 30
0.000000
  70
    32
  0
VERTEX
  8
0
  5
635
 10
62.8660
 20
151.943
 30
0.000000
  70
    32
  0
VERTEX
  8
0
  5
636
 10
62.8414
 20
152.032
 30
0.000000
  70
    32
  0
VERTEX
  8
0
  5
637
 10
62.8142
 20
152.119
 30
0.000000
  70
    32
  0
VERTEX
  8
0
  5
638
 10
62.7844
 20
152.207
 30
0.000000
  70
    32
  0
VERTEX
  8
0
  5
639
 10
62.7522
 20
152.293
 30
0.000000
  70
    32
  0
VERTEX
  8
0
  5
63A
 10
62.7175
 20
152.379
 30
0.000000
  70
    32
  0
VERTEX
  8
0
  5
63B
 10
62.6803
 20
152.464
 30
0.000000
  70
    32
  0
VERTEX
  8
0
  5
63C
 10
62.6406
 20
152.548
 30
0.000000
  70
    32
  0
VERTEX
  8
0
  5
63D
 10
62.5986
 20
152.632
 30
0.000000
  70
    32
  0
VERTEX
  8
0
  5
63E
 10
62.5541
 20
152.714
 30
0.000000
  70
    32
  0
VERTEX
  8
0
  5
63F
 10
62.5073
 20
152.796
 30
0.000000
  70
    32
  0
VERTEX
  8
0
  5
640
 10
62.4581
 20
152.876
 30
0.000000
  70
    32
  0
VERTEX
  8
0
  5
641
 10
62.4066
 20
152.956
 30
0.000000
  70
    32
  0
VERTEX
  8
0
  5
642
 10
62.3529
 20
153.034
 30
0.000000
  70
    32
  0
VERTEX
  8
0
  5
643
 10
62.2969
 20
153.112
 30
0.000000
  70
    32
  0
VERTEX
  8
0
  5
644
 10
62.2386
 20
153.188
 30
0.000000
  70
    32
  0
VERTEX
  8
0
  5
645
 10
62.1782
 20
153.262
 30
0.000000
  70
    32
  0
VERTEX
  8
0
  5
646
 10
62.1157
 20
153.336
 30
0.000000
  70
    32
  0
VERTEX
  8
0
  5
647
 10
62.0511
 20
153.408
 30
0.000000
  70
    32
  0
VERTEX
  8
0
  5
648
 10
61.9843
 20
153.479
 30
0.000000
  70
    32
  0
VERTEX
  8
0
  5
649
 10
61.9156
 20
153.549
 30
0.000000
  70
    32
  0
VERTEX
  8
0
  5
64A
 10
61.8449
 20
153.617
 30
0.000000
  70
    32
  0
VERTEX
  8
0
  5
64B
 10
61.7722
 20
153.683
 30
0.000000
  70
    32
  0
VERTEX
  8
0
  5
64C
 10
61.6977
 20
153.748
 30
0.000000
  70
    32
  0
VERTEX
  8
0
  5
64D
 10
61.6212
 20
153.811
 30
0.000000
  70
    32
  0
VERTEX
  8
0
  5
64E
 10
61.5430
 20
153.873
 30
0.000000
  70
    32
  0
VERTEX
  8
0
  5
64F
 10
61.4630
 20
153.933
 30
0.000000
  70
    32
  0
VERTEX
  8
0
  5
650
 10
61.3814
 20
153.992
 30
0.000000
  70
    32
  0
VERTEX
  8
0
  5
651
 10
61.2980
 20
154.048
 30
0.000000
  70
    32
  0
VERTEX
  8
0
  5
652
 10
61.2130
 20
154.103
 30
0.000000
  70
    32
  0
VERTEX
  8
0
  5
653
 10
61.1265
 20
154.157
 30
0.000000
  70
    32
  0
VERTEX
  8
0
  5
654
 10
61.0385
 20
154.208
 30
0.000000
  70
    32
  0
VERTEX
  8
0
  5
655
 10
60.9490
 20
154.257
 30
0.000000
  70
    32
  0
VERTEX
  8
0
  5
656
 10
60.8581
 20
154.305
 30
0.000000
  70
    32
  0
VERTEX
  8
0
  5
657
 10
60.7659
 20
154.351
 30
0.000000
  70
    32
  0
VERTEX
  8
0
  5
658
 10
60.6723
 20
154.394
 30
0.000000
  70
    32
  0
VERTEX
  8
0
  5
659
 10
60.5776
 20
154.436
 30
0.000000
  70
    32
  0
VERTEX
  8
0
  5
65A
 10
60.4816
 20
154.476
 30
0.000000
  70
    32
  0
VERTEX
  8
0
  5
65B
 10
60.3845
 20
154.514
 30
0.000000
  70
    32
  0
VERTEX
  8
0
  5
65C
 10
60.2864
 20
154.550
 30
0.000000
  70
    32
  0
VERTEX
  8
0
  5
65D
 10
60.1873
 20
154.583
 30
0.000000
  70
    32
  0
VERTEX
  8
0
  5
65E
 10
60.0872
 20
154.615
 30
0.000000
  70
    32
  0
VERTEX
  8
0
  5
65F
 10
59.9863
 20
154.644
 30
0.000000
  70
    32
  0
VERTEX
  8
0
  5
660
 10
59.8845
 20
154.672
 30
0.000000
  70
    32
  0
VERTEX
  8
0
  5
661
 10
59.7819
 20
154.697
 30
0.000000
  70
    32
  0
VERTEX
  8
0
  5
662
 10
59.6787
 20
154.720
 30
0.000000
  70
    32
  0
VERTEX
  8
0
  5
663
 10
59.5748
 20
154.741
 30
0.000000
  70
    32
  0
VERTEX
  8
0
  5
664
 10
59.4704
 20
154.760
 30
0.000000
  70
    32
  0
VERTEX
  8
0
  5
665
 10
59.3654
 20
154.777
 30
0.000000
  70
    32
  0
VERTEX
  8
0
  5
666
 10
59.2600
 20
154.791
 30
0.000000
  70
    32
  0
VERTEX
  8
0
  5
667
 10
59.1542
 20
154.803
 30
0.000000
  70
    32
  0
VERTEX
  8
0
  5
668
 10
59.0481
 20
154.813
 30
0.000000
  70
    32
  0
VERTEX
  8
0
  5
669
 10
58.9417
 20
154.821
 30
0.000000
  70
    32
  0
VERTEX
  8
0
  5
66A
 10
58.8352
 20
154.827
 30
0.000000
  70
    32
  0
VERTEX
  8
0
  5
66B
 10
58.7285
 20
154.830
 30
0.000000
  70
    32
  0
VERTEX
  8
0
  5
66C
 10
58.6217
 20
154.831
 30
0.000000
  70
    32
  0
VERTEX
  8
0
  5
66D
 10
58.5150
 20
154.830
 30
0.000000
  70
    32
  0
VERTEX
  8
0
  5
66E
 10
58.4083
 20
154.827
 30
0.000000
  70
    32
  0
VERTEX
  8
0
  5
66F
 10
58.3017
 20
154.821
 30
0.000000
  70
    32
  0
VERTEX
  8
0
  5
670
 10
58.1954
 20
154.813
 30
0.000000
  70
    32
  0
VERTEX
  8
0
  5
671
 10
58.0893
 20
154.803
 30
0.000000
  70
    32
  0
VERTEX
  8
0
  5
672
 10
57.9835
 20
154.791
 30
0.000000
  70
    32
  0
VERTEX
  8
0
  5
673
 10
57.8781
 20
154.777
 30
0.000000
  70
    32
  0
VERTEX
  8
0
  5
674
 10
57.7731
 20
154.760
 30
0.000000
  70
    32
  0
VERTEX
  8
0
  5
675
 10
57.6687
 20
154.741
 30
0.000000
  70
    32
  0
VERTEX
  8
0
  5
676
 10
57.5648
 20
154.720
 30
0.000000
  70
    32
  0
VERTEX
  8
0
  5
677
 10
57.4615
 20
154.697
 30
0.000000
  70
    32
  0
VERTEX
  8
0
  5
678
 10
57.3590
 20
154.672
 30
0.000000
  70
    32
  0
VERTEX
  8
0
  5
679
 10
57.2572
 20
154.644
 30
0.000000
  70
    32
  0
VERTEX
  8
0
  5
67A
 10
57.1563
 20
154.615
 30
0.000000
  70
    32
  0
VERTEX
  8
0
  5
67B
 10
57.0562
 20
154.583
 30
0.000000
  70
    32
  0
VERTEX
  8
0
  5
67C
 10
56.9571
 20
154.550
 30
0.000000
  70
    32
  0
VERTEX
  8
0
  5
67D
 10
56.8589
 20
154.514
 30
0.000000
  70
    32
  0
VERTEX
  8
0
  5
67E
 10
56.7619
 20
154.476
 30
0.000000
  70
    32
  0
VERTEX
  8
0
  5
67F
 10
56.6659
 20
154.436
 30
0.000000
  70
    32
  0
VERTEX
  8
0
  5
680
 10
56.5712
 20
154.394
 30
0.000000
  70
    32
  0
VERTEX
  8
0
  5
681
 10
56.4776
 20
154.351
 30
0.000000
  70
    32
  0
VERTEX
  8
0
  5
682
 10
56.3854
 20
154.305
 30
0.000000
  70
    32
  0
VERTEX
  8
0
  5
683
 10
56.2945
 20
154.257
 30
0.000000
  70
    32
  0
VERTEX
  8
0
  5
684
 10
56.2050
 20
154.208
 30
0.000000
  70
    32
  0
VERTEX
  8
0
  5
685
 10
56.1170
 20
154.157
 30
0.000000
  70
    32
  0
VERTEX
  8
0
  5
686
 10
56.0305
 20
154.103
 30
0.000000
  70
    32
  0
VERTEX
  8
0
  5
687
 10
55.9455
 20
154.048
 30
0.000000
  70
    32
  0
VERTEX
  8
0
  5
688
 10
55.8621
 20
153.992
 30
0.000000
  70
    32
  0
VERTEX
  8
0
  5
689
 10
55.7804
 20
153.933
 30
0.000000
  70
    32
  0
VERTEX
  8
0
  5
68A
 10
55.7005
 20
153.873
 30
0.000000
  70
    32
  0
VERTEX
  8
0
  5
68B
 10
55.6222
 20
153.811
 30
0.000000
  70
    32
  0
VERTEX
  8
0
  5
68C
 10
55.5458
 20
153.748
 30
0.000000
  70
    32
  0
VERTEX
  8
0
  5
68D
 10
55.4713
 20
153.683
 30
0.000000
  70
    32
  0
VERTEX
  8
0
  5
68E
 10
55.3986
 20
153.617
 30
0.000000
  70
    32
  0
VERTEX
  8
0
  5
68F
 10
55.3279
 20
153.549
 30
0.000000
  70
    32
  0
VERTEX
  8
0
  5
690
 10
55.2591
 20
153.479
 30
0.000000
  70
    32
  0
VERTEX
  8
0
  5
691
 10
55.1924
 20
153.408
 30
0.000000
  70
    32
  0
VERTEX
  8
0
  5
692
 10
55.1278
 20
153.336
 30
0.000000
  70
    32
  0
VERTEX
  8
0
  5
693
 10
55.0652
 20
153.262
 30
0.000000
  70
    32
  0
VERTEX
  8
0
  5
694
 10
55.0049
 20
153.188
 30
0.000000
  70
    32
  0
VERTEX
  8
0
  5
695
 10
54.9466
 20
153.112
 30
0.000000
  70
    32
  0
VERTEX
  8
0
  5
696
 10
54.8906
 20
153.034
 30
0.000000
  70
    32
  0
VERTEX
  8
0
  5
697
 10
54.8369
 20
152.956
 30
0.000000
  70
    32
  0
VERTEX
  8
0
  5
698
 10
54.7854
 20
152.876
 30
0.000000
  70
    32
  0
VERTEX
  8
0
  5
699
 10
54.7362
 20
152.796
 30
0.000000
  70
    32
  0
VERTEX
  8
0
  5
69A
 10
54.6894
 20
152.714
 30
0.000000
  70
    32
  0
VERTEX
  8
0
  5
69B
 10
54.6449
 20
152.632
 30
0.000000
  70
    32
  0
VERTEX
  8
0
  5
69C
 10
54.6029
 20
152.548
 30
0.000000
  70
    32
  0
VERTEX
  8
0
  5
69D
 10
54.5632
 20
152.464
 30
0.000000
  70
    32
  0
VERTEX
  8
0
  5
69E
 10
54.5260
 20
152.379
 30
0.000000
  70
    32
  0
VERTEX
  8
0
  5
69F
 10
54.4913
 20
152.293
 30
0.000000
  70
    32
  0
VERTEX
  8
0
  5
6A0
 10
54.4591
 20
152.207
 30
0.000000
  70
    32
  0
VERTEX
  8
0
  5
6A1
 10
54.4293
 20
152.119
 30
0.000000
  70
    32
  0
VERTEX
  8
0
  5
6A2
 10
54.4021
 20
152.032
 30
0.000000
  70
    32
  0
VERTEX
  8
0
  5
6A3
 10
54.3774
 20
151.943
 30
0.000000
  70
    32
  0
VERTEX
  8
0
  5
6A4
 10
54.3553
 20
151.855
 30
0.000000
  70
    32
  0
VERTEX
  8
0
  5
6A5
 10
54.3358
 20
151.765
 30
0.000000
  70
    32
  0
VERTEX
  8
0
  5
6A6
 10
54.3188
 20
151.676
 30
0.000000
  70
    32
  0
VERTEX
  8
0
  5
6A7
 10
54.3045
 20
151.586
 30
0.000000
  70
    32
  0
VERTEX
  8
0
  5
6A8
 10
54.2927
 20
151.496
 30
0.000000
  70
    32
  0
VERTEX
  8
0
  5
6A9
 10
54.2835
 20
151.405
 30
0.000000
  70
    32
  0
VERTEX
  8
0
  5
6AA
 10
54.2770
 20
151.315
 30
0.000000
  70
    32
  0
VERTEX
  8
0
  5
6AB
 10
54.2731
 20
151.224
 30
0.000000
  70
    32
  0
VERTEX
  8
0
  5
6AC
 10
54.2717
 20
151.133
 30
0.000000
  70
    32
  0
SEQEND
  8
0
  5
6AD
  0
POLYLINE
  5
249
  8
0
 10
54.621743846428352
 20
141.47958581208499
 30
0.0
 66
     1
 70
     8
  0
VERTEX
  8
0
  5
6AE
 10
54.6217
 20
141.480
 30
0.000000
  70
    32
  0
VERTEX
  8
0
  5
6AF
 10
54.5751
 20
141.447
 30
0.000000
  70
    32
  0
VERTEX
  8
0
  5
6B0
 10
54.5323
 20
141.414
 30
0.000000
  70
    32
  0
VERTEX
  8
0
  5
6B1
 10
54.4932
 20
141.380
 30
0.000000
  70
    32
  0
VERTEX
  8
0
  5
6B2
 10
54.4580
 20
141.346
 30
0.000000
  70
    32
  0
VERTEX
  8
0
  5
6B3
 10
54.4266
 20
141.312
 30
0.000000
  70
    32
  0
VERTEX
  8
0
  5
6B4
 10
54.3991
 20
141.278
 30
0.000000
  70
    32
  0
VERTEX
  8
0
  5
6B5
 10
54.3755
 20
141.243
 30
0.000000
  70
    32
  0
VERTEX
  8
0
  5
6B6
 10
54.3559
 20
141.208
 30
0.000000
  70
    32
  0
VERTEX
  8
0
  5
6B7
 10
54.3402
 20
141.173
 30
0.000000
  70
    32
  0
VERTEX
  8
0
  5
6B8
 10
54.3286
 20
141.139
 30
0.000000
  70
    32
  0
VERTEX
  8
0
  5
6B9
 10
54.3208
 20
141.103
 30
0.000000
  70
    32
  0
VERTEX
  8
0
  5
6BA
 10
54.3171
 20
141.068
 30
0.000000
  70
    32
  0
VERTEX
  8
0
  5
6BB
 10
54.3174
 20
141.033
 30
0.000000
  70
    32
  0
VERTEX
  8
0
  5
6BC
 10
54.3217
 20
140.998
 30
0.000000
  70
    32
  0
VERTEX
  8
0
  5
6BD
 10
54.3299
 20
140.963
 30
0.000000
  70
    32
  0
VERTEX
  8
0
  5
6BE
 10
54.3421
 20
140.928
 30
0.000000
  70
    32
  0
VERTEX
  8
0
  5
6BF
 10
54.3584
 20
140.893
 30
0.000000
  70
    32
  0
VERTEX
  8
0
  5
6C0
 10
54.3785
 20
140.858
 30
0.000000
  70
    32
  0
VERTEX
  8
0
  5
6C1
 10
54.4026
 20
140.824
 30
0.000000
  70
    32
  0
VERTEX
  8
0
  5
6C2
 10
54.4306
 20
140.790
 30
0.000000
  70
    32
  0
VERTEX
  8
0
  5
6C3
 10
54.4625
 20
140.755
 30
0.000000
  70
    32
  0
VERTEX
  8
0
  5
6C4
 10
54.4983
 20
140.722
 30
0.000000
  70
    32
  0
VERTEX
  8
0
  5
6C5
 10
54.5379
 20
140.688
 30
0.000000
  70
    32
  0
VERTEX
  8
0
  5
6C6
 10
54.5813
 20
140.655
 30
0.000000
  70
    32
  0
VERTEX
  8
0
  5
6C7
 10
54.6284
 20
140.622
 30
0.000000
  70
    32
  0
VERTEX
  8
0
  5
6C8
 10
54.6792
 20
140.590
 30
0.000000
  70
    32
  0
VERTEX
  8
0
  5
6C9
 10
54.7337
 20
140.558
 30
0.000000
  70
    32
  0
VERTEX
  8
0
  5
6CA
 10
54.7918
 20
140.526
 30
0.000000
  70
    32
  0
VERTEX
  8
0
  5
6CB
 10
54.8534
 20
140.495
 30
0.000000
  70
    32
  0
VERTEX
  8
0
  5
6CC
 10
54.9186
 20
140.465
 30
0.000000
  70
    32
  0
VERTEX
  8
0
  5
6CD
 10
54.9872
 20
140.435
 30
0.000000
  70
    32
  0
VERTEX
  8
0
  5
6CE
 10
55.0591
 20
140.406
 30
0.000000
  70
    32
  0
VERTEX
  8
0
  5
6CF
 10
55.1344
 20
140.377
 30
0.000000
  70
    32
  0
VERTEX
  8
0
  5
6D0
 10
55.2129
 20
140.349
 30
0.000000
  70
    32
  0
VERTEX
  8
0
  5
6D1
 10
55.2945
 20
140.321
 30
0.000000
  70
    32
  0
VERTEX
  8
0
  5
6D2
 10
55.3793
 20
140.294
 30
0.000000
  70
    32
  0
VERTEX
  8
0
  5
6D3
 10
55.4670
 20
140.268
 30
0.000000
  70
    32
  0
VERTEX
  8
0
  5
6D4
 10
55.5577
 20
140.243
 30
0.000000
  70
    32
  0
VERTEX
  8
0
  5
6D5
 10
55.6512
 20
140.218
 30
0.000000
  70
    32
  0
VERTEX
  8
0
  5
6D6
 10
55.7475
 20
140.194
 30
0.000000
  70
    32
  0
VERTEX
  8
0
  5
6D7
 10
55.8464
 20
140.171
 30
0.000000
  70
    32
  0
VERTEX
  8
0
  5
6D8
 10
55.9479
 20
140.149
 30
0.000000
  70
    32
  0
VERTEX
  8
0
  5
6D9
 10
56.0519
 20
140.128
 30
0.000000
  70
    32
  0
VERTEX
  8
0
  5
6DA
 10
56.1583
 20
140.107
 30
0.000000
  70
    32
  0
VERTEX
  8
0
  5
6DB
 10
56.2670
 20
140.087
 30
0.000000
  70
    32
  0
VERTEX
  8
0
  5
6DC
 10
56.3779
 20
140.069
 30
0.000000
  70
    32
  0
VERTEX
  8
0
  5
6DD
 10
56.4908
 20
140.051
 30
0.000000
  70
    32
  0
VERTEX
  8
0
  5
6DE
 10
56.6057
 20
140.034
 30
0.000000
  70
    32
  0
VERTEX
  8
0
  5
6DF
 10
56.7225
 20
140.018
 30
0.000000
  70
    32
  0
VERTEX
  8
0
  5
6E0
 10
56.8410
 20
140.003
 30
0.000000
  70
    32
  0
VERTEX
  8
0
  5
6E1
 10
56.9612
 20
139.989
 30
0.000000
  70
    32
  0
VERTEX
  8
0
  5
6E2
 10
57.0830
 20
139.976
 30
0.000000
  70
    32
  0
VERTEX
  8
0
  5
6E3
 10
57.2061
 20
139.964
 30
0.000000
  70
    32
  0
VERTEX
  8
0
  5
6E4
 10
57.3306
 20
139.953
 30
0.000000
  70
    32
  0
VERTEX
  8
0
  5
6E5
 10
57.4563
 20
139.943
 30
0.000000
  70
    32
  0
VERTEX
  8
0
  5
6E6
 10
57.5830
 20
139.934
 30
0.000000
  70
    32
  0
VERTEX
  8
0
  5
6E7
 10
57.7108
 20
139.926
 30
0.000000
  70
    32
  0
VERTEX
  8
0
  5
6E8
 10
57.8393
 20
139.919
 30
0.000000
  70
    32
  0
VERTEX
  8
0
  5
6E9
 10
57.9686
 20
139.913
 30
0.000000
  70
    32
  0
VERTEX
  8
0
  5
6EA
 10
58.0985
 20
139.908
 30
0.000000
  70
    32
  0
VERTEX
  8
0
  5
6EB
 10
58.2289
 20
139.904
 30
0.000000
  70
    32
  0
VERTEX
  8
0
  5
6EC
 10
58.3596
 20
139.902
 30
0.000000
  70
    32
  0
VERTEX
  8
0
  5
6ED
 10
58.4906
 20
139.900
 30
0.000000
  70
    32
  0
VERTEX
  8
0
  5
6EE
 10
58.6217
 20
139.900
 30
0.000000
  70
    32
  0
VERTEX
  8
0
  5
6EF
 10
58.7529
 20
139.900
 30
0.000000
  70
    32
  0
VERTEX
  8
0
  5
6F0
 10
58.8838
 20
139.902
 30
0.000000
  70
    32
  0
VERTEX
  8
0
  5
6F1
 10
59.0146
 20
139.904
 30
0.000000
  70
    32
  0
VERTEX
  8
0
  5
6F2
 10
59.1450
 20
139.908
 30
0.000000
  70
    32
  0
VERTEX
  8
0
  5
6F3
 10
59.2749
 20
139.913
 30
0.000000
  70
    32
  0
VERTEX
  8
0
  5
6F4
 10
59.4042
 20
139.919
 30
0.000000
  70
    32
  0
VERTEX
  8
0
  5
6F5
 10
59.5327
 20
139.926
 30
0.000000
  70
    32
  0
VERTEX
  8
0
  5
6F6
 10
59.6605
 20
139.934
 30
0.000000
  70
    32
  0
VERTEX
  8
0
  5
6F7
 10
59.7872
 20
139.943
 30
0.000000
  70
    32
  0
VERTEX
  8
0
  5
6F8
 10
59.9129
 20
139.953
 30
0.000000
  70
    32
  0
VERTEX
  8
0
  5
6F9
 10
60.0374
 20
139.964
 30
0.000000
  70
    32
  0
VERTEX
  8
0
  5
6FA
 10
60.1605
 20
139.976
 30
0.000000
  70
    32
  0
VERTEX
  8
0
  5
6FB
 10
60.2823
 20
139.989
 30
0.000000
  70
    32
  0
VERTEX
  8
0
  5
6FC
 10
60.4025
 20
140.003
 30
0.000000
  70
    32
  0
VERTEX
  8
0
  5
6FD
 10
60.5210
 20
140.018
 30
0.000000
  70
    32
  0
VERTEX
  8
0
  5
6FE
 10
60.6378
 20
140.034
 30
0.000000
  70
    32
  0
VERTEX
  8
0
  5
6FF
 10
60.7527
 20
140.051
 30
0.000000
  70
    32
  0
VERTEX
  8
0
  5
700
 10
60.8656
 20
140.069
 30
0.000000
  70
    32
  0
VERTEX
  8
0
  5
701
 10
60.9765
 20
140.087
 30
0.000000
  70
    32
  0
VERTEX
  8
0
  5
702
 10
61.0852
 20
140.107
 30
0.000000
  70
    32
  0
VERTEX
  8
0
  5
703
 10
61.1915
 20
140.128
 30
0.000000
  70
    32
  0
VERTEX
  8
0
  5
704
 10
61.2955
 20
140.149
 30
0.000000
  70
    32
  0
VERTEX
  8
0
  5
705
 10
61.3971
 20
140.171
 30
0.000000
  70
    32
  0
VERTEX
  8
0
  5
706
 10
61.4960
 20
140.194
 30
0.000000
  70
    32
  0
VERTEX
  8
0
  5
707
 10
61.5923
 20
140.218
 30
0.000000
  70
    32
  0
VERTEX
  8
0
  5
708
 10
61.6858
 20
140.243
 30
0.000000
  70
    32
  0
VERTEX
  8
0
  5
709
 10
61.7765
 20
140.268
 30
0.000000
  70
    32
  0
VERTEX
  8
0
  5
70A
 10
61.8642
 20
140.294
 30
0.000000
  70
    32
  0
VERTEX
  8
0
  5
70B
 10
61.9490
 20
140.321
 30
0.000000
  70
    32
  0
VERTEX
  8
0
  5
70C
 10
62.0306
 20
140.349
 30
0.000000
  70
    32
  0
VERTEX
  8
0
  5
70D
 10
62.1091
 20
140.377
 30
0.000000
  70
    32
  0
VERTEX
  8
0
  5
70E
 10
62.1844
 20
140.406
 30
0.000000
  70
    32
  0
VERTEX
  8
0
  5
70F
 10
62.2563
 20
140.435
 30
0.000000
  70
    32
  0
VERTEX
  8
0
  5
710
 10
62.3249
 20
140.465
 30
0.000000
  70
    32
  0
VERTEX
  8
0
  5
711
 10
62.3900
 20
140.495
 30
0.000000
  70
    32
  0
VERTEX
  8
0
  5
712
 10
62.4517
 20
140.526
 30
0.000000
  70
    32
  0
VERTEX
  8
0
  5
713
 10
62.5098
 20
140.558
 30
0.000000
  70
    32
  0
VERTEX
  8
0
  5
714
 10
62.5643
 20
140.590
 30
0.000000
  70
    32
  0
VERTEX
  8
0
  5
715
 10
62.6151
 20
140.622
 30
0.000000
  70
    32
  0
VERTEX
  8
0
  5
716
 10
62.6622
 20
140.655
 30
0.000000
  70
    32
  0
VERTEX
  8
0
  5
717
 10
62.7056
 20
140.688
 30
0.000000
  70
    32
  0
VERTEX
  8
0
  5
718
 10
62.7452
 20
140.722
 30
0.000000
  70
    32
  0
VERTEX
  8
0
  5
719
 10
62.7810
 20
140.755
 30
0.000000
  70
    32
  0
VERTEX
  8
0
  5
71A
 10
62.8129
 20
140.790
 30
0.000000
  70
    32
  0
VERTEX
  8
0
  5
71B
 10
62.8409
 20
140.824
 30
0.000000
  70
    32
  0
VERTEX
  8
0
  5
71C
 10
62.8650
 20
140.858
 30
0.000000
  70
    32
  0
VERTEX
  8
0
  5
71D
 10
62.8851
 20
140.893
 30
0.000000
  70
    32
  0
VERTEX
  8
0
  5
71E
 10
62.9013
 20
140.928
 30
0.000000
  70
    32
  0
VERTEX
  8
0
  5
71F
 10
62.9136
 20
140.963
 30
0.000000
  70
    32
  0
VERTEX
  8
0
  5
720
 10
62.9218
 20
140.998
 30
0.000000
  70
    32
  0
VERTEX
  8
0
  5
721
 10
62.9261
 20
141.033
 30
0.000000
  70
    32
  0
VERTEX
  8
0
  5
722
 10
62.9264
 20
141.068
 30
0.000000
  70
    32
  0
VERTEX
  8
0
  5
723
 10
62.9226
 20
141.103
 30
0.000000
  70
    32
  0
VERTEX
  8
0
  5
724
 10
62.9149
 20
141.139
 30
0.000000
  70
    32
  0
VERTEX
  8
0
  5
725
 10
62.9032
 20
141.173
 30
0.000000
  70
    32
  0
VERTEX
  8
0
  5
726
 10
62.8876
 20
141.208
 30
0.000000
  70
    32
  0
VERTEX
  8
0
  5
727
 10
62.8679
 20
141.243
 30
0.000000
  70
    32
  0
VERTEX
  8
0
  5
728
 10
62.8444
 20
141.278
 30
0.000000
  70
    32
  0
VERTEX
  8
0
  5
729
 10
62.8169
 20
141.312
 30
0.000000
  70
    32
  0
VERTEX
  8
0
  5
72A
 10
62.7855
 20
141.346
 30
0.000000
  70
    32
  0
VERTEX
  8
0
  5
72B
 10
62.7503
 20
141.380
 30
0.000000
  70
    32
  0
VERTEX
  8
0
  5
72C
 10
62.7112
 20
141.414
 30
0.000000
  70
    32
  0
VERTEX
  8
0
  5
72D
 10
62.6684
 20
141.447
 30
0.000000
  70
    32
  0
VERTEX
  8
0
  5
72E
 10
62.6217
 20
141.480
 30
0.000000
  70
    32
  0
SEQEND
  8
0
  5
72F
  0
ARC
  5
24A
  8
0
 10
45.521410387774999
 20
133.15921054831401
 30
0.0
 40
22.417199694281759
 50
4.4264788931797909
 51
20.618067986054282
  0
ARC
  5
24B
  8
0
 10
71.722077305081541
 20
133.15921054831421
 30
0.0
 40
22.417199694281681
 50
159.38193201394569
 51
175.57352110682021
  0
CIRCLE
  5
24C
  8
0
 10
121.49097317207379
 20
209.35405717335249
 30
0.0
 40
7.3857149663709833
  0
ARC
  5
24D
  8
0
 10
114.77413032824791
 20
138.44992901965321
 30
0.0
 40
1.0
 50
104.9999999999996
 51
158.96014851211839
  0
ARC
  5
24E
  8
0
 10
130.5409731720739
 20
131.3530406250315
 30
0.0
 40
0.3
 50
90.0
 51
180.0
  0
LINE
  5
24F
  8
0
 10
112.39222346526191
 20
132.0205408132681
 30
0.0
 11
112.4409731720738
 21
131.65304062503151
 31
0.0
  0
ARC
  5
250
  8
0
 10
67.821743846428234
 20
131.3530406250315
 30
0.0
 40
0.3
 50
90.0
 51
180.0
  0
LINE
  5
251
  8
0
 10
67.871743846428245
 20
134.88936557613891
 30
0.0
 11
67.821743846428234
 21
131.65304062503151
 31
0.0
  0
LINE
  5
252
  8
0
 10
49.371743846428302
 20
134.88936557613891
 30
0.0
 11
49.421743846428249
 21
131.65304062503151
 31
0.0
  0
POLYLINE
  5
253
  8
0
 10
49.371743846428245
 20
134.88936557613891
 30
0.0
 66
     1
 70
     8
  0
VERTEX
  8
0
  5
730
 10
49.3717
 20
134.889
 30
0.000000
  70
    32
  0
VERTEX
  8
0
  5
731
 10
49.3745
 20
134.819
 30
0.000000
  70
    32
  0
VERTEX
  8
0
  5
732
 10
49.3829
 20
134.749
 30
0.000000
  70
    32
  0
VERTEX
  8
0
  5
733
 10
49.3968
 20
134.678
 30
0.000000
  70
    32
  0
VERTEX
  8
0
  5
734
 10
49.4163
 20
134.608
 30
0.000000
  70
    32
  0
VERTEX
  8
0
  5
735
 10
49.4413
 20
134.538
 30
0.000000
  70
    32
  0
VERTEX
  8
0
  5
736
 10
49.4719
 20
134.468
 30
0.000000
  70
    32
  0
VERTEX
  8
0
  5
737
 10
49.5079
 20
134.399
 30
0.000000
  70
    32
  0
VERTEX
  8
0
  5
738
 10
49.5495
 20
134.330
 30
0.000000
  70
    32
  0
VERTEX
  8
0
  5
739
 10
49.5965
 20
134.261
 30
0.000000
  70
    32
  0
VERTEX
  8
0
  5
73A
 10
49.6490
 20
134.192
 30
0.000000
  70
    32
  0
VERTEX
  8
0
  5
73B
 10
49.7068
 20
134.124
 30
0.000000
  70
    32
  0
VERTEX
  8
0
  5
73C
 10
49.7700
 20
134.057
 30
0.000000
  70
    32
  0
VERTEX
  8
0
  5
73D
 10
49.8386
 20
133.989
 30
0.000000
  70
    32
  0
VERTEX
  8
0
  5
73E
 10
49.9125
 20
133.923
 30
0.000000
  70
    32
  0
VERTEX
  8
0
  5
73F
 10
49.9916
 20
133.857
 30
0.000000
  70
    32
  0
VERTEX
  8
0
  5
740
 10
50.0759
 20
133.792
 30
0.000000
  70
    32
  0
VERTEX
  8
0
  5
741
 10
50.1653
 20
133.727
 30
0.000000
  70
    32
  0
VERTEX
  8
0
  5
742
 10
50.2598
 20
133.663
 30
0.000000
  70
    32
  0
VERTEX
  8
0
  5
743
 10
50.3594
 20
133.600
 30
0.000000
  70
    32
  0
VERTEX
  8
0
  5
744
 10
50.4640
 20
133.537
 30
0.000000
  70
    32
  0
VERTEX
  8
0
  5
745
 10
50.5734
 20
133.475
 30
0.000000
  70
    32
  0
VERTEX
  8
0
  5
746
 10
50.6878
 20
133.414
 30
0.000000
  70
    32
  0
VERTEX
  8
0
  5
747
 10
50.8068
 20
133.355
 30
0.000000
  70
    32
  0
VERTEX
  8
0
  5
748
 10
50.9306
 20
133.296
 30
0.000000
  70
    32
  0
VERTEX
  8
0
  5
749
 10
51.0591
 20
133.237
 30
0.000000
  70
    32
  0
VERTEX
  8
0
  5
74A
 10
51.1921
 20
133.180
 30
0.000000
  70
    32
  0
VERTEX
  8
0
  5
74B
 10
51.3295
 20
133.124
 30
0.000000
  70
    32
  0
VERTEX
  8
0
  5
74C
 10
51.4714
 20
133.069
 30
0.000000
  70
    32
  0
VERTEX
  8
0
  5
74D
 10
51.6176
 20
133.016
 30
0.000000
  70
    32
  0
VERTEX
  8
0
  5
74E
 10
51.7679
 20
132.963
 30
0.000000
  70
    32
  0
VERTEX
  8
0
  5
74F
 10
51.9225
 20
132.911
 30
0.000000
  70
    32
  0
VERTEX
  8
0
  5
750
 10
52.0810
 20
132.861
 30
0.000000
  70
    32
  0
VERTEX
  8
0
  5
751
 10
52.2435
 20
132.812
 30
0.000000
  70
    32
  0
VERTEX
  8
0
  5
752
 10
52.4098
 20
132.764
 30
0.000000
  70
    32
  0
VERTEX
  8
0
  5
753
 10
52.5799
 20
132.717
 30
0.000000
  70
    32
  0
VERTEX
  8
0
  5
754
 10
52.7536
 20
132.672
 30
0.000000
  70
    32
  0
VERTEX
  8
0
  5
755
 10
52.9309
 20
132.628
 30
0.000000
  70
    32
  0
VERTEX
  8
0
  5
756
 10
53.1115
 20
132.585
 30
0.000000
  70
    32
  0
VERTEX
  8
0
  5
757
 10
53.2955
 20
132.544
 30
0.000000
  70
    32
  0
VERTEX
  8
0
  5
758
 10
53.4827
 20
132.504
 30
0.000000
  70
    32
  0
VERTEX
  8
0
  5
759
 10
53.6730
 20
132.466
 30
0.000000
  70
    32
  0
VERTEX
  8
0
  5
75A
 10
53.8663
 20
132.429
 30
0.000000
  70
    32
  0
VERTEX
  8
0
  5
75B
 10
54.0624
 20
132.393
 30
0.000000
  70
    32
  0
VERTEX
  8
0
  5
75C
 10
54.2613
 20
132.359
 30
0.000000
  70
    32
  0
VERTEX
  8
0
  5
75D
 10
54.4628
 20
132.327
 30
0.000000
  70
    32
  0
VERTEX
  8
0
  5
75E
 10
54.6669
 20
132.296
 30
0.000000
  70
    32
  0
VERTEX
  8
0
  5
75F
 10
54.8733
 20
132.267
 30
0.000000
  70
    32
  0
VERTEX
  8
0
  5
760
 10
55.0819
 20
132.239
 30
0.000000
  70
    32
  0
VERTEX
  8
0
  5
761
 10
55.2927
 20
132.213
 30
0.000000
  70
    32
  0
VERTEX
  8
0
  5
762
 10
55.5055
 20
132.188
 30
0.000000
  70
    32
  0
VERTEX
  8
0
  5
763
 10
55.7202
 20
132.165
 30
0.000000
  70
    32
  0
VERTEX
  8
0
  5
764
 10
55.9366
 20
132.144
 30
0.000000
  70
    32
  0
VERTEX
  8
0
  5
765
 10
56.1547
 20
132.124
 30
0.000000
  70
    32
  0
VERTEX
  8
0
  5
766
 10
56.3742
 20
132.107
 30
0.000000
  70
    32
  0
VERTEX
  8
0
  5
767
 10
56.5951
 20
132.090
 30
0.000000
  70
    32
  0
VERTEX
  8
0
  5
768
 10
56.8172
 20
132.076
 30
0.000000
  70
    32
  0
VERTEX
  8
0
  5
769
 10
57.0403
 20
132.063
 30
0.000000
  70
    32
  0
VERTEX
  8
0
  5
76A
 10
57.2645
 20
132.052
 30
0.000000
  70
    32
  0
VERTEX
  8
0
  5
76B
 10
57.4894
 20
132.042
 30
0.000000
  70
    32
  0
VERTEX
  8
0
  5
76C
 10
57.7151
 20
132.034
 30
0.000000
  70
    32
  0
VERTEX
  8
0
  5
76D
 10
57.9413
 20
132.028
 30
0.000000
  70
    32
  0
VERTEX
  8
0
  5
76E
 10
58.1679
 20
132.024
 30
0.000000
  70
    32
  0
VERTEX
  8
0
  5
76F
 10
58.3947
 20
132.021
 30
0.000000
  70
    32
  0
VERTEX
  8
0
  5
770
 10
58.6217
 20
132.021
 30
0.000000
  70
    32
  0
VERTEX
  8
0
  5
771
 10
58.8488
 20
132.021
 30
0.000000
  70
    32
  0
VERTEX
  8
0
  5
772
 10
59.0756
 20
132.024
 30
0.000000
  70
    32
  0
VERTEX
  8
0
  5
773
 10
59.3022
 20
132.028
 30
0.000000
  70
    32
  0
VERTEX
  8
0
  5
774
 10
59.5284
 20
132.034
 30
0.000000
  70
    32
  0
VERTEX
  8
0
  5
775
 10
59.7540
 20
132.042
 30
0.000000
  70
    32
  0
VERTEX
  8
0
  5
776
 10
59.9790
 20
132.052
 30
0.000000
  70
    32
  0
VERTEX
  8
0
  5
777
 10
60.2031
 20
132.063
 30
0.000000
  70
    32
  0
VERTEX
  8
0
  5
778
 10
60.4263
 20
132.076
 30
0.000000
  70
    32
  0
VERTEX
  8
0
  5
779
 10
60.6484
 20
132.090
 30
0.000000
  70
    32
  0
VERTEX
  8
0
  5
77A
 10
60.8693
 20
132.107
 30
0.000000
  70
    32
  0
VERTEX
  8
0
  5
77B
 10
61.0888
 20
132.124
 30
0.000000
  70
    32
  0
VERTEX
  8
0
  5
77C
 10
61.3069
 20
132.144
 30
0.000000
  70
    32
  0
VERTEX
  8
0
  5
77D
 10
61.5233
 20
132.165
 30
0.000000
  70
    32
  0
VERTEX
  8
0
  5
77E
 10
61.7380
 20
132.188
 30
0.000000
  70
    32
  0
VERTEX
  8
0
  5
77F
 10
61.9508
 20
132.213
 30
0.000000
  70
    32
  0
VERTEX
  8
0
  5
780
 10
62.1616
 20
132.239
 30
0.000000
  70
    32
  0
VERTEX
  8
0
  5
781
 10
62.3702
 20
132.267
 30
0.000000
  70
    32
  0
VERTEX
  8
0
  5
782
 10
62.5766
 20
132.296
 30
0.000000
  70
    32
  0
VERTEX
  8
0
  5
783
 10
62.7806
 20
132.327
 30
0.000000
  70
    32
  0
VERTEX
  8
0
  5
784
 10
62.9822
 20
132.359
 30
0.000000
  70
    32
  0
VERTEX
  8
0
  5
785
 10
63.1811
 20
132.393
 30
0.000000
  70
    32
  0
VERTEX
  8
0
  5
786
 10
63.3772
 20
132.429
 30
0.000000
  70
    32
  0
VERTEX
  8
0
  5
787
 10
63.5705
 20
132.466
 30
0.000000
  70
    32
  0
VERTEX
  8
0
  5
788
 10
63.7608
 20
132.504
 30
0.000000
  70
    32
  0
VERTEX
  8
0
  5
789
 10
63.9480
 20
132.544
 30
0.000000
  70
    32
  0
VERTEX
  8
0
  5
78A
 10
64.1320
 20
132.585
 30
0.000000
  70
    32
  0
VERTEX
  8
0
  5
78B
 10
64.3126
 20
132.628
 30
0.000000
  70
    32
  0
VERTEX
  8
0
  5
78C
 10
64.4899
 20
132.672
 30
0.000000
  70
    32
  0
VERTEX
  8
0
  5
78D
 10
64.6636
 20
132.717
 30
0.000000
  70
    32
  0
VERTEX
  8
0
  5
78E
 10
64.8337
 20
132.764
 30
0.000000
  70
    32
  0
VERTEX
  8
0
  5
78F
 10
65.0000
 20
132.812
 30
0.000000
  70
    32
  0
VERTEX
  8
0
  5
790
 10
65.1625
 20
132.861
 30
0.000000
  70
    32
  0
VERTEX
  8
0
  5
791
 10
65.3210
 20
132.911
 30
0.000000
  70
    32
  0
VERTEX
  8
0
  5
792
 10
65.4755
 20
132.963
 30
0.000000
  70
    32
  0
VERTEX
  8
0
  5
793
 10
65.6259
 20
133.016
 30
0.000000
  70
    32
  0
VERTEX
  8
0
  5
794
 10
65.7721
 20
133.069
 30
0.000000
  70
    32
  0
VERTEX
  8
0
  5
795
 10
65.9139
 20
133.124
 30
0.000000
  70
    32
  0
VERTEX
  8
0
  5
796
 10
66.0514
 20
133.180
 30
0.000000
  70
    32
  0
VERTEX
  8
0
  5
797
 10
66.1844
 20
133.237
 30
0.000000
  70
    32
  0
VERTEX
  8
0
  5
798
 10
66.3128
 20
133.296
 30
0.000000
  70
    32
  0
VERTEX
  8
0
  5
799
 10
66.4366
 20
133.355
 30
0.000000
  70
    32
  0
VERTEX
  8
0
  5
79A
 10
66.5557
 20
133.414
 30
0.000000
  70
    32
  0
VERTEX
  8
0
  5
79B
 10
66.6700
 20
133.475
 30
0.000000
  70
    32
  0
VERTEX
  8
0
  5
79C
 10
66.7795
 20
133.537
 30
0.000000
  70
    32
  0
VERTEX
  8
0
  5
79D
 10
66.8841
 20
133.600
 30
0.000000
  70
    32
  0
VERTEX
  8
0
  5
79E
 10
66.9836
 20
133.663
 30
0.000000
  70
    32
  0
VERTEX
  8
0
  5
79F
 10
67.0782
 20
133.727
 30
0.000000
  70
    32
  0
VERTEX
  8
0
  5
7A0
 10
67.1676
 20
133.792
 30
0.000000
  70
    32
  0
VERTEX
  8
0
  5
7A1
 10
67.2519
 20
133.857
 30
0.000000
  70
    32
  0
VERTEX
  8
0
  5
7A2
 10
67.3310
 20
133.923
 30
0.000000
  70
    32
  0
VERTEX
  8
0
  5
7A3
 10
67.4049
 20
133.989
 30
0.000000
  70
    32
  0
VERTEX
  8
0
  5
7A4
 10
67.4734
 20
134.057
 30
0.000000
  70
    32
  0
VERTEX
  8
0
  5
7A5
 10
67.5367
 20
134.124
 30
0.000000
  70
    32
  0
VERTEX
  8
0
  5
7A6
 10
67.5945
 20
134.192
 30
0.000000
  70
    32
  0
VERTEX
  8
0
  5
7A7
 10
67.6470
 20
134.261
 30
0.000000
  70
    32
  0
VERTEX
  8
0
  5
7A8
 10
67.6940
 20
134.330
 30
0.000000
  70
    32
  0
VERTEX
  8
0
  5
7A9
 10
67.7356
 20
134.399
 30
0.000000
  70
    32
  0
VERTEX
  8
0
  5
7AA
 10
67.7716
 20
134.468
 30
0.000000
  70
    32
  0
VERTEX
  8
0
  5
7AB
 10
67.8022
 20
134.538
 30
0.000000
  70
    32
  0
VERTEX
  8
0
  5
7AC
 10
67.8272
 20
134.608
 30
0.000000
  70
    32
  0
VERTEX
  8
0
  5
7AD
 10
67.8467
 20
134.678
 30
0.000000
  70
    32
  0
VERTEX
  8
0
  5
7AE
 10
67.8606
 20
134.749
 30
0.000000
  70
    32
  0
VERTEX
  8
0
  5
7AF
 10
67.8690
 20
134.819
 30
0.000000
  70
    32
  0
VERTEX
  8
0
  5
7B0
 10
67.8717
 20
134.889
 30
0.000000
  70
    32
  0
SEQEND
  8
0
  5
7B1
  0
ARC
  5
254
  8
0
 10
130.3089380275911
 20
133.65304062503151
 30
0.0
 40
2.0
 50
270.0
 51
290.00000000000011
  0
ARC
  5
255
  8
0
 10
134.56074628949781
 20
130.83876427291341
 30
0.0
 40
22.199999999999999
 50
158.96014851211919
 51
176.94852124196149
  0
ARC
  5
256
  8
0
 10
143.5772371165541
 20
139.07300170106419
 30
0.0
 40
15.0
 50
187.31842682407839
 51
209.6476012883511
  0
LINE
  5
257
  8
0
 10
171.17818695055911
 20
154.7568994054752
 30
0.0
 11
114.51531128314539
 21
139.41585484594219
 31
0.0
  0
ARC
  5
258
  8
0
 10
143.57091895366929
 20
139.12155160911661
 30
0.0
 40
15.0
 50
165.6275391096238
 51
187.5056706222685
  0
LINE
  5
259
  8
1
 10
68.871743846428274
 20
153.06374714780151
 30
0.0
 11
48.371743846428267
 21
153.06374714780151
 31
0.0
  0
ARC
  5
25A
  8
3
 10
133.8443475013147
 20
208.24616410138239
 30
0.0
 40
0.1341589092123741
 50
180.0
 51
298.07248693585848
  0
LINE
  5
25B
  8
3
 10
133.7101885921023
 20
208.41791816502419
 30
0.0
 11
133.7101885921023
 21
208.24616410138239
 31
0.0
  0
LINE
  5
25C
  8
3
 10
133.07569586853299
 20
208.1277885932538
 30
0.0
 11
133.7101885921023
 21
208.41791816502419
 31
0.0
  0
ARC
  5
25D
  8
3
 10
133.0125622641977
 20
208.24616410138239
 30
0.0
 40
0.1341589092124025
 50
180.0
 51
298.07248693585848
  0
LINE
  5
25E
  8
3
 10
132.87840335498529
 20
208.7559679563895
 30
0.0
 11
132.87840335498529
 21
208.24616410138239
 31
0.0
  0
LINE
  5
25F
  8
3
 10
132.74424444577301
 20
208.7559679563895
 30
0.0
 11
132.87840335498529
 21
208.7559679563895
 31
0.0
  0
LINE
  5
260
  8
3
 10
132.74424444577301
 20
208.1120051921701
 30
0.0
 11
132.74424444577301
 21
208.7559679563895
 31
0.0
  0
LINE
  5
261
  8
3
 10
131.67097317207379
 20
208.1120051921701
 30
0.0
 11
132.74424444577301
 21
208.1120051921701
 31
0.0
  0
LINE
  5
262
  8
3
 10
131.67097317207379
 20
210.5961091545349
 30
0.0
 11
131.67097317207379
 21
208.1120051921701
 31
0.0
  0
ARC
  5
263
  8
3
 10
131.45631891733399
 20
210.5961091545349
 30
0.0
 40
0.2146542547398051
 50
359.99999999999591
 51
60.000000000000632
  0
LINE
  5
264
  8
3
 10
132.85157157314291
 20
210.78200519217
 30
0.0
 11
131.56364604470389
 21
210.78200519217
 31
0.0
  0
ARC
  5
265
  8
3
 10
132.9588987005128
 20
210.59610915453499
 30
0.0
 40
0.2146542547397701
 50
120.0000000000114
 51
180.0000000000154
  0
LINE
  5
266
  8
3
 10
132.74424444577301
 20
209.560921411664
 30
0.0
 11
132.74424444577301
 21
210.59610915453499
 31
0.0
  0
LINE
  5
267
  8
3
 10
133.46160288131151
 20
211.64428158334709
 30
0.0
 11
132.74424444577301
 21
209.560921411664
 31
0.0
  0
ARC
  5
268
  8
3
 10
133.71530236279619
 20
211.55692584639459
 30
0.0
 40
0.2683178184247765
 50
89.999999999993491
 51
160.99999999999471
  0
LINE
  5
269
  8
3
 10
134.10260056588649
 20
211.8252436648194
 30
0.0
 11
133.71530236279631
 21
211.8252436648194
 31
0.0
  0
LINE
  5
26A
  8
3
 10
134.10260056588649
 20
211.77158010113439
 30
0.0
 11
134.10260056588649
 21
211.8252436648194
 31
0.0
  0
LINE
  5
26B
  8
3
 10
135.3036203379755
 20
211.8290331190054
 30
0.0
 11
134.10260056588649
 21
211.77158010113439
 31
0.0
  0
ARC
  5
26C
  8
3
 10
135.31003074879811
 20
211.6950274491472
 30
0.0
 40
0.1341589092123741
 50
359.99999999998778
 51
92.738762511495295
  0
LINE
  5
26D
  8
3
 10
135.44418965801049
 20
211.41882424364189
 30
0.0
 11
135.44418965801049
 21
211.6950274491472
 31
0.0
  0
ARC
  5
26E
  8
3
 10
135.31003074879811
 20
211.41882424364189
 30
0.0
 40
0.1341589092123765
 50
267.26123748850472
 51
0.0000000000122133
  0
LINE
  5
26F
  8
3
 10
134.10260056588649
 20
211.34227159165471
 30
0.0
 11
135.3036203379755
 21
211.28481857378381
 31
0.0
  0
LINE
  5
270
  8
3
 10
134.10260056588649
 20
211.28860802796979
 30
0.0
 11
134.10260056588649
 21
211.34227159165471
 31
0.0
  0
LINE
  5
271
  8
3
 10
133.9456305278305
 20
211.28860802796979
 30
0.0
 11
134.10260056588649
 21
211.28860802796979
 31
0.0
  0
ARC
  5
272
  8
3
 10
133.94563052783039
 20
211.1544491187573
 30
0.0
 40
0.1341589092123918
 50
89.999999999977206
 51
160.99999999997931
  0
LINE
  5
273
  8
3
 10
133.21809000517911
 20
209.45359428429401
 30
0.0
 11
133.818780787088
 21
211.19812698723359
 31
0.0
  0
LINE
  5
274
  8
3
 10
133.46870255552
 20
209.45359428429401
 30
0.0
 11
133.21809000517911
 21
209.45359428429401
 31
0.0
  0
ARC
  5
275
  8
3
 10
133.46870255552
 20
209.34626715692411
 30
0.0
 40
0.1073271273698992
 50
0.0
 51
90.0
  0
LINE
  5
276
  8
3
 10
133.5760296828899
 20
208.9706222111293
 30
0.0
 11
133.5760296828899
 21
209.34626715692411
 31
0.0
  0
ARC
  5
277
  8
3
 10
135.97094403518949
 20
204.77650876597289
 30
0.0
 40
4.8297207316461801
 50
117.9105394925507
 51
119.7271455112981
  0
LINE
  5
278
  8
3
 10
133.7101885921023
 20
209.45359428429401
 30
0.0
 11
133.7101885921023
 21
209.04443416038231
 31
0.0
  0
LINE
  5
279
  8
3
 10
134.24682422895179
 20
209.45359428429401
 30
0.0
 11
133.7101885921023
 21
209.45359428429401
 31
0.0
  0
LINE
  5
27A
  8
3
 10
134.24682422895179
 20
208.9706222111293
 30
0.0
 11
134.24682422895179
 21
209.45359428429401
 31
0.0
  0
ARC
  5
27B
  8
3
 10
136.6417385812515
 20
204.77650876597281
 30
0.0
 40
4.829720731646244
 50
117.55354984775489
 51
119.7271455112981
  0
LINE
  5
27C
  8
3
 10
134.4076187750137
 20
209.45359428429401
 30
0.0
 11
134.4076187750137
 21
209.05843719100159
 31
0.0
  0
LINE
  5
27D
  8
3
 10
134.91761877501381
 20
209.45359428429401
 30
0.0
 11
134.4076187750137
 21
209.45359428429401
 31
0.0
  0
LINE
  5
27E
  8
3
 10
134.91761877501381
 20
209.28800665907119
 30
0.0
 11
134.91761877501381
 21
209.45359428429401
 31
0.0
  0
ARC
  5
27F
  8
3
 10
136.64173858125079
 20
204.77650876597221
 30
0.0
 40
4.829720731646435
 50
104.6488905276772
 51
110.9149203627648
  0
ARC
  5
280
  8
3
 10
135.45425441186339
 20
209.31943537508161
 30
0.0
 40
0.1341589092124025
 50
0.0
 51
104.64889052766711
  0
LINE
  5
281
  8
3
 10
135.58841332107579
 20
208.9706222111293
 30
0.0
 11
135.58841332107579
 21
209.31943537508161
 31
0.0
  0
ARC
  5
282
  8
3
 10
137.9833276733753
 20
204.7765087659711
 30
0.0
 40
4.8297207316477486
 50
117.55354984774399
 51
119.72714551128681
  0
LINE
  5
283
  8
3
 10
135.74920786713761
 20
209.45359428429401
 30
0.0
 11
135.74920786713761
 21
209.05843719100159
 31
0.0
  0
LINE
  5
284
  8
3
 10
136.2592078671376
 20
209.45359428429401
 30
0.0
 11
135.74920786713761
 21
209.45359428429401
 31
0.0
  0
LINE
  5
285
  8
3
 10
136.2592078671376
 20
209.28800665907119
 30
0.0
 11
136.2592078671376
 21
209.45359428429401
 31
0.0
  0
ARC
  5
286
  8
3
 10
137.98332767337459
 20
204.77650876597221
 30
0.0
 40
4.8297207316464617
 50
104.6488905276772
 51
110.9149203627648
  0
ARC
  5
287
  8
3
 10
136.79584350398741
 20
209.31943537508161
 30
0.0
 40
0.1341589092124025
 50
0.0
 51
104.64889052768061
  0
LINE
  5
288
  8
3
 10
136.9300024131997
 20
208.9706222111293
 30
0.0
 11
136.9300024131997
 21
209.31943537508161
 31
0.0
  0
ARC
  5
289
  8
3
 10
139.32491676549819
 20
204.77650876597289
 30
0.0
 40
4.829720731645569
 50
117.5509252952383
 51
119.72714551128681
  0
LINE
  5
28A
  8
3
 10
137.09099310425461
 20
208.39463329424419
 30
0.0
 11
137.09099310425461
 21
209.05853952501971
 31
0.0
  0
LINE
  5
28B
  8
3
 10
136.59065928989779
 20
208.1277885932538
 30
0.0
 11
137.09099310425461
 21
208.39463329424419
 31
0.0
  0
ARC
  5
28C
  8
3
 10
136.52752568556261
 20
208.2461641013825
 30
0.0
 40
0.1341589092124025
 50
180.00000000000571
 51
298.0724869358549
  0
LINE
  5
28D
  8
3
 10
136.39336677635021
 20
208.59497726533471
 30
0.0
 11
136.39336677635021
 21
208.24616410138239
 31
0.0
  0
LINE
  5
28E
  8
3
 10
136.2592078671376
 20
208.5413137016497
 30
0.0
 11
136.39336677635021
 21
208.59497726533471
 31
0.0
  0
LINE
  5
28F
  8
3
 10
136.2592078671376
 20
207.62903311900541
 30
0.0
 11
136.2592078671376
 21
208.5413137016497
 31
0.0
  0
LINE
  5
290
  8
3
 10
135.74920786713761
 20
207.62903311900541
 30
0.0
 11
136.2592078671376
 21
207.62903311900541
 31
0.0
  0
LINE
  5
291
  8
3
 10
135.74920786713761
 20
208.39452868358131
 30
0.0
 11
135.74920786713761
 21
207.62903311900541
 31
0.0
  0
LINE
  5
292
  8
3
 10
135.2490701977739
 20
208.1277885932538
 30
0.0
 11
135.74920786713761
 21
208.39452868358131
 31
0.0
  0
ARC
  5
293
  8
3
 10
135.18593659343861
 20
208.24616410138239
 30
0.0
 40
0.1341589092124025
 50
180.0
 51
298.07248693585848
  0
LINE
  5
294
  8
3
 10
135.05177768422629
 20
208.59497726533471
 30
0.0
 11
135.05177768422629
 21
208.24616410138239
 31
0.0
  0
LINE
  5
295
  8
3
 10
134.91761877501381
 20
208.5413137016497
 30
0.0
 11
135.05177768422629
 21
208.59497726533471
 31
0.0
  0
LINE
  5
296
  8
3
 10
134.91761877501381
 20
207.62903311900541
 30
0.0
 11
134.91761877501381
 21
208.5413137016497
 31
0.0
  0
LINE
  5
297
  8
3
 10
134.4076187750137
 20
207.62903311900541
 30
0.0
 11
134.91761877501381
 21
207.62903311900541
 31
0.0
  0
LINE
  5
298
  8
3
 10
134.4076187750137
 20
208.39452868358131
 30
0.0
 11
134.4076187750137
 21
207.62903311900541
 31
0.0
  0
LINE
  5
299
  8
3
 10
133.90748110564991
 20
208.1277885932538
 30
0.0
 11
134.4076187750137
 21
208.39452868358131
 31
0.0
  0
POLYLINE
  5
29A
  8
3
 66
     1
 10
0.0
 20
0.0
 30
0.0
 70
     1
  0
VERTEX
  5
29B
  8
3
 10
134.30048779263669
 20
209.99022992114359
 30
0.0
 42
1.0000000552842581
  0
VERTEX
  5
29C
  8
3
 10
133.65652502841741
 20
209.99022992114359
 30
0.0
 42
1.0000000552842581
  0
SEQEND
  5
29D
  8
3
  0
LINE
  5
29E
  8
0
 10
172.326926087744
 20
205.00405717335249
 30
0.0
 11
126.2103721385873
 21
202.91957542676229
 31
0.0
  0
LINE
  5
29F
  8
0
 10
172.326926087744
 20
213.70405717335251
 30
0.0
 11
126.21037213858671
 21
215.78853891994271
 31
0.0
  0
LINE
  5
2A0
  8
1
 10
178.74097317207381
 20
219.6040571733524
 30
0.0
 11
178.74097317207381
 21
199.1040571733524
 31
0.0
  0
LINE
  5
2A1
  8
1
 10
121.49097317207379
 20
221.10405717335249
 30
0.0
 11
121.49097317207379
 21
197.60405717335249
 31
0.0
  0
LINE
  5
2A2
  8
1
 10
188.99097317207381
 20
209.35405717335249
 30
0.0
 11
109.74097317207379
 21
209.35405717335249
 31
0.0
  0
LINE
  5
2A3
  8
1
 10
58.621743846428267
 20
163.31374714780151
 30
0.0
 11
58.621743846428217
 21
112.31374714780149
 31
0.0
  0
LINE
  5
2A4
  8
0
 10
66.896507326949802
 20
121.31374714780149
 30
0.0
 11
50.346980365906752
 21
121.31374714780149
 31
0.0
  0
LINE
  5
2A5
  8
0
 10
49.721743846428261
 20
131.3530406250315
 30
0.0
 11
50.041744643975498
 21
121.61370145634839
 31
0.0
  0
LINE
  5
2A6
  8
0
 10
50.041744643975498
 20
121.61370145634839
 30
0.0
 11
50.346980365906752
 21
121.31374714780149
 31
0.0
  0
LINE
  5
2A7
  8
0
 10
67.201743048880985
 20
121.61370145634839
 30
0.0
 11
66.896507326949802
 21
121.31374714780149
 31
0.0
  0
LINE
  5
2A8
  8
0
 10
67.521743846428336
 20
131.3530406250315
 30
0.0
 11
67.201743048880985
 21
121.61370145634839
 31
0.0
  0
LINE
  5
2A9
  8
0
 10
50.041744643975498
 20
121.61370145634839
 30
0.0
 11
67.201743048880985
 21
121.61370145634839
 31
0.0
  0
LINE
  5
2AA
  8
0
 10
67.521743846428336
 20
131.3530406250315
 30
0.0
 11
49.721743846428261
 21
131.3530406250315
 31
0.0
  0
ARC
  5
2AB
  8
0
 10
49.421743846428249
 20
131.3530406250315
 30
0.0
 40
0.3
 50
0.0
 51
90.0
  0
LINE
  5
2AC
  8
0
 10
67.821743846428234
 20
131.65304062503151
 30
0.0
 11
49.421743846428249
 21
131.65304062503151
 31
0.0
  0
LINE
  5
2AD
  8
0
 10
130.3089380275911
 20
131.65304062503151
 30
0.0
 11
112.4409731720738
 21
131.65304062503151
 31
0.0
  0
ARC
  5
2AE
  8
0
 10
112.4409731720738
 20
131.3530406250315
 30
0.0
 40
0.3
 50
0.0
 51
90.0
  0
LINE
  5
2AF
  8
0
 10
130.24097317207381
 20
131.3530406250315
 30
0.0
 11
112.74097317207379
 21
131.3530406250315
 31
0.0
  0
LINE
  5
2B0
  8
0
 10
112.9109739696211
 20
121.61370145634839
 30
0.0
 11
130.0709723745266
 21
121.61370145634839
 31
0.0
  0
LINE
  5
2B1
  8
0
 10
130.24097317207381
 20
131.3530406250315
 30
0.0
 11
130.0709723745266
 21
121.61370145634839
 31
0.0
  0
LINE
  5
2B2
  8
0
 10
130.0709723745266
 20
121.61370145634839
 30
0.0
 11
129.76573665259531
 21
121.31374714780149
 31
0.0
  0
LINE
  5
2B3
  8
0
 10
112.9109739696211
 20
121.61370145634839
 30
0.0
 11
113.21620969155219
 21
121.31374714780149
 31
0.0
  0
LINE
  5
2B4
  8
0
 10
112.74097317207379
 20
131.3530406250315
 30
0.0
 11
112.9109739696211
 21
121.61370145634839
 31
0.0
  0
LINE
  5
2B5
  8
0
 10
129.76573665259531
 20
121.31374714780149
 30
0.0
 11
113.21620969155219
 21
121.31374714780149
 31
0.0
  0
LINE
  5
2B6
  8
0
 10
173.51809374980229
 20
147.33801308652929
 30
0.0
 11
130.99297831424249
 21
131.7736553834597
 31
0.0
  0
LINE
  5
2B7
  8
1
 10
175.658738727155
 20
162.83934589297081
 30
0.0
 11
181.8232076169927
 21
143.2881484026322
 31
0.0
  0
LINE
  5
2B8
  8
1
 10
188.516460657046
 20
156.1463344427784
 30
0.0
 11
121.49097317207379
 21
134.90417637811561
 31
0.0
  0
LINE
  5
2B9
  8
1
 10
121.49097317207379
 20
146.31374714780151
 30
0.0
 11
121.49097317207379
 21
112.31374714780149
 31
0.0
  0
ARC
  5
2C3
  8
0
 10
179.98876062653889
 20
209.3540571733524
 30
0.0
 40
8.8105736759799491
 50
150.4142931645975
 51
209.58570683540111
  0
ARC
  5
2DB
  8
0
 10
159.5632844346521
 20
147.01512982961069
 30
0.0
 40
13.95854421563374
 50
1.325460434467469
 51
33.684948745345849
  0
TEXT
  5
38D
  8
0
 62
     3
 10
0.0
 20
0.0
 30
0.0
 40
10.0
  1
KF8
  7
STANDARD1
  0
ENDSEC
  0
EOF
