  0
SECTION
  2
HEADER
  9
$ACADVER
  1
AC1009
  9
$INSBASE
 10
0.0
 20
0.0
 30
0.0
  9
$EXTMIN
 10
0.0
 20
-2.960436562073669
 30
0.0
  9
$EXTMAX
 10
295.0
 20
168.0
 30
0.0
  9
$LIMMIN
 10
0.0
 20
0.0
  9
$LIMMAX
 10
375.0
 20
270.0
  9
$ORTHOMODE
 70
     1
  9
$REGENMODE
 70
     1
  9
$FILLMODE
 70
     1
  9
$QTEXTMODE
 70
     0
  9
$MIRRTEXT
 70
     0
  9
$DRAGMODE
 70
     2
  9
$LTSCALE
 40
5.0
  9
$OSMODE
 70
    37
  9
$ATTMODE
 70
     1
  9
$TEXTSIZE
 40
0.2
  9
$TRACEWID
 40
0.05
  9
$TEXTSTYLE
  7
ST
  9
$CLAYER
  8
0
  9
$CELTYPE
  6
BYLAYER
  9
$CECOLOR
 62
   256
  9
$DIMSCALE
 40
1.0
  9
$DIMASZ
 40
3.0
  9
$DIMEXO
 40
2.0
  9
$DIMDLI
 40
0.3799999999999999
  9
$DIMRND
 40
0.0
  9
$DIMDLE
 40
0.0
  9
$DIMEXE
 40
2.0
  9
$DIMTP
 40
0.0
  9
$DIMTM
 40
0.0
  9
$DIMTXT
 40
3.0
  9
$DIMCEN
 40
0.09
  9
$DIMTSZ
 40
0.0
  9
$DIMTOL
 70
     0
  9
$DIMLIM
 70
     0
  9
$DIMTIH
 70
     0
  9
$DIMTOH
 70
     0
  9
$DIMSE1
 70
     0
  9
$DIMSE2
 70
     0
  9
$DIMTAD
 70
     1
  9
$DIMZIN
 70
     8
  9
$DIMBLK
  1

  9
$DIMASO
 70
     0
  9
$DIMSHO
 70
     0
  9
$DIMPOST
  1

  9
$DIMAPOST
  1

  9
$DIMALT
 70
     0
  9
$DIMALTD
 70
     2
  9
$DIMALTF
 40
25.399999999999999
  9
$DIMLFAC
 40
1.0
  9
$DIMTOFL
 70
     1
  9
$DIMTVP
 40
1.6000000000000001
  9
$DIMTIX
 70
     1
  9
$DIMSOXD
 70
     0
  9
$DIMSAH
 70
     0
  9
$DIMBLK1
  1

  9
$DIMBLK2
  1

  9
$DIMSTYLE
  2
STANDARD
  9
$DIMCLRD
 70
     0
  9
$DIMCLRE
 70
     0
  9
$DIMCLRT
 70
     0
  9
$DIMTFAC
 40
1.0
  9
$DIMGAP
 40
1.1999999999999991
  9
$LUNITS
 70
     2
  9
$LUPREC
 70
     1
  9
$SKETCHINC
 40
0.1
  9
$FILLETRAD
 40
1.5
  9
$AUNITS
 70
     0
  9
$AUPREC
 70
     0
  9
$MENU
  1
ACAD
  9
$ELEVATION
 40
0.0
  9
$PELEVATION
 40
0.0
  9
$THICKNESS
 40
0.0
  9
$LIMCHECK
 70
     0
  9
$BLIPMODE
 70
     0
  9
$CHAMFERA
 40
0.0
  9
$CHAMFERB
 40
0.0
  9
$SKPOLY
 70
     0
  9
$TDCREATE
 40
2448586.4078643522
  9
$TDUPDATE
 40
2459496.5844687968
  9
$TDINDWG
 40
0.4216194213
  9
$TDUSRTIMER
 40
0.4216194213
  9
$USRTIMER
 70
     1
  9
$ANGBASE
 50
0.0
  9
$ANGDIR
 70
     0
  9
$PDMODE
 70
     0
  9
$PDSIZE
 40
0.0
  9
$PLINEWID
 40
0.0
  9
$COORDS
 70
     1
  9
$SPLFRAME
 70
     0
  9
$SPLINETYPE
 70
     6
  9
$SPLINESEGS
 70
     8
  9
$ATTDIA
 70
     0
  9
$ATTREQ
 70
     1
  9
$HANDLING
 70
     1
  9
$HANDSEED
  5
4DE5
  9
$SURFTAB1
 70
     6
  9
$SURFTAB2
 70
     6
  9
$SURFTYPE
 70
     6
  9
$SURFU
 70
     6
  9
$SURFV
 70
     6
  9
$UCSNAME
  2

  9
$UCSORG
 10
0.0
 20
0.0
 30
0.0
  9
$UCSXDIR
 10
1.0
 20
0.0
 30
0.0
  9
$UCSYDIR
 10
0.0
 20
1.0
 30
0.0
  9
$PUCSNAME
  2

  9
$PUCSORG
 10
0.0
 20
0.0
 30
0.0
  9
$PUCSXDIR
 10
1.0
 20
0.0
 30
0.0
  9
$PUCSYDIR
 10
0.0
 20
1.0
 30
0.0
  9
$USERI1
 70
     0
  9
$USERI2
 70
     1
  9
$USERI3
 70
     1
  9
$USERI4
 70
     0
  9
$USERI5
 70
     0
  9
$USERR1
 40
0.0
  9
$USERR2
 40
0.0
  9
$USERR3
 40
0.0
  9
$USERR4
 40
0.0
  9
$USERR5
 40
0.0
  9
$WORLDVIEW
 70
     1
  9
$SHADEDGE
 70
     3
  9
$SHADEDIF
 70
    70
  9
$TILEMODE
 70
     1
  9
$MAXACTVP
 70
    16
  9
$PLIMCHECK
 70
     0
  9
$PEXTMIN
 10
1.0000000000000000E+020
 20
1.0000000000000000E+020
 30
1.0000000000000000E+020
  9
$PEXTMAX
 10
-1.0000000000000000E+020
 20
-1.0000000000000000E+020
 30
-1.0000000000000000E+020
  9
$PLIMMIN
 10
0.0
 20
0.0
  9
$PLIMMAX
 10
12.0
 20
9.0
  9
$UNITMODE
 70
     0
  9
$VISRETAIN
 70
     0
  9
$PLINEGEN
 70
     1
  9
$PSLTSCALE
 70
     0
  0
ENDSEC
  0
SECTION
  2
TABLES
  0
TABLE
  2
VPORT
 70
     1
  0
VPORT
  2
*ACTIVE
 70
     0
 10
0.0
 20
0.0
 11
1.0
 21
1.0
 12
362.34662576687123
 22
150.0
 13
0.0
 23
0.0
 14
5.0
 24
5.0
 15
10.0
 25
10.0
 16
0.0
 26
0.0
 36
1.0
 17
0.0
 27
0.0
 37
0.0
 40
300.0
 41
2.415644171779141
 42
50.0
 43
0.0
 44
0.0
 50
0.0
 51
0.0
 71
     0
 72
   500
 73
     1
 74
     0
 75
     0
 76
     0
 77
     0
 78
     2
  0
ENDTAB
  0
TABLE
  2
LTYPE
 70
     4
  0
LTYPE
  2
CONTINUOUS
 70
     0
  3
実線
 72
    65
 73
     0
 40
0.0
  0
LTYPE
  2
CENTER
 70
     0
  3
____ _ ____ _ ____ _ ____ _ ____ _ ____ _ ____
 72
    65
 73
     4
 40
2.0
 49
1.25
 49
-0.25
 49
0.25
 49
-0.25
  0
LTYPE
  2
PHANTOM2
 70
     0
  3
___ _ _ ___ _ _ ___ _ _ ___ _ _
 72
    65
 73
     6
 40
1.25
 49
0.625
 49
-0.125
 49
0.125
 49
-0.125
 49
0.125
 49
-0.125
  0
LTYPE
  2
HIDDEN
 70
     0
  3
Hidden __ __ __ __ __ __ __ __ __ __ __ __ __ __
 72
    65
 73
     2
 40
1.905
 49
1.27
 49
-0.635
  0
ENDTAB
  0
TABLE
  2
LAYER
 70
     6
  0
LAYER
  2
0
 70
     0
 62
     7
  6
CONTINUOUS
  0
LAYER
  2
1
 70
     0
 62
     1
  6
CENTER
  0
LAYER
  2
4
 70
     0
 62
     4
  6
CONTINUOUS
  0
LAYER
  2
DEFPOINTS
 70
     0
 62
     7
  6
CONTINUOUS
  0
LAYER
  2
2
 70
     0
 62
     2
  6
HIDDEN
  0
LAYER
  2
3
 70
     0
 62
     3
  6
CONTINUOUS
  0
ENDTAB
  0
TABLE
  2
STYLE
 70
     4
  0
STYLE
  2
STANDARD
 70
     0
 40
0.0
 41
1.0
 50
0.0
 71
     0
 42
5.0
  3
simplex.shx
  4
BIGFONT.shx
  0
STYLE
  2
07500
 70
     0
 40
0.0
 41
0.75
 50
0.0
 71
     0
 42
0.2
  3
simplex.shx
  4
BIGFONT.shx
  0
STYLE
  2
ST
 70
     0
 40
0.0
 41
1.0
 50
0.0
 71
     0
 42
0.2
  3
simplex.shx
  4
BIGFONT.shx
  0
STYLE
  2
STANDARD1
 70
     0
 40
0.0
 41
1.0
 50
0.0
 71
     0
 42
3.0
  3
txt
  4

  0
ENDTAB
  0
TABLE
  2
VIEW
 70
     2
  0
VIEW
  2
ALL
 70
     0
 40
270.0
 10
220.99159663865549
 20
135.0
 41
0.0
 11
0.0
 21
0.0
 31
1.0
 12
0.0
 22
0.0
 32
0.0
 42
0.0
 43
0.0
 44
0.0
 50
0.0
 71
     0
  0
VIEW
  2
OLE1
 70
     0
 40
386.29711817888142
 10
1138.460086738161
 20
68.293524592769586
 41
783.19385240535405
 11
0.0
 21
0.0
 31
1.0
 12
0.0
 22
0.0
 32
0.0
 42
50.0
 43
0.0
 44
0.0
 50
0.0
 71
     0
  0
ENDTAB
  0
TABLE
  2
UCS
 70
     0
  0
ENDTAB
  0
TABLE
  2
APPID
 70
    41
  0
APPID
  2
ACAD
 70
     0
  0
APPID
  2
DCO15
 70
     0
  0
APPID
  2
GENIUS_GENOREF_13
 70
     0
  0
APPID
  2
GENIUS_GENOENT_13
 70
     0
  0
APPID
  2
GENIUS_GENBH_13
 70
     0
  0
APPID
  2
GENIUS_GENOBJ_13
 70
     0
  0
APPID
  2
GENIUS_GENODEF_13
 70
     0
  0
APPID
  2
GENIUS_GENOLIS_13
 70
     0
  0
APPID
  2
GENIUS_GENOBJ-NBEHI-BHF_13
 70
     0
  0
APPID
  2
GENIUS_GENOBJ-NBEHI-BHB_13
 70
     0
  0
APPID
  2
GENIUS_GENOBJ-F-PART_13
 70
     0
  0
APPID
  2
GENIUS_GEFSTDP_13
 70
     0
  0
APPID
  2
GENIUS_GENOBJ-N-RSSYM_13
 70
     0
  0
APPID
  2
GENIUS_GENSYMENT_13
 70
     0
  0
APPID
  2
GENIUS_GENOBJ-N-TIT_13
 70
     0
  0
APPID
  2
GENIUS_GENTITLE_13
 70
     0
  0
APPID
  2
GENIUS_GENZVEED_13
 70
     0
  0
APPID
  2
GENIUS_GENOBJ-N-LEADER_13
 70
     0
  0
APPID
  2
GENIUS_GENOBJ-N-FIL_13
 70
     0
  0
APPID
  2
GENIUS_GENOBJ-N-SEC_13
 70
     0
  0
APPID
  2
GENIUS_GENOBJ-N-CRS_13
 70
     0
  0
APPID
  2
GENIUS_GENOBJ-N-ZOO_13
 70
     0
  0
APPID
  2
GENIUS_GENZOO_13
 70
     0
  0
APPID
  2
GENIUS_GENOBJ-F-TOL_13
 70
     0
  0
APPID
  2
GENIUS_GENFIL_13
 70
     0
  0
APPID
  2
GENIUS_GENOBJ-N-CHA_13
 70
     0
  0
APPID
  2
_CALL_MAC$
 70
     0
  0
APPID
  2
ASM_BASE
 70
     0
  0
APPID
  2
ASM_EXPLO_VER_2_00
 70
     0
  0
APPID
  2
ASM_CADM_VER_12_00
 70
     0
  0
APPID
  2
ASM_BASEFORO
 70
     0
  0
APPID
  2
ASM_BASETRAVI
 70
     0
  0
APPID
  2
ASM_BASETRAVI1
 70
     0
  0
APPID
  2
ASM_GRUPPI
 70
     0
  0
APPID
  2
ASM_CADM_ALBERO
 70
     0
  0
APPID
  2
ASM_GOLE
 70
     0
  0
APPID
  2
ACAD_MLEADERVER
 70
     0
  0
APPID
  2
ACAD_EXEMPT_FROM_CAD_STANDARDS
 70
     0
  0
APPID
  2
ACAD_NAV_VCDISPLAY
 70
     0
  0
APPID
  2
ACAD_DSTYLE_DIMJAG
 70
     0
  0
APPID
  2
ACAD_DSTYLE_DIMTALN
 70
     0
  0
ENDTAB
  0
TABLE
  2
DIMSTYLE
 70
     1
  0
DIMSTYLE
  2
STANDARD
 70
     0
  3

  4

  5

  6

  7

 40
1.0
 41
0.18
 42
0.0625
 43
0.38
 44
0.18
 45
0.0
 46
0.0
 47
0.0
 48
0.0
140
0.18
141
0.09
142
0.0
143
25.399999999999999
144
1.0
145
0.0
146
1.0
147
0.09
 71
     0
 72
     0
 73
     1
 74
     1
 75
     0
 76
     0
 77
     0
 78
     0
170
     0
171
     2
172
     0
173
     0
174
     0
175
     0
176
     0
177
     0
178
     0
  0
ENDTAB
  0
ENDSEC
  0
SECTION
  2
BLOCKS
  0
BLOCK
  8
0
  2
$MODEL_SPACE
 70
     0
 10
0.0
 20
0.0
 30
0.0
  3
$MODEL_SPACE
  1

  0
ENDBLK
  5
3C
  8
0
  0
BLOCK
 67
     1
  8
0
  2
$PAPER_SPACE
 70
     0
 10
0.0
 20
0.0
 30
0.0
  3
$PAPER_SPACE
  1

  0
ENDBLK
  5
3A
 67
     1
  8
0
  0
ENDSEC
  0
SECTION
  2
ENTITIES
  0
TEXT
  5
45A7
  8
0
 62
     3
 10
0.0
 20
0.0
 30
0.0
 40
10.0
  1
KFX-SH60
  7
STANDARD1
  0
LINE
  5
4A33
  8
0
 10
193.00607450709799
 20
84.0
 30
0.0
 11
184.5
 21
84.0
 31
0.0
  0
LINE
  5
4A34
  8
0
 10
205.5
 20
84.0
 30
0.0
 11
197.0
 21
84.0
 31
0.0
  0
LINE
  5
4A37
  8
0
 10
176.5
 20
84.0
 30
0.0
 11
146.5
 21
84.0
 31
0.0
  0
LINE
  5
4A38
  8
0
 10
146.5
 20
50.0
 30
0.0
 11
176.5
 21
50.0
 31
0.0
  0
LINE
  5
4A39
  8
0
 10
146.5
 20
84.0
 30
0.0
 11
146.0
 21
83.499999999999986
 31
0.0
  0
LINE
  5
4A3A
  8
0
 10
146.0
 20
50.5
 30
0.0
 11
146.5
 21
50.0
 31
0.0
  0
LINE
  5
4A3B
  8
0
 10
176.5
 20
50.0
 30
0.0
 11
177.0
 21
50.5
 31
0.0
  0
LINE
  5
4A3C
  8
0
 10
177.0
 20
83.499999999999986
 30
0.0
 11
176.5
 21
84.0
 31
0.0
  0
LINE
  5
4A3D
  8
0
 10
184.5
 20
84.0
 30
0.0
 11
184.0
 21
83.499999999999986
 31
0.0
  0
LINE
  5
4A3E
  8
0
 10
184.0
 20
50.5
 30
0.0
 11
184.5
 21
50.0
 31
0.0
  0
LINE
  5
4A3F
  8
0
 10
205.5
 20
49.999999999999993
 30
0.0
 11
206.0
 21
50.5
 31
0.0
  0
LINE
  5
4A40
  8
0
 10
206.0
 20
83.499999999999986
 30
0.0
 11
205.5
 21
84.0
 31
0.0
  0
LINE
  5
4A41
  8
0
 10
144.19999999999979
 20
53.5
 30
0.0
 11
145.44999999999979
 21
54.75
 31
0.0
  0
LINE
  5
4A42
  8
0
 10
145.44999999999979
 20
79.249999999999986
 30
0.0
 11
144.19999999999979
 21
80.5
 31
0.0
  0
LINE
  5
4A43
  8
0
 10
144.19999999999979
 20
80.5
 30
0.0
 11
139.25
 21
80.5
 31
0.0
  0
LINE
  5
4A44
  8
0
 10
139.25
 20
53.5
 30
0.0
 11
144.19999999999979
 21
53.5
 31
0.0
  0
LINE
  5
4A45
  8
0
 10
139.25
 20
80.5
 30
0.0
 11
138.0
 21
79.249999999999986
 31
0.0
  0
LINE
  5
4A46
  8
0
 10
138.0
 20
54.75
 30
0.0
 11
139.25
 21
53.5
 31
0.0
  0
ARC
  5
4A47
  8
0
 10
177.7999999999999
 20
80.049999999999997
 30
0.0
 40
0.8000000000000113
 50
180.0
 51
270.0
  0
ARC
  5
4A48
  8
0
 10
177.7999999999999
 20
53.949999999999989
 30
0.0
 40
0.8000000000000113
 50
90.0
 51
180.0
  0
LINE
  5
4A49
  8
0
 10
184.0
 20
79.249999999999986
 30
0.0
 11
177.7999999999999
 21
79.249999999999986
 31
0.0
  0
LINE
  5
4A4A
  8
0
 10
177.7999999999999
 20
54.75
 30
0.0
 11
184.0
 21
54.75
 31
0.0
  0
LINE
  5
4A4B
  8
0
 10
146.0
 20
79.249999999999986
 30
0.0
 11
145.44999999999979
 21
79.249999999999986
 31
0.0
  0
LINE
  5
4A4C
  8
0
 10
145.44999999999979
 20
54.75
 30
0.0
 11
146.0
 21
54.75
 31
0.0
  0
LINE
  5
4A4E
  8
0
 10
205.5
 20
84.0
 30
0.0
 11
205.5
 21
50.000000000000007
 31
0.0
  0
CIRCLE
  5
4A4F
  8
0
 10
195.0
 20
66.999999999999829
 30
0.0
 40
2.000000000000028
  0
ARC
  5
4A50
  8
0
 10
195.0030372535482
 20
100.8741953425023
 30
0.0
 40
16.99194893670656
 50
263.25076978465768
 51
276.74923021534232
  0
LINE
  5
4A51
  8
0
 10
184.5
 20
84.0
 30
0.0
 11
184.5
 21
50.000000000000007
 31
0.0
  0
LINE
  5
4A52
  8
0
 10
176.5
 20
84.0
 30
0.0
 11
176.5
 21
50.000000000000007
 31
0.0
  0
LINE
  5
4A53
  8
0
 10
146.5
 20
84.0
 30
0.0
 11
146.5
 21
50.000000000000007
 31
0.0
  0
LINE
  5
4A54
  8
0
 10
146.0
 20
83.499999999999986
 30
0.0
 11
146.0
 21
50.5
 31
0.0
  0
LINE
  5
4A55
  8
0
 10
177.0
 20
83.499999999999986
 30
0.0
 11
177.0
 21
50.5
 31
0.0
  0
LINE
  5
4A56
  8
0
 10
184.0
 20
83.499999999999986
 30
0.0
 11
184.0
 21
50.5
 31
0.0
  0
LINE
  5
4A57
  8
0
 10
206.0
 20
83.499999999999986
 30
0.0
 11
206.0
 21
50.5
 31
0.0
  0
LINE
  5
4A58
  8
0
 10
145.44999999999979
 20
79.249999999999986
 30
0.0
 11
145.44999999999979
 21
54.75
 31
0.0
  0
LINE
  5
4A59
  8
0
 10
144.19999999999979
 20
80.5
 30
0.0
 11
144.19999999999979
 21
53.5
 31
0.0
  0
LINE
  5
4A5A
  8
0
 10
139.25
 20
80.5
 30
0.0
 11
139.25
 21
53.5
 31
0.0
  0
LINE
  5
4A5B
  8
0
 10
138.0
 20
79.249999999999872
 30
0.0
 11
138.0
 21
54.75
 31
0.0
  0
LINE
  5
4A60
  8
0
 10
134.0
 20
71.949999999999989
 30
0.0
 11
134.0
 21
62.049999999999997
 31
0.0
  0
LINE
  5
4A62
  8
0
 10
138.0
 20
62.049999999999997
 30
0.0
 11
134.0
 21
62.050000000000011
 31
0.0
  0
LINE
  5
4A63
  8
0
 10
134.0
 20
71.949999999999989
 30
0.0
 11
138.0
 21
71.949999999999989
 31
0.0
  0
LINE
  5
4A9D
  8
0
 10
176.5
 20
168.0
 30
0.0
 11
146.5
 21
168.0
 31
0.0
  0
LINE
  5
4A9E
  8
0
 10
146.5
 20
134.0
 30
0.0
 11
176.5
 21
134.0
 31
0.0
  0
LINE
  5
4A9F
  8
0
 10
146.5
 20
168.0
 30
0.0
 11
146.0
 21
167.5
 31
0.0
  0
LINE
  5
4AA0
  8
0
 10
146.0
 20
134.5
 30
0.0
 11
146.5
 21
134.0
 31
0.0
  0
LINE
  5
4AA1
  8
0
 10
205.5
 20
134.0
 30
0.0
 11
206.0
 21
134.5
 31
0.0
  0
LINE
  5
4AA2
  8
0
 10
206.0
 20
167.5
 30
0.0
 11
205.5
 21
168.0
 31
0.0
  0
LINE
  5
4AA3
  8
0
 10
176.5
 20
134.0
 30
0.0
 11
177.0
 21
134.5
 31
0.0
  0
LINE
  5
4AA4
  8
0
 10
177.0
 20
167.5
 30
0.0
 11
176.5
 21
168.0
 31
0.0
  0
LINE
  5
4AA5
  8
0
 10
184.5
 20
168.0
 30
0.0
 11
184.0
 21
167.5
 31
0.0
  0
LINE
  5
4AA6
  8
0
 10
184.0
 20
134.5
 30
0.0
 11
184.5
 21
134.0
 31
0.0
  0
LINE
  5
4AA7
  8
0
 10
144.19999999999979
 20
137.5
 30
0.0
 11
145.44999999999979
 21
138.75
 31
0.0
  0
LINE
  5
4AA8
  8
0
 10
145.44999999999979
 20
163.25
 30
0.0
 11
144.19999999999979
 21
164.5
 31
0.0
  0
LINE
  5
4AA9
  8
0
 10
139.25
 20
164.5
 30
0.0
 11
138.0
 21
163.25
 31
0.0
  0
LINE
  5
4AAA
  8
0
 10
138.0
 20
138.75
 30
0.0
 11
139.25
 21
137.5
 31
0.0
  0
LINE
  5
4AAB
  8
0
 10
144.19999999999979
 20
164.5
 30
0.0
 11
139.25
 21
164.5
 31
0.0
  0
LINE
  5
4AAC
  8
0
 10
139.25
 20
137.5
 30
0.0
 11
144.19999999999979
 21
137.5
 31
0.0
  0
ARC
  5
4AAD
  8
0
 10
177.7999999999999
 20
164.05000000000001
 30
0.0
 40
0.8000000000000113
 50
180.0
 51
270.0
  0
ARC
  5
4AAE
  8
0
 10
177.7999999999999
 20
137.94999999999999
 30
0.0
 40
0.8000000000000113
 50
90.0
 51
180.0
  0
LINE
  5
4AAF
  8
0
 10
184.0
 20
163.25
 30
0.0
 11
177.7999999999999
 21
163.25
 31
0.0
  0
LINE
  5
4AB0
  8
0
 10
177.7999999999999
 20
138.75
 30
0.0
 11
184.0
 21
138.75
 31
0.0
  0
LINE
  5
4AB1
  8
0
 10
146.0
 20
163.25
 30
0.0
 11
145.44999999999979
 21
163.25
 31
0.0
  0
LINE
  5
4AB2
  8
0
 10
145.44999999999979
 20
138.75
 30
0.0
 11
146.0
 21
138.75
 31
0.0
  0
LINE
  5
4AB3
  8
0
 10
138.0
 20
163.25
 30
0.0
 11
134.5
 21
163.25
 31
0.0
  0
LINE
  5
4AB4
  8
0
 10
134.5
 20
163.25
 30
0.0
 11
134.0
 21
162.75
 31
0.0
  0
LINE
  5
4AB5
  8
0
 10
134.0
 20
139.25
 30
0.0
 11
134.5
 21
138.75
 31
0.0
  0
LINE
  5
4AB6
  8
0
 10
134.5
 20
138.75
 30
0.0
 11
138.0
 21
138.75
 31
0.0
  0
LINE
  5
4AB7
  8
0
 10
205.5
 20
168.0
 30
0.0
 11
205.5
 21
134.0
 31
0.0
  0
CIRCLE
  5
4ABA
  8
0
 10
195.0000000000002
 20
151.0000000000004
 30
0.0
 40
1.999999999999772
  0
LINE
  5
4ABB
  8
0
 10
184.5
 20
168.0
 30
0.0
 11
184.5
 21
134.0
 31
0.0
  0
LINE
  5
4ABC
  8
0
 10
176.5
 20
168.0
 30
0.0
 11
176.5
 21
134.0
 31
0.0
  0
LINE
  5
4ABD
  8
0
 10
146.5
 20
168.0
 30
0.0
 11
146.5
 21
134.0
 31
0.0
  0
LINE
  5
4ABE
  8
0
 10
146.0
 20
167.5
 30
0.0
 11
146.0
 21
134.5
 31
0.0
  0
LINE
  5
4ABF
  8
0
 10
206.0
 20
167.5
 30
0.0
 11
206.0
 21
134.5
 31
0.0
  0
LINE
  5
4AC0
  8
0
 10
177.0
 20
167.5
 30
0.0
 11
177.0
 21
134.5
 31
0.0
  0
LINE
  5
4AC1
  8
0
 10
184.0
 20
167.5
 30
0.0
 11
184.0
 21
134.5
 31
0.0
  0
LINE
  5
4AC2
  8
0
 10
145.44999999999979
 20
163.25
 30
0.0
 11
145.44999999999979
 21
138.75
 31
0.0
  0
LINE
  5
4AC3
  8
0
 10
144.19999999999979
 20
164.5
 30
0.0
 11
144.19999999999979
 21
137.5
 31
0.0
  0
LINE
  5
4AC4
  8
0
 10
139.25
 20
164.5
 30
0.0
 11
139.25
 21
137.5
 31
0.0
  0
LINE
  5
4AC5
  8
0
 10
138.0000000000002
 20
163.25
 30
0.0
 11
138.0
 21
138.75
 31
0.0
  0
LINE
  5
4AC8
  8
0
 10
134.5
 20
163.25
 30
0.0
 11
134.5
 21
162.20535586226509
 31
0.0
  0
LINE
  5
4AC9
  8
0
 10
138.0
 20
162.20535586226509
 30
0.0
 11
134.5
 21
162.20535586226509
 31
0.0
  0
LINE
  5
4ACB
  8
0
 10
134.5
 20
162.20535586226509
 30
0.0
 11
134.0
 21
161.6564534438057
 31
0.0
  0
LINE
  5
4ACC
  8
0
 10
134.0
 20
159.10848321204401
 30
0.0
 11
138.0
 21
159.10848321204401
 31
0.0
  0
LINE
  5
4ACD
  8
0
 10
134.0
 20
162.75000000000011
 30
0.0
 11
134.0
 21
159.10848321204401
 31
0.0
  0
LINE
  5
4ACE
  8
0
 10
138.0
 20
142.89151678795591
 30
0.0
 11
134.0
 21
142.89151678795591
 31
0.0
  0
LINE
  5
4ACF
  8
0
 10
134.5
 20
139.79464413773491
 30
0.0
 11
138.0
 21
139.79464413773491
 31
0.0
  0
LINE
  5
4AD0
  8
0
 10
134.0
 20
140.34354655619421
 30
0.0
 11
134.5
 21
139.79464413773491
 31
0.0
  0
LINE
  5
4AD1
  8
0
 10
134.0
 20
142.89151678795591
 30
0.0
 11
134.0
 21
139.2499999999998
 31
0.0
  0
LINE
  5
4AD2
  8
0
 10
134.5
 20
139.79464413773491
 30
0.0
 11
134.5
 21
138.75
 31
0.0
  0
ARC
  5
4B0C
  8
0
 10
67.0
 20
67.0
 30
0.0
 40
11.75
 50
155.08478942144569
 51
204.91521057855451
  0
ARC
  5
4B10
  8
0
 10
67.0
 20
67.0
 30
0.0
 40
9.5000000000000053
 50
148.59711353861971
 51
211.4028864613808
  0
LINE
  5
4B11
  8
0
 10
58.891516787955879
 20
62.049999999999997
 30
0.0
 11
55.794644137734849
 21
62.049999999999997
 31
0.0
  0
LINE
  5
4B12
  8
0
 10
55.794644137734849
 20
71.949999999999989
 30
0.0
 11
58.891516787955879
 21
71.949999999999989
 31
0.0
  0
ARC
  5
4B13
  8
0
 10
67.0
 20
67.0
 30
0.0
 40
11.75
 50
335.08478942144751
 51
24.915210578554241
  0
ARC
  5
4B14
  8
0
 10
67.0
 20
67.0
 30
0.0
 40
9.4999999999999911
 50
328.59711353861968
 51
31.40288646138027
  0
LINE
  5
4B15
  8
0
 10
75.108483212044121
 20
71.949999999999989
 30
0.0
 11
78.205355862265151
 21
71.949999999999989
 31
0.0
  0
LINE
  5
4B16
  8
0
 10
78.205355862265151
 20
62.049999999999997
 30
0.0
 11
75.108483212044121
 21
62.049999999999997
 31
0.0
  0
CIRCLE
  5
4B1A
  8
0
 10
67.0
 20
67.0
 30
0.0
 40
13.5
  0
CIRCLE
  5
4B1D
  8
0
 10
67.0
 20
67.0
 30
0.0
 40
9.25
  0
CIRCLE
  5
4B1E
  8
0
 10
67.0
 20
67.0
 30
0.0
 40
17.0
  0
CIRCLE
  5
4B42
  8
0
 10
273.0
 20
67.0
 30
0.0
 40
17.0
  0
CIRCLE
  5
4B44
  8
0
 10
273.0
 20
67.0
 30
0.0
 40
12.688000000000009
  0
LINE
  5
4B4D
  8
0
 10
261.83935485735702
 20
61.950000000000003
 30
0.0
 11
264.95341687422552
 21
61.950000000000003
 31
0.0
  0
LINE
  5
4B4F
  8
0
 10
281.04658312577448
 20
61.950000000000003
 30
0.0
 11
284.16064514264298
 21
61.950000000000003
 31
0.0
  0
LINE
  5
4B50
  8
0
 10
261.83935485735702
 20
72.050000000000011
 30
0.0
 11
264.95341687422552
 21
72.049999999999997
 31
0.0
  0
LINE
  5
4B52
  8
0
 10
281.04658312577448
 20
72.049999999999997
 30
0.0
 11
284.16064514264298
 21
72.050000000000011
 31
0.0
  0
CIRCLE
  5
4B57
  8
0
 10
273.0
 20
67.0
 30
0.0
 40
9.25
  0
LINE
  5
4CE6
  8
0
 10
193.00607450709799
 20
49.999999999999659
 30
0.0
 11
184.5
 21
49.999999999999659
 31
0.0
  0
LINE
  5
4CE7
  8
0
 10
205.5
 20
49.999999999999659
 30
0.0
 11
197.0
 21
49.999999999999659
 31
0.0
  0
ARC
  5
4CE8
  8
0
 10
195.0030372535482
 20
33.125804657497312
 30
0.0
 40
16.99194893670656
 50
83.250769784657663
 51
96.749230215342337
  0
LINE
  5
4CEF
  8
0
 10
193.00607450709799
 20
168.0
 30
0.0
 11
184.5
 21
168.0
 31
0.0
  0
LINE
  5
4CF0
  8
0
 10
205.5
 20
168.0
 30
0.0
 11
197.0
 21
168.0
 31
0.0
  0
ARC
  5
4CF1
  8
0
 10
195.0030372535482
 20
184.8741953425023
 30
0.0
 40
16.99194893670656
 50
263.25076978465768
 51
276.74923021534232
  0
LINE
  5
4CF2
  8
0
 10
193.00607450709799
 20
133.99999999999969
 30
0.0
 11
184.5
 21
133.99999999999969
 31
0.0
  0
LINE
  5
4CF3
  8
0
 10
205.5
 20
133.99999999999969
 30
0.0
 11
197.0
 21
133.99999999999969
 31
0.0
  0
ARC
  5
4CF4
  8
0
 10
195.0030372535482
 20
117.1258046574973
 30
0.0
 40
16.99194893670656
 50
83.250769784657663
 51
96.749230215342337
  0
CIRCLE
  5
4CF5
  8
0
 10
273.0
 20
67.0
 30
0.0
 40
12.25
  0
CIRCLE
  5
4CF6
  8
0
 10
273.0
 20
67.0
 30
0.0
 40
9.5
  0
CIRCLE
  5
4D15
  8
3
 10
273.0
 20
67.0
 30
0.0
 40
13.5
  0
CIRCLE
  5
4D20
  8
0
 10
67.0
 20
67.0
 30
0.0
 40
12.25
  0
LINE
  5
4D43
  8
3
 10
145.01199999999969
 20
79.688000000000017
 30
0.0
 11
138.4380000000001
 21
79.688000000000017
 31
0.0
  0
CIRCLE
  5
4D44
  8
3
 10
67.0
 20
67.0
 30
0.0
 40
12.688014309954941
  0
LINE
  5
4D45
  8
3
 10
145.0119856900449
 20
54.311985690045063
 30
0.0
 11
138.43801430995489
 21
54.311985690045063
 31
0.0
  0
LINE
  5
4D4E
  8
3
 10
145.01199999999969
 20
163.68799999999999
 30
0.0
 11
138.4380000000001
 21
163.68799999999999
 31
0.0
  0
LINE
  5
4D4F
  8
3
 10
145.0119856900449
 20
138.31198569004511
 30
0.0
 11
138.43801430995489
 21
138.31198569004511
 31
0.0
  0
LINE
  5
4D50
  8
0
 10
134.5
 20
71.949999999999989
 30
0.0
 11
134.5
 21
62.050000000000011
 31
0.0
  0
LINE
  5
4D5E
  8
1
 10
211.0
 20
151.0
 30
0.0
 11
129.0
 21
151.0
 31
0.0
  0
LINE
  5
4D63
  8
1
 10
211.0
 20
67.0
 30
0.0
 11
129.0
 21
67.0
 31
0.0
  0
LINE
  5
4D64
  8
1
 10
89.0
 20
67.0
 30
0.0
 11
45.0
 21
67.0
 31
0.0
  0
LINE
  5
4D65
  8
1
 10
273.0
 20
45.0
 30
0.0
 11
273.0
 21
89.0
 31
0.0
  0
LINE
  5
4D66
  8
1
 10
67.0
 20
45.0
 30
0.0
 11
67.0
 21
89.0
 31
0.0
  0
LINE
  5
4D69
  8
1
 10
251.0
 20
67.0
 30
0.0
 11
295.0
 21
67.0
 31
0.0
  0
ENDSEC
  0
EOF
