  0
SECTION
  2
HEADER
  9
$ACADVER
  1
AC1009
  9
$INSBASE
 10
0.0
 20
0.0
 30
0.0
  9
$EXTMIN
 10
0.0
 20
-2.960436562073669
 30
0.0
  9
$EXTMAX
 10
304.12448329602188
 20
263.71119302307812
 30
0.0
  9
$LIMMIN
 10
0.0
 20
0.0
  9
$LIMMAX
 10
187.5
 20
135.0
  9
$ORTHOMODE
 70
     1
  9
$REGENMODE
 70
     1
  9
$FILLMODE
 70
     1
  9
$QTEXTMODE
 70
     0
  9
$MIRRTEXT
 70
     0
  9
$DRAGMODE
 70
     2
  9
$LTSCALE
 40
5.0
  9
$OSMODE
 70
  3071
  9
$ATTMODE
 70
     1
  9
$TEXTSIZE
 40
5.0
  9
$TRACEWID
 40
0.05
  9
$TEXTSTYLE
  7
STANDARD
  9
$CLAYER
  8
0
  9
$CELTYPE
  6
BYLAYER
  9
$CECOLOR
 62
   256
  9
$DIMSCALE
 40
0.5
  9
$DIMASZ
 40
3.0
  9
$DIMEXO
 40
2.0
  9
$DIMDLI
 40
0.38
  9
$DIMRND
 40
0.0
  9
$DIMDLE
 40
0.0
  9
$DIMEXE
 40
2.0
  9
$DIMTP
 40
0.0
  9
$DIMTM
 40
0.0
  9
$DIMTXT
 40
3.2000000000000002
  9
$DIMCEN
 40
0.0
  9
$DIMTSZ
 40
0.0
  9
$DIMTOL
 70
     0
  9
$DIMLIM
 70
     0
  9
$DIMTIH
 70
     0
  9
$DIMTOH
 70
     0
  9
$DIMSE1
 70
     0
  9
$DIMSE2
 70
     0
  9
$DIMTAD
 70
     1
  9
$DIMZIN
 70
     0
  9
$DIMBLK
  1

  9
$DIMASO
 70
     0
  9
$DIMSHO
 70
     0
  9
$DIMPOST
  1

  9
$DIMAPOST
  1

  9
$DIMALT
 70
     0
  9
$DIMALTD
 70
     2
  9
$DIMALTF
 40
25.399999999999999
  9
$DIMLFAC
 40
1.0
  9
$DIMTOFL
 70
     1
  9
$DIMTVP
 40
1.6000000000000001
  9
$DIMTIX
 70
     1
  9
$DIMSOXD
 70
     0
  9
$DIMSAH
 70
     0
  9
$DIMBLK1
  1

  9
$DIMBLK2
  1

  9
$DIMSTYLE
  2
STANDARD
  9
$DIMCLRD
 70
     0
  9
$DIMCLRE
 70
     0
  9
$DIMCLRT
 70
     0
  9
$DIMTFAC
 40
1.0
  9
$DIMGAP
 40
0.09
  9
$LUNITS
 70
     2
  9
$LUPREC
 70
     4
  9
$SKETCHINC
 40
0.1
  9
$FILLETRAD
 40
0.0
  9
$AUNITS
 70
     0
  9
$AUPREC
 70
     4
  9
$MENU
  1
E:\r13\win\SUPPORT\ACAD
  9
$ELEVATION
 40
0.0
  9
$PELEVATION
 40
0.0
  9
$THICKNESS
 40
0.0
  9
$LIMCHECK
 70
     0
  9
$BLIPMODE
 70
     0
  9
$CHAMFERA
 40
0.0
  9
$CHAMFERB
 40
0.0
  9
$SKPOLY
 70
     0
  9
$TDCREATE
 40
2449840.6523611108
  9
$TDUPDATE
 40
2456597.4741156022
  9
$TDINDWG
 40
0.2746971759
  9
$TDUSRTIMER
 40
0.2746971759
  9
$USRTIMER
 70
     1
  9
$ANGBASE
 50
0.0
  9
$ANGDIR
 70
     0
  9
$PDMODE
 70
     0
  9
$PDSIZE
 40
0.0
  9
$PLINEWID
 40
0.0
  9
$COORDS
 70
     1
  9
$SPLFRAME
 70
     0
  9
$SPLINETYPE
 70
     6
  9
$SPLINESEGS
 70
     8
  9
$ATTDIA
 70
     0
  9
$ATTREQ
 70
     1
  9
$HANDLING
 70
     1
  9
$HANDSEED
  5
E0C
  9
$SURFTAB1
 70
     6
  9
$SURFTAB2
 70
     6
  9
$SURFTYPE
 70
     6
  9
$SURFU
 70
     6
  9
$SURFV
 70
     6
  9
$UCSNAME
  2

  9
$UCSORG
 10
0.0
 20
0.0
 30
0.0
  9
$UCSXDIR
 10
1.0
 20
0.0
 30
0.0
  9
$UCSYDIR
 10
0.0
 20
1.0
 30
0.0
  9
$PUCSNAME
  2

  9
$PUCSORG
 10
0.0
 20
0.0
 30
0.0
  9
$PUCSXDIR
 10
1.0
 20
0.0
 30
0.0
  9
$PUCSYDIR
 10
0.0
 20
1.0
 30
0.0
  9
$USERI1
 70
     0
  9
$USERI2
 70
     1
  9
$USERI3
 70
     0
  9
$USERI4
 70
     0
  9
$USERI5
 70
     0
  9
$USERR1
 40
0.0
  9
$USERR2
 40
0.0
  9
$USERR3
 40
0.0
  9
$USERR4
 40
0.0
  9
$USERR5
 40
0.0
  9
$WORLDVIEW
 70
     1
  9
$SHADEDGE
 70
     3
  9
$SHADEDIF
 70
    70
  9
$TILEMODE
 70
     1
  9
$MAXACTVP
 70
    16
  9
$PLIMCHECK
 70
     0
  9
$PEXTMIN
 10
1.0000000000000000E+020
 20
1.0000000000000000E+020
 30
1.0000000000000000E+020
  9
$PEXTMAX
 10
-1.0000000000000000E+020
 20
-1.0000000000000000E+020
 30
-1.0000000000000000E+020
  9
$PLIMMIN
 10
0.0
 20
0.0
  9
$PLIMMAX
 10
12.0
 20
9.0
  9
$UNITMODE
 70
     0
  9
$VISRETAIN
 70
     0
  9
$PLINEGEN
 70
     0
  9
$PSLTSCALE
 70
     0
  0
ENDSEC
  0
SECTION
  2
TABLES
  0
TABLE
  2
VPORT
 70
     1
  0
VPORT
  2
*ACTIVE
 70
     0
 10
0.0
 20
0.0
 11
1.0
 21
1.0
 12
152.062242356106
 22
159.04948516338851
 13
0.0
 23
0.0
 14
5.0
 24
5.0
 15
5.0
 25
5.0
 16
0.0
 26
0.0
 36
1.0
 17
0.0
 27
0.0
 37
0.0
 40
327.09556083393068
 41
1.9089595375722539
 42
50.0
 43
0.0
 44
0.0
 50
0.0
 51
0.0
 71
     0
 72
   500
 73
     1
 74
     0
 75
     0
 76
     0
 77
     0
 78
     2
  0
ENDTAB
  0
TABLE
  2
LTYPE
 70
     5
  0
LTYPE
  2
CONTINUOUS
 70
     0
  3
Solid Line
 72
    65
 73
     0
 40
0.0
  0
LTYPE
  2
CENTER
 70
     0
  3
____ _ ____ _ ____ _ ____ _ ____ _ ____ _ ____
 72
    65
 73
     4
 40
2.0
 49
1.25
 49
-0.25
 49
0.25
 49
-0.25
  0
LTYPE
  2
HIDDEN
 70
     0
  3
_ _ _ _ _ _ _ _ _ _ _ _ _ _ _ _ _ _ _ _ _ _ _
 72
    65
 73
     2
 40
0.375
 49
0.25
 49
-0.125
  0
LTYPE
  2
PHANTOM
 70
     0
  3
______  __  __  ______  __  __  ______  __  __ 
 72
    65
 73
     6
 40
2.5
 49
1.25
 49
-0.25
 49
0.25
 49
-0.25
 49
0.25
 49
-0.25
  0
LTYPE
  2
PHANTOM2
 70
     0
  3
___ _ _ ___ _ _ ___ _ _ ___ _ _
 72
    65
 73
     6
 40
1.25
 49
0.625
 49
-0.125
 49
0.125
 49
-0.125
 49
0.125
 49
-0.125
  0
ENDTAB
  0
TABLE
  2
LAYER
 70
     6
  0
LAYER
  2
0
 70
     0
 62
     7
  6
CONTINUOUS
  0
LAYER
  2
1
 70
     0
 62
     1
  6
CENTER
  0
LAYER
  2
2
 70
     0
 62
     2
  6
HIDDEN
  0
LAYER
  2
3
 70
     0
 62
     3
  6
CONTINUOUS
  0
LAYER
  2
4
 70
     0
 62
     4
  6
CONTINUOUS
  0
LAYER
  2
5
 70
     0
 62
     3
  6
PHANTOM
  0
ENDTAB
  0
TABLE
  2
STYLE
 70
     2
  0
STYLE
  2
STANDARD
 70
     0
 40
0.0
 41
1.0
 50
0.0
 71
     0
 42
5.0
  3
TXT
  4
BIGFONT
  0
STYLE
  2
STANDARD1
 70
     0
 40
0.0
 41
1.0
 50
0.0
 71
     0
 42
3.0
  3
txt
  4

  0
ENDTAB
  0
TABLE
  2
VIEW
 70
     0
  0
ENDTAB
  0
TABLE
  2
UCS
 70
     0
  0
ENDTAB
  0
TABLE
  2
APPID
 70
     3
  0
APPID
  2
ACAD
 70
     0
  0
APPID
  2
ACAD_MLEADERVER
 70
     0
  0
APPID
  2
ACAD_NAV_VCDISPLAY
 70
     0
  0
ENDTAB
  0
TABLE
  2
DIMSTYLE
 70
     1
  0
DIMSTYLE
  2
STANDARD
 70
     0
  3

  4

  5

  6

  7

 40
1.0
 41
0.18
 42
0.0625
 43
0.38
 44
0.18
 45
0.0
 46
0.0
 47
0.0
 48
0.0
140
0.18
141
0.09
142
0.0
143
25.399999999999999
144
1.0
145
0.0
146
1.0
147
0.09
 71
     0
 72
     0
 73
     1
 74
     1
 75
     0
 76
     0
 77
     0
 78
     0
170
     0
171
     2
172
     0
173
     0
174
     0
175
     0
176
     0
177
     0
178
     0
  0
ENDTAB
  0
ENDSEC
  0
SECTION
  2
BLOCKS
  0
BLOCK
  8
0
  2
$MODEL_SPACE
 70
     0
 10
0.0
 20
0.0
 30
0.0
  3
$MODEL_SPACE
  1

  0
ENDBLK
  5
CBC
  8
0
  0
BLOCK
 67
     1
  8
0
  2
$PAPER_SPACE
 70
     0
 10
0.0
 20
0.0
 30
0.0
  3
$PAPER_SPACE
  1

  0
ENDBLK
  5
CBA
 67
     1
  8
0
  0
BLOCK
  8
0
  2
STDGX5
 70
     0
 10
0.0
 20
0.0
 30
0.0
  3
STDGX5
  1

  0
ENDBLK
  5
114
  8
0
  0
ENDSEC
  0
SECTION
  2
ENTITIES
  0
INSERT
  5
1D2
  8
0
  2
STDGX5
 10
0.0
 20
0.0
 30
0.0
 41
0.25
 42
0.25
 43
0.25
  0
INSERT
  5
1D3
  8
0
  2
STDGX5
 10
0.0
 20
0.0
 30
0.0
 41
0.25
 42
0.25
 43
0.25
  0
INSERT
  5
1D4
  8
0
  2
STDGX5
 10
68.75
 20
0.0
 30
0.0
 41
0.25
 42
0.25
 43
0.25
  0
INSERT
  5
1D5
  8
0
  2
STDGX5
 10
68.75
 20
0.0
 30
0.0
 41
0.25
 42
0.25
 43
0.25
  0
INSERT
  5
35E
  8
0
  2
STDGX5
 10
0.0
 20
0.0
 30
0.0
 41
0.5
 42
0.5
 43
0.5
  0
INSERT
  5
35F
  8
0
  2
STDGX5
 10
0.0
 20
0.0
 30
0.0
 41
0.5
 42
0.5
 43
0.5
  0
INSERT
  5
360
  8
0
  2
STDGX5
 10
137.5
 20
0.0
 30
0.0
 41
0.5
 42
0.5
 43
0.5
  0
INSERT
  5
361
  8
0
  2
STDGX5
 10
137.5
 20
0.0
 30
0.0
 41
0.5
 42
0.5
 43
0.5
  0
INSERT
  5
3E0
  8
0
  2
STDGX5
 10
-35.0
 20
-100.0
 30
0.0
 41
0.3333333333333333
 42
0.3333333333333333
 43
0.3333333333333333
  0
INSERT
  5
3E1
  8
0
  2
STDGX5
 10
-35.0
 20
-100.0
 30
0.0
 41
0.3333333333333333
 42
0.3333333333333333
 43
0.3333333333333333
  0
INSERT
  5
3E2
  8
0
  2
STDGX5
 10
56.666666666666643
 20
-100.0
 30
0.0
 41
0.3333333333333333
 42
0.3333333333333333
 43
0.3333333333333333
  0
INSERT
  5
3E3
  8
0
  2
STDGX5
 10
56.666666666666643
 20
-100.0
 30
0.0
 41
0.3333333333333333
 42
0.3333333333333333
 43
0.3333333333333333
  0
INSERT
  5
43A
  8
0
  2
STDGX5
 10
-35.0
 20
-100.0
 30
0.0
 41
0.3333333333333333
 42
0.3333333333333333
 43
0.3333333333333333
  0
INSERT
  5
43B
  8
0
  2
STDGX5
 10
-35.0
 20
-100.0
 30
0.0
 41
0.3333333333333333
 42
0.3333333333333333
 43
0.3333333333333333
  0
INSERT
  5
43C
  8
0
  2
STDGX5
 10
56.666666666666657
 20
-100.0
 30
0.0
 41
0.3333333333333333
 42
0.3333333333333333
 43
0.3333333333333333
  0
INSERT
  5
43D
  8
0
  2
STDGX5
 10
56.666666666666657
 20
-100.0
 30
0.0
 41
0.3333333333333333
 42
0.3333333333333333
 43
0.3333333333333333
  0
INSERT
  5
541
  8
0
  2
STDGX5
 10
0.0
 20
0.0
 30
0.0
  0
INSERT
  5
542
  8
0
  2
STDGX5
 10
0.0
 20
0.0
 30
0.0
  0
INSERT
  5
543
  8
0
  2
STDGX5
 10
275.0
 20
0.0
 30
0.0
  0
INSERT
  5
544
  8
0
  2
STDGX5
 10
275.0
 20
0.0
 30
0.0
  0
ARC
  5
8C1
  8
0
 10
191.62448329602171
 20
178.7081195442685
 30
0.0
 40
25.0
 50
73.739795291688026
 51
106.2602047083119
  0
LINE
  5
8C2
  8
0
 10
184.62448329602171
 20
202.7081195442685
 30
0.0
 11
198.62448329602171
 21
202.7081195442685
 31
0.0
  0
LINE
  5
8C3
  8
0
 10
184.62448329602171
 20
201.7081195442687
 30
0.0
 11
198.62448329602199
 21
201.7081195442685
 31
0.0
  0
LINE
  5
8C4
  8
0
 10
185.12448329602171
 20
194.7081195442685
 30
0.0
 11
198.12448329602179
 21
194.7081195442685
 31
0.0
  0
LINE
  5
8C5
  8
0
 10
186.42448329602189
 20
193.00811954426871
 30
0.0
 11
196.8244832960215
 21
193.00811954426871
 31
0.0
  0
LINE
  5
8C6
  8
0
 10
197.12448329602171
 20
193.30811954426889
 30
0.0
 11
186.12448329602171
 21
193.30811954426889
 31
0.0
  0
LINE
  5
8C7
  8
1
 10
180.12448329602171
 20
100.6111930230781
 30
0.0
 11
203.12448329602179
 21
100.6111930230781
 31
0.0
  0
LINE
  5
8C8
  8
1
 10
180.12448329602171
 20
140.6111930230781
 30
0.0
 11
203.12448329602179
 21
140.6111930230781
 31
0.0
  0
LINE
  5
8C9
  8
1
 10
179.12448329602171
 20
177.60811954426859
 30
0.0
 11
204.12448329602171
 21
177.60811954426859
 31
0.0
  0
LINE
  5
8CA
  8
0
 10
184.62448329602171
 20
190.6096562836733
 30
0.0
 11
198.62448329602171
 21
190.60965628367319
 31
0.0
  0
LINE
  5
8CB
  8
0
 10
184.62448329602171
 20
90.611193023078144
 30
0.0
 11
198.62448329602171
 21
90.611193023078059
 31
0.0
  0
LINE
  5
8CC
  8
0
 10
115.924483296022
 20
140.6111930230781
 30
0.0
 11
115.924483296022
 21
100.6111930230781
 31
0.0
  0
LINE
  5
8CD
  8
0
 10
107.324483296022
 20
140.6111930230781
 30
0.0
 11
107.324483296022
 21
100.6111930230781
 31
0.0
  0
LINE
  5
8CE
  8
0
 10
87.324483296021995
 20
140.6111930230781
 30
0.0
 11
87.324483296021995
 21
100.6111930230781
 31
0.0
  0
LINE
  5
8CF
  8
0
 10
95.924483296021975
 20
140.6111930230781
 30
0.0
 11
95.924483296021975
 21
100.6111930230781
 31
0.0
  0
LINE
  5
8D0
  8
0
 10
81.624483296021992
 20
95.611193023078144
 30
0.0
 11
81.624483296021992
 21
147.559086485965
 31
0.0
  0
LINE
  5
8D1
  8
0
 10
79.124483296021879
 20
95.611193023078187
 30
0.0
 11
79.124483296021879
 21
147.55908648596451
 31
0.0
  0
LINE
  5
8D2
  8
0
 10
124.12448329602169
 20
95.611193023078187
 30
0.0
 11
124.12448329602169
 21
147.55908648596491
 31
0.0
  0
LINE
  5
8D3
  8
0
 10
121.62448329602201
 20
147.55908648596451
 30
0.0
 11
121.62448329602201
 21
95.611193023078187
 31
0.0
  0
LINE
  5
8D4
  8
0
 10
184.12448329602171
 20
190.1096562836733
 30
0.0
 11
184.12448329602171
 21
91.111193023078158
 31
0.0
  0
LINE
  5
8D5
  8
1
 10
111.62448329602201
 20
149.1111930230781
 30
0.0
 11
111.62448329602201
 21
92.111193023078158
 31
0.0
  0
LINE
  5
8D6
  8
1
 10
91.624483296021992
 20
149.1111930230781
 30
0.0
 11
91.624483296021992
 21
92.111193023078158
 31
0.0
  0
LINE
  5
8D7
  8
1
 10
101.62448329602201
 20
263.71119302307812
 30
0.0
 11
101.62448329602201
 21
238.7111930230781
 31
0.0
  0
ARC
  5
8D8
  8
0
 10
119.12448329602201
 20
95.611193023078187
 30
0.0
 40
5.0
 50
270.0
 51
0.0
  0
ARC
  5
8D9
  8
0
 10
84.124483296021992
 20
95.611193023078144
 30
0.0
 40
5.0
 50
180.0
 51
270.0
  0
ARC
  5
8DA
  8
0
 10
119.12448329602201
 20
95.611193023078187
 30
0.0
 40
2.5
 50
270.0
 51
0.0
  0
ARC
  5
8DB
  8
0
 10
84.124483296021992
 20
95.611193023078144
 30
0.0
 40
2.5
 50
180.0
 51
270.0
  0
LINE
  5
8DC
  8
0
 10
119.12448329602201
 20
90.611193023078187
 30
0.0
 11
84.124483296021992
 21
90.611193023078144
 31
0.0
  0
ARC
  5
8DD
  8
0
 10
91.624483296021992
 20
100.6111930230781
 30
0.0
 40
4.2999999999999989
 50
180.0
 51
0.0
  0
LINE
  5
8DE
  8
1
 10
100.12448329602201
 20
100.6111930230781
 30
0.0
 11
84.124483296021992
 21
100.6111930230781
 31
0.0
  0
LINE
  5
8DF
  8
0
 10
119.12448329602201
 20
93.111193023078187
 30
0.0
 11
84.124483296021992
 21
93.111193023078144
 31
0.0
  0
ARC
  5
8E0
  8
0
 10
111.62448329602201
 20
100.6111930230781
 30
0.0
 40
4.2999999999999989
 50
180.0
 51
0.0
  0
LINE
  5
8E1
  8
1
 10
103.12448329602201
 20
100.6111930230781
 30
0.0
 11
119.12448329602201
 21
100.6111930230781
 31
0.0
  0
ARC
  5
8E2
  8
0
 10
184.62448329602171
 20
91.111193023078158
 30
0.0
 40
0.5
 50
180.0
 51
269.99999999999977
  0
LINE
  5
8E3
  8
0
 10
112.7209028080602
 20
187.1040525310749
 30
0.0
 11
123.2141481018287
 21
153.52437756033319
 31
0.0
  0
LINE
  5
8E4
  8
0
 10
90.528063783983555
 20
187.10405253107481
 30
0.0
 11
80.034818490214946
 21
153.52437756033271
 31
0.0
  0
CIRCLE
  5
8E5
  8
0
 10
101.62448329602201
 20
177.6111930230781
 30
0.0
 40
5.0999999999999988
  0
ARC
  5
8E6
  8
0
 10
91.624483296021992
 20
140.6111930230781
 30
0.0
 40
4.2999999999999989
 50
0.0
 51
180.0
  0
LINE
  5
8E7
  8
0
 10
115.29291490692709
 20
164.60965628367319
 30
0.0
 11
87.956051685116833
 21
164.60965628367339
 31
0.0
  0
LINE
  5
8E8
  8
1
 10
100.12448329602201
 20
140.6111930230781
 30
0.0
 11
84.124483296021992
 21
140.6111930230781
 31
0.0
  0
LINE
  5
8E9
  8
0
 10
85.569843584391094
 20
162.8553176679695
 30
0.0
 11
82.42102659094104
 21
152.77871617603731
 31
0.0
  0
ARC
  5
8EA
  8
0
 10
99.124483296021992
 20
147.559086485965
 30
0.0
 40
17.5
 50
162.64660202281681
 51
179.99999999999989
  0
ARC
  5
8EB
  8
0
 10
99.124483296021879
 20
147.55908648596451
 30
0.0
 40
20.0
 50
162.64660202281681
 51
180.0
  0
LINE
  5
8EC
  8
4
 10
80.12945310373135
 20
153.82721995788449
 30
0.0
 11
80.12945310373135
 21
153.82721995788449
 31
0.0
  0
LINE
  5
8ED
  8
4
 10
82.515661204457331
 20
153.08155857358841
 30
0.0
 11
82.515661204457331
 21
153.08155857358841
 31
0.0
  0
ARC
  5
8EE
  8
0
 10
87.956051685116833
 20
162.10965628367339
 30
0.0
 40
2.5
 50
89.999999999999687
 51
162.64660202281681
  0
LINE
  5
8F5
  8
0
 10
117.679123007653
 20
162.8553176679693
 30
0.0
 11
120.827940001103
 21
152.77871617603671
 31
0.0
  0
ARC
  5
8F6
  8
0
 10
111.62448329602201
 20
140.6111930230781
 30
0.0
 40
4.2999999999999989
 50
0.0
 51
180.0
  0
LINE
  5
8F7
  8
1
 10
103.12448329602201
 20
140.6111930230781
 30
0.0
 11
119.12448329602201
 21
140.6111930230781
 31
0.0
  0
ARC
  5
8F9
  8
0
 10
104.12448329602201
 20
147.55908648596451
 30
0.0
 40
17.5
 50
0.0
 51
17.353397977183
  0
ARC
  5
8FB
  8
0
 10
115.29291490692709
 20
162.10965628367319
 30
0.0
 40
2.5
 50
17.353397977183349
 51
89.999999999999616
  0
LINE
  5
8FC
  8
1
 10
91.124483296022007
 20
177.6111930230781
 30
0.0
 11
112.12448329602201
 21
177.6111930230781
 31
0.0
  0
ARC
  5
8FD
  8
0
 10
95.300479985435274
 20
185.6127297624827
 30
0.0
 40
5.0
 50
90.000000000000185
 51
162.64660202281681
  0
LINE
  5
8FE
  8
0
 10
109.12448329602221
 20
201.2111930230781
 30
0.0
 11
109.12448329602201
 21
196.51119302307799
 31
0.0
  0
LINE
  5
8FF
  8
0
 10
104.5606553941293
 20
201.7111930230781
 30
0.0
 11
104.5606553941293
 21
196.51119302307799
 31
0.0
  0
LINE
  5
900
  8
0
 10
102.98411562729331
 20
201.71119302307829
 30
0.0
 11
102.98411562729331
 21
196.51119302307799
 31
0.0
  0
LINE
  5
901
  8
0
 10
105.6595027391173
 20
201.7111930230781
 30
0.0
 11
105.6595027391173
 21
196.51119302307799
 31
0.0
  0
LINE
  5
902
  8
0
 10
108.5752408717795
 20
201.7111930230781
 30
0.0
 11
108.5752408717795
 21
195.7111930230781
 31
0.0
  0
LINE
  5
903
  8
0
 10
106.9407452979913
 20
201.23432000607519
 30
0.0
 11
106.9407452979913
 21
196.51119302307799
 31
0.0
  0
LINE
  5
904
  8
0
 10
108.55388331646419
 20
201.2133527558733
 30
0.0
 11
108.55388331646419
 21
196.51119302307799
 31
0.0
  0
LINE
  5
905
  8
0
 10
107.6371983322292
 20
201.7111930230781
 30
0.0
 11
107.6371983322292
 21
196.51119302307799
 31
0.0
  0
LINE
  5
906
  8
0
 10
101.7222268426431
 20
201.71119302307829
 30
0.0
 11
101.72222684264329
 21
196.51119302307799
 31
0.0
  0
LINE
  5
907
  8
0
 10
100.0736357335209
 20
201.71119302307829
 30
0.0
 11
100.0736357335209
 21
196.51119302307799
 31
0.0
  0
LINE
  5
908
  8
0
 10
98.866897543974176
 20
201.71119302307829
 30
0.0
 11
98.866897543974176
 21
196.51119302307799
 31
0.0
  0
LINE
  5
909
  8
0
 10
97.424483296021265
 20
201.26383713046201
 30
0.0
 11
97.424483296021265
 21
196.51119302307799
 31
0.0
  0
LINE
  5
90A
  8
0
 10
94.268709131177559
 20
201.21138576301269
 30
0.0
 11
94.268709131177559
 21
196.51119302307799
 31
0.0
  0
LINE
  5
90B
  8
0
 10
96.488379873713995
 20
201.71119302307829
 30
0.0
 11
96.488379873713995
 21
196.51119302307799
 31
0.0
  0
LINE
  5
90C
  8
0
 10
95.384971133146394
 20
201.2197526329924
 30
0.0
 11
95.384971133146394
 21
196.51119302307799
 31
0.0
  0
LINE
  5
90D
  8
0
 10
94.997941145205729
 20
201.71119302307829
 30
0.0
 11
94.997941145205729
 21
195.7111930230781
 31
0.0
  0
LINE
  5
90E
  8
0
 10
95.124483296021978
 20
194.7111930230781
 30
0.0
 11
108.12448329602201
 21
194.7111930230781
 31
0.0
  0
LINE
  5
90F
  8
0
 10
107.9484866066084
 20
190.61272976248279
 30
0.0
 11
95.300479985435274
 21
190.6127297624827
 31
0.0
  0
LINE
  5
910
  8
5
 10
99.624483296021992
 20
192.7111930230781
 30
0.0
 11
100.0034832960223
 21
192.05474576700911
 31
0.0
  0
LINE
  5
911
  8
0
 10
99.624483296021992
 20
192.05474576700911
 30
0.0
 11
103.62448329602201
 21
192.05474576700911
 31
0.0
  0
LINE
  5
912
  8
0
 10
104.62448329602201
 20
192.7111930230781
 30
0.0
 11
98.624483296022007
 21
192.7111930230781
 31
0.0
  0
LINE
  5
913
  8
0
 10
96.424483296022174
 20
193.01119302307831
 30
0.0
 11
106.8244832960218
 21
193.01119302307831
 31
0.0
  0
LINE
  5
914
  8
0
 10
107.12448329602201
 20
193.3111930230784
 30
0.0
 11
96.124483296022007
 21
193.3111930230784
 31
0.0
  0
LINE
  5
915
  8
0
 10
98.624483296022007
 20
192.7111930230781
 30
0.0
 11
98.624483296022007
 21
193.01119302307831
 31
0.0
  0
LINE
  5
916
  8
0
 10
99.624483296021992
 20
192.7111930230781
 30
0.0
 11
99.624483296021992
 21
190.61272976248279
 31
0.0
  0
POLYLINE
  5
917
  8
0
 66
     1
 10
0.0
 20
0.0
 30
0.0
  0
VERTEX
  5
918
  8
0
 10
95.384971133146394
 20
196.51119302307799
 30
0.0
 42
0.1094518446866012
  0
VERTEX
  5
919
  8
0
 10
95.451745319261207
 20
196.2098081941358
 30
0.0
 42
0.1023760341357042
  0
VERTEX
  5
91A
  8
0
 10
95.648575030078334
 20
195.9455075981289
 30
0.0
 42
0.0937369940414593
 70
     2
 50
318.36646066342911
  0
VERTEX
  5
91B
  8
0
 10
95.962697444018488
 20
195.7573351759718
 30
0.0
 42
0.1056789781822232
 50
48.366460663429031
  0
VERTEX
  5
91C
  8
0
 10
96.284971133146257
 20
195.7111930230781
 30
0.0
 42
0.0884260944203596
  0
SEQEND
  5
91D
  8
0
  0
POLYLINE
  5
91E
  8
0
 66
     1
 10
0.0
 20
0.0
 30
0.0
  0
VERTEX
  5
91F
  8
0
 10
94.268709131177559
 20
196.51119302307799
 30
0.0
 42
0.0905018488886264
  0
VERTEX
  5
920
  8
0
 10
94.325190794116281
 20
196.20170185916891
 30
0.0
 42
0.0948152213876642
  0
VERTEX
  5
921
  8
0
 10
94.482296243028088
 20
195.9455075981289
 30
0.0
 42
0.1016292794480505
 70
     2
 50
312.35042416499562
  0
VERTEX
  5
922
  8
0
 10
94.741915119987937
 20
195.75658166323339
 30
0.0
 42
0.1261922513727782
 50
42.350424164995573
  0
VERTEX
  5
923
  8
0
 10
94.997941145205729
 20
195.7111930230781
 30
0.0
 42
0.1070349181776772
  0
SEQEND
  5
924
  8
0
  0
ARC
  5
925
  8
0
 10
95.124483296021978
 20
195.2111930230781
 30
0.0
 40
0.5
 50
180.0
 51
270.0
  0
LINE
  5
926
  8
0
 10
94.624483296021992
 20
195.2111930230781
 30
0.0
 11
94.624483296021992
 21
195.82241772476371
 31
0.0
  0
POLYLINE
  5
927
  8
0
 66
     1
 10
0.0
 20
0.0
 30
0.0
  0
VERTEX
  5
928
  8
0
 10
98.324483296021356
 20
195.7111930230781
 30
0.0
 42
0.1379678187719903
  0
VERTEX
  5
929
  8
0
 10
98.520000998431954
 20
195.7661902028056
 30
0.0
 42
0.1070479250166163
  0
VERTEX
  5
92A
  8
0
 10
98.708028088960944
 20
195.9455075981289
 30
0.0
 42
0.0806815452171471
 70
     2
 50
55.86203024552713
  0
VERTEX
  5
92B
  8
0
 10
98.823101291437354
 20
196.19326971269899
 30
0.0
 42
0.0685549288735156
 50
145.86203024552711
  0
VERTEX
  5
92C
  8
0
 10
98.866897543974176
 20
196.51119302307799
 30
0.0
 42
0.0685549288735266
  0
SEQEND
  5
92D
  8
0
  0
POLYLINE
  5
92E
  8
0
 66
     1
 10
0.0
 20
0.0
 30
0.0
  0
VERTEX
  5
92F
  8
0
 10
97.424483296021265
 20
196.51119302307799
 30
0.0
 42
0.1094518446866012
  0
VERTEX
  5
930
  8
0
 10
97.491257482136291
 20
196.2098081941358
 30
0.0
 42
0.1023760341357138
  0
VERTEX
  5
931
  8
0
 10
97.688087192953446
 20
195.9455075981289
 30
0.0
 42
0.0937369940414451
 70
     2
 50
318.36646066342911
  0
VERTEX
  5
932
  8
0
 10
98.002209606893373
 20
195.7573351759718
 30
0.0
 42
0.1056789781821561
 50
48.36646066342913
  0
VERTEX
  5
933
  8
0
 10
98.324483296021356
 20
195.71119302307849
 30
0.0
 42
0.0884260944203031
  0
SEQEND
  5
934
  8
0
  0
LINE
  5
935
  8
0
 10
96.124483296022007
 20
194.7111930230781
 30
0.0
 11
96.124483296022007
 21
193.3111930230784
 31
0.0
  0
POLYLINE
  5
936
  8
0
 66
     1
 10
0.0
 20
0.0
 30
0.0
  0
VERTEX
  5
937
  8
0
 10
96.284971133146257
 20
195.7111930230781
 30
0.0
  0
VERTEX
  5
938
  8
0
 10
96.343682427785609
 20
195.74404380862279
 30
0.0
 42
0.0755304115360139
  0
VERTEX
  5
939
  8
0
 10
96.428802832954332
 20
195.9455075981289
 30
0.0
 42
0.0360289294855719
 70
     2
 50
75.734215600630904
  0
VERTEX
  5
93A
  8
0
 10
96.471091893045084
 20
196.18198558433349
 30
0.0
 42
0.0262388941048364
 50
165.7342156006309
  0
VERTEX
  5
93B
  8
0
 10
96.488379873713995
 20
196.51119302307799
 30
0.0
 42
0.0262388941048377
  0
SEQEND
  5
93C
  8
0
  0
LINE
  5
93D
  8
0
 10
96.124483296022007
 20
193.3111930230784
 30
0.0
 11
96.424483296022174
 21
193.01119302307831
 31
0.0
  0
LINE
  5
93E
  8
0
 10
104.62448329602201
 20
193.01119302307831
 30
0.0
 11
104.62448329602201
 21
192.7111930230781
 31
0.0
  0
LINE
  5
93F
  8
5
 10
103.62448329602201
 20
192.7111930230781
 30
0.0
 11
103.2454832960216
 21
192.05474576700911
 31
0.0
  0
LINE
  5
940
  8
3
 10
100.0034832960223
 20
190.61272976248279
 30
0.0
 11
100.0034832960223
 21
192.05474576700911
 31
0.0
  0
LINE
  5
941
  8
3
 10
103.2454832960216
 20
190.61272976248279
 30
0.0
 11
103.2454832960216
 21
192.05474576700911
 31
0.0
  0
LINE
  5
942
  8
0
 10
103.62448329602201
 20
192.7111930230781
 30
0.0
 11
103.62448329602201
 21
190.61272976248279
 31
0.0
  0
POLYLINE
  5
943
  8
0
 66
     1
 10
0.0
 20
0.0
 30
0.0
  0
VERTEX
  5
944
  8
0
 10
102.98411562729331
 20
196.51119302307799
 30
0.0
 42
0.0848206980772225
  0
VERTEX
  5
945
  8
0
 10
103.0373914990239
 20
196.19940252286531
 30
0.0
 42
0.0917396304147257
  0
VERTEX
  5
946
  8
0
 10
103.1832478195782
 20
195.9455075981289
 30
0.0
 42
0.1035870499853415
 70
     2
 50
310.35953972815969
  0
VERTEX
  5
947
  8
0
 10
103.4272711857455
 20
195.75613876882039
 30
0.0
 42
0.1337296478507434
 50
40.359539728159703
  0
VERTEX
  5
948
  8
0
 10
103.66399545889681
 20
195.71119302308131
 30
0.0
 42
0.1138667826143605
  0
SEQEND
  5
949
  8
0
  0
POLYLINE
  5
94A
  8
0
 66
     1
 10
0.0
 20
0.0
 30
0.0
  0
VERTEX
  5
94B
  8
0
 10
100.9345954384553
 20
195.7111930230781
 30
0.0
 42
0.0998898388746844
  0
VERTEX
  5
94C
  8
0
 10
101.2354209328076
 20
195.77189755196829
 30
0.0
 42
0.0990596936753903
  0
VERTEX
  5
94D
  8
0
 10
101.49153494543209
 20
195.9455075981289
 30
0.0
 42
0.0979078572146715
 70
     2
 50
45.446359274593227
  0
VERTEX
  5
94E
  8
0
 10
101.6620866598019
 20
196.20445904153479
 30
0.0
 42
0.0971086656708386
 50
135.44635927459319
  0
VERTEX
  5
94F
  8
0
 10
101.7222268426431
 20
196.51119302307799
 30
0.0
 42
0.097108665670858
  0
SEQEND
  5
950
  8
0
  0
POLYLINE
  5
951
  8
0
 66
     1
 10
0.0
 20
0.0
 30
0.0
  0
VERTEX
  5
952
  8
0
 10
100.0736357335209
 20
196.51119302307799
 30
0.0
 42
0.1052197689628297
  0
VERTEX
  5
953
  8
0
 10
100.13816479287379
 20
196.2079484623155
 30
0.0
 42
0.1010284069538633
  0
VERTEX
  5
954
  8
0
 10
100.3258049927677
 20
195.9455075981289
 30
0.0
 42
0.09561581542841
 70
     2
 50
317.10189737400532
  0
VERTEX
  5
955
  8
0
 10
100.62738981717079
 20
195.75724273079501
 30
0.0
 42
0.1097465683605581
 50
47.10189737400529
  0
VERTEX
  5
956
  8
0
 10
100.9345954384553
 20
195.71119302307761
 30
0.0
 42
0.0921114544648355
  0
SEQEND
  5
957
  8
0
  0
LINE
  5
958
  8
0
 10
107.12448329602201
 20
194.7111930230781
 30
0.0
 11
107.12448329602201
 21
193.3111930230784
 31
0.0
  0
LINE
  5
959
  8
0
 10
107.12448329602201
 20
193.3111930230784
 30
0.0
 11
106.8244832960218
 21
193.01119302307831
 31
0.0
  0
POLYLINE
  5
95A
  8
0
 66
     1
 10
0.0
 20
0.0
 30
0.0
  0
VERTEX
  5
95B
  8
0
 10
105.6595027391173
 20
196.51119302307799
 30
0.0
 42
0.0487609169509351
  0
VERTEX
  5
95C
  8
0
 10
105.6911951885905
 20
196.18698771044319
 30
0.0
 42
0.0625377209737885
  0
VERTEX
  5
95D
  8
0
 10
105.77116609933459
 20
195.94550759812839
 30
0.0
 42
0.1030003547984891
 70
     2
 50
295.48028364886733
  0
VERTEX
  5
95E
  8
0
 10
105.9208667826418
 20
195.74858256877019
 30
0.0
 42
0.2095873959746824
 50
25.48028364886726
  0
VERTEX
  5
95F
  8
0
 10
106.04074529799119
 20
195.71119302307761
 30
0.0
 42
0.1808147028098188
  0
SEQEND
  5
960
  8
0
  0
POLYLINE
  5
961
  8
0
 66
     1
 10
0.0
 20
0.0
 30
0.0
  0
VERTEX
  5
962
  8
0
 10
106.04074529799119
 20
195.7111930230781
 30
0.0
 42
0.0884260944202643
  0
VERTEX
  5
963
  8
0
 10
106.38987719186051
 20
195.7734243603681
 30
0.0
 42
0.0937369940413475
  0
VERTEX
  5
964
  8
0
 10
106.6771414010591
 20
195.9455075981289
 30
0.0
 42
0.102376034135717
 70
     2
 50
41.633539336569498
  0
VERTEX
  5
965
  8
0
 10
106.8739711118763
 20
196.2098081941358
 30
0.0
 42
0.1094518446865842
 50
131.6335393365695
  0
VERTEX
  5
966
  8
0
 10
106.9407452979913
 20
196.51119302307799
 30
0.0
 42
0.1094518446865878
  0
SEQEND
  5
967
  8
0
  0
POLYLINE
  5
968
  8
0
 66
     1
 10
0.0
 20
0.0
 30
0.0
  0
VERTEX
  5
969
  8
0
 10
103.66399545889711
 20
195.7111930230808
 30
0.0
 42
0.0887302727897582
  0
VERTEX
  5
96A
  8
0
 10
104.01169297335861
 20
195.7733852569641
 30
0.0
 42
0.0938982457623443
  0
VERTEX
  5
96B
  8
0
 10
104.298029779518
 20
195.94550759813069
 30
0.0
 42
0.1022687129458603
 70
     2
 50
41.739342901473329
  0
VERTEX
  5
96C
  8
0
 10
104.4940708328582
 20
196.2096491947255
 30
0.0
 42
0.1090921545782859
 50
131.73934290147329
  0
VERTEX
  5
96D
  8
0
 10
104.5606553941293
 20
196.51119302307799
 30
0.0
 42
0.1090921545783206
  0
SEQEND
  5
96E
  8
0
  0
ARC
  5
96F
  8
0
 10
107.9484866066084
 20
185.61272976248279
 30
0.0
 40
5.0
 50
17.353397977183189
 51
90.000000000000099
  0
LINE
  5
970
  8
0
 10
108.62448329602201
 20
195.2111930230781
 30
0.0
 11
108.62448329602201
 21
195.71436241506669
 31
0.0
  0
ARC
  5
971
  8
0
 10
108.12448329602201
 20
195.2111930230781
 30
0.0
 40
0.5
 50
270.00000000000011
 51
0.0
  0
POLYLINE
  5
972
  8
0
 66
     1
 10
0.0
 20
0.0
 30
0.0
  0
VERTEX
  5
973
  8
0
 10
107.6371983322292
 20
196.51119302307799
 30
0.0
  0
VERTEX
  5
974
  8
0
 10
107.6420852509675
 20
195.9455075981289
 30
0.0
 42
0.0073640581750739
 70
     2
 50
271.19480075340999
  0
VERTEX
  5
975
  8
0
 10
107.65034919199439
 20
195.71334886052361
 30
0.0
 50
1.1948007534100069
  0
VERTEX
  5
976
  8
0
 10
107.6538833164641
 20
195.7111930230781
 30
0.0
  0
SEQEND
  5
977
  8
0
  0
POLYLINE
  5
978
  8
0
 66
     1
 10
0.0
 20
0.0
 30
0.0
  0
VERTEX
  5
979
  8
0
 10
107.6538833164641
 20
195.7111930230781
 30
0.0
 42
0.0884260944203504
  0
VERTEX
  5
97A
  8
0
 10
108.0030152103334
 20
195.77342436036841
 30
0.0
 42
0.0937369940414554
  0
VERTEX
  5
97B
  8
0
 10
108.290279419532
 20
195.9455075981289
 30
0.0
 42
0.1023760341356985
 70
     2
 50
41.633539336571133
  0
VERTEX
  5
97C
  8
0
 10
108.4871091303494
 20
196.2098081941358
 30
0.0
 42
0.1094518446865961
 50
131.63353933657109
  0
VERTEX
  5
97D
  8
0
 10
108.55388331646419
 20
196.51119302307799
 30
0.0
 42
0.1094518446865721
  0
SEQEND
  5
97E
  8
0
  0
POLYLINE
  5
97F
  8
0
 66
     1
 10
0.0
 20
0.0
 30
0.0
  0
VERTEX
  5
980
  8
0
 10
108.5752408717795
 20
195.7111930230781
 30
0.0
 42
0.1365543211489539
  0
VERTEX
  5
981
  8
0
 10
108.773672756289
 20
195.76641623748699
 30
0.0
 42
0.1069784838956314
  0
VERTEX
  5
982
  8
0
 10
108.9636139144766
 20
195.9455075981289
 30
0.0
 42
0.0813232630570643
 70
     2
 50
55.528336501122567
  0
VERTEX
  5
983
  8
0
 10
109.08019728055
 20
196.19356134039569
 30
0.0
 42
0.0693773007987266
 50
145.5283365011226
  0
VERTEX
  5
984
  8
0
 10
109.12448329602201
 20
196.51119302307799
 30
0.0
 42
0.0693773007987186
  0
SEQEND
  5
985
  8
0
  0
ARC
  5
986
  8
0
 10
101.62448329602201
 20
178.7111930230781
 30
0.0
 40
25.0
 50
73.739795291688026
 51
106.2602047083119
  0
LINE
  5
987
  8
0
 10
94.624483296021992
 20
202.7111930230781
 30
0.0
 11
108.62448329602201
 21
202.7111930230781
 31
0.0
  0
LINE
  5
988
  8
0
 10
94.624483296021992
 20
201.71119302307829
 30
0.0
 11
108.62448329602221
 21
201.7111930230781
 31
0.0
  0
POLYLINE
  5
989
  8
0
 66
     1
 10
0.0
 20
0.0
 30
0.0
  0
VERTEX
  5
98A
  8
0
 10
95.38475033048195
 20
201.21977469327339
 30
0.0
 42
0.0249159447910383
 50
61.775106946736827
  0
VERTEX
  5
98B
  8
0
 10
95.556855838208833
 20
201.2111930230781
 30
0.0
 42
0.0547477796256655
  0
VERTEX
  5
98C
  8
0
 10
95.932338123834427
 20
201.25243026712201
 30
0.0
 42
0.0685683081940358
  0
VERTEX
  5
98D
  8
0
 10
96.215542800552669
 20
201.35763963248479
 30
0.0
 42
0.1056237021746206
 70
     2
 50
28.224893053259621
  0
VERTEX
  5
98E
  8
0
 10
96.429723696659551
 20
201.5391739358229
 30
0.0
 42
0.1658060814223384
 50
118.22489305325961
  0
VERTEX
  5
98F
  8
0
 10
96.488379873713995
 20
201.71119302307829
 30
0.0
 42
0.1658060814223559
  0
SEQEND
  5
990
  8
0
  0
POLYLINE
  5
991
  8
0
 66
     1
 10
0.0
 20
0.0
 30
0.0
  0
VERTEX
  5
992
  8
0
 10
94.653291754819122
 20
201.71119302307829
 30
0.0
 42
0.1240881951977143
  0
VERTEX
  5
993
  8
0
 10
94.511577810309333
 20
201.6754729545253
 30
0.0
 42
0.1056724887056988
  0
VERTEX
  5
994
  8
0
 10
94.381350773715724
 20
201.56480286589141
 30
0.0
 42
0.0870433318257046
 70
     2
 50
232.42309052666249
  0
VERTEX
  5
995
  8
0
 10
94.290936163821073
 20
201.3920580637355
 30
0.0
 42
0.0933365643076633
 50
322.42309052666252
  0
VERTEX
  5
996
  8
0
 10
94.268709131177559
 20
201.211385763012
 30
0.0
 42
0.0772890502597261
  0
SEQEND
  5
997
  8
0
  0
POLYLINE
  5
998
  8
0
 66
     1
 10
0.0
 20
0.0
 30
0.0
  0
VERTEX
  5
999
  8
0
 10
94.268709131177559
 20
201.21138576301229
 30
0.0
 42
0.0048999274164325
 50
54.829284635508927
  0
VERTEX
  5
99A
  8
0
 10
94.288376290517178
 20
201.2111930230781
 30
0.0
 42
0.071116880336321
  0
VERTEX
  5
99B
  8
0
 10
94.569548238181426
 20
201.25138845945779
 30
0.0
 42
0.0826512826045614
  0
VERTEX
  5
99C
  8
0
 10
94.790114410959234
 20
201.35763963248479
 30
0.0
 42
0.1067866567410664
 70
     2
 50
35.170715364493383
  0
VERTEX
  5
99D
  8
0
 10
94.948550096207626
 20
201.529704145728
 30
0.0
 42
0.1336415817770586
 50
125.1707153644934
  0
VERTEX
  5
99E
  8
0
 10
94.997941145205729
 20
201.71119302307829
 30
0.0
 42
0.1336415817770424
  0
SEQEND
  5
99F
  8
0
  0
POLYLINE
  5
9A0
  8
0
 66
     1
 10
0.0
 20
0.0
 30
0.0
  0
VERTEX
  5
9A1
  8
0
 10
95.514024713193578
 20
201.71119302307829
 30
0.0
  0
VERTEX
  5
9A2
  8
0
 10
95.476634821679738
 20
201.69044843680109
 30
0.0
 42
0.0763668561550828
  0
VERTEX
  5
9A3
  8
0
 10
95.422770051605823
 20
201.564901723405
 30
0.0
 42
0.0365742959707906
 70
     2
 50
255.51269662680301
  0
VERTEX
  5
9A4
  8
0
 10
95.391972910064453
 20
201.3954034618782
 30
0.0
 42
0.0327708105471049
 50
345.51269662680289
  0
VERTEX
  5
9A5
  8
0
 10
95.38475033048195
 20
201.21977469327339
 30
0.0
 42
0.0266610994128657
  0
SEQEND
  5
9A6
  8
0
  0
LINE
  5
9A7
  8
0
 10
94.624483296021992
 20
202.7111930230781
 30
0.0
 11
94.624483296021992
 21
201.7111930230781
 31
0.0
  0
POLYLINE
  5
9A8
  8
0
 66
     1
 10
0.0
 20
0.0
 30
0.0
  0
VERTEX
  5
9A9
  8
0
 10
97.431311472312316
 20
201.71119302307829
 30
0.0
  0
VERTEX
  5
9AA
  8
0
 10
97.429860616758845
 20
201.70979445083299
 30
0.0
 42
0.005372246470765
  0
VERTEX
  5
9AB
  8
0
 10
97.426483222553841
 20
201.57966809040229
 30
0.0
 70
     2
 50
269.12884563262088
  0
VERTEX
  5
9AC
  8
0
 10
97.424493975761891
 20
201.26383444159251
 30
0.0
  0
SEQEND
  5
9AD
  8
0
  0
POLYLINE
  5
9AE
  8
0
 66
     1
 10
0.0
 20
0.0
 30
0.0
  0
VERTEX
  5
9AF
  8
0
 10
97.424493975761891
 20
201.26383444159211
 30
0.0
 42
0.010226625477955
 70
     2
 50
333.26003525150958
  0
VERTEX
  5
9B0
  8
0
 10
97.473256517064158
 20
201.25261283415739
 30
0.0
 42
0.0514796672099776
 50
63.260035251509649
  0
VERTEX
  5
9B1
  8
0
 10
97.87448329602131
 20
201.2111930230781
 30
0.0
 42
0.0514796672099938
  0
VERTEX
  5
9B2
  8
0
 10
98.275710074978463
 20
201.25261283415739
 30
0.0
 42
0.0653335645533661
  0
VERTEX
  5
9B3
  8
0
 10
98.576226140494839
 20
201.35763963248479
 30
0.0
 42
0.1043761479063614
 70
     2
 50
26.739964748487111
  0
VERTEX
  5
9B4
  8
0
 10
98.806107021120013
 20
201.54152873769391
 30
0.0
 42
0.1737416071917676
 50
116.7399647484871
  0
VERTEX
  5
9B5
  8
0
 10
98.866897543974176
 20
201.71119302307829
 30
0.0
 42
0.1737416071917887
  0
SEQEND
  5
9B6
  8
0
  0
POLYLINE
  5
9B7
  8
0
 66
     1
 10
0.0
 20
0.0
 30
0.0
  0
VERTEX
  5
9B8
  8
0
 10
102.98411562729331
 20
201.7111930230781
 30
0.0
 42
0.1693013436267037
  0
VERTEX
  5
9B9
  8
0
 10
103.0437190116195
 20
201.5402109902075
 30
0.0
 42
0.1051146160715128
  0
VERTEX
  5
9BA
  8
0
 10
103.2647059035135
 20
201.35763963248479
 30
0.0
 42
0.0671308023179978
 70
     2
 50
332.43889368154021
  0
VERTEX
  5
9BB
  8
0
 10
103.591138395703
 20
201.23960153276499
 30
0.0
 42
0.0661687674236607
 50
62.438893681540193
  0
VERTEX
  5
9BC
  8
0
 10
103.9421107538345
 20
201.21119302307861
 30
0.0
 42
0.0532781065161395
  0
SEQEND
  5
9BD
  8
0
  0
POLYLINE
  5
9BE
  8
0
 66
     1
 10
0.0
 20
0.0
 30
0.0
  0
VERTEX
  5
9BF
  8
0
 10
100.84051982151441
 20
201.21119302307631
 30
0.0
 42
0.0577416765611558
  0
VERTEX
  5
9C0
  8
0
 10
101.1949022968515
 20
201.25225520508661
 30
0.0
 42
0.0714091702527705
  0
VERTEX
  5
9C1
  8
0
 10
101.4639808351745
 20
201.3576396324834
 30
0.0
 42
0.106417741603614
 70
     2
 50
29.556782905202979
  0
VERTEX
  5
9C2
  8
0
 10
101.66543790152519
 20
201.53716687351539
 30
0.0
 42
0.1590353561057443
 50
119.55678290520289
  0
VERTEX
  5
9C3
  8
0
 10
101.72222684264329
 20
201.71119302307829
 30
0.0
 42
0.1590353561057441
  0
SEQEND
  5
9C4
  8
0
  0
POLYLINE
  5
9C5
  8
0
 66
     1
 10
0.0
 20
0.0
 30
0.0
  0
VERTEX
  5
9C6
  8
0
 10
100.0736357335209
 20
201.71119302307829
 30
0.0
 42
0.1424461909456224
  0
VERTEX
  5
9C7
  8
0
 10
100.1256640317124
 20
201.5322742469537
 30
0.0
 42
0.1071692163336866
  0
VERTEX
  5
9C8
  8
0
 10
100.2982508825101
 20
201.35763963248479
 30
0.0
 42
0.0786621310584706
 70
     2
 50
326.89609130328989
  0
VERTEX
  5
9C9
  8
0
 10
100.5612109875977
 20
201.2399655366346
 30
0.0
 42
0.080734269475639
 50
56.89609130328985
  0
VERTEX
  5
9CA
  8
0
 10
100.84051982151441
 20
201.2111930230781
 30
0.0
 42
0.0660383150183375
  0
SEQEND
  5
9CB
  8
0
  0
POLYLINE
  5
9CC
  8
0
 66
     1
 10
0.0
 20
0.0
 30
0.0
  0
VERTEX
  5
9CD
  8
0
 10
106.94074004618049
 20
201.23431918537881
 30
0.0
 42
0.0101826199204135
  0
VERTEX
  5
9CE
  8
0
 10
106.9365179759839
 20
201.42749655299349
 30
0.0
 42
0.0148543599624011
  0
VERTEX
  5
9CF
  8
0
 10
106.92629037842541
 20
201.56945228631761
 30
0.0
 42
0.0349576211750113
 70
     2
 50
95.822973103683339
  0
VERTEX
  5
9D0
  8
0
 10
106.90336307634929
 20
201.7018126717835
 30
0.0
 50
185.82297310368341
  0
VERTEX
  5
9D1
  8
0
 10
106.8913931155667
 20
201.7111930230781
 30
0.0
  0
SEQEND
  5
9D2
  8
0
  0
POLYLINE
  5
9D3
  8
0
 66
     1
 10
0.0
 20
0.0
 30
0.0
  0
VERTEX
  5
9D4
  8
0
 10
105.6595027391173
 20
201.7111930230781
 30
0.0
 42
0.1725977341063799
  0
VERTEX
  5
9D5
  8
0
 10
105.7199891556002
 20
201.54118926323349
 30
0.0
 42
0.1045759356935006
  0
VERTEX
  5
9D6
  8
0
 10
105.9475515347272
 20
201.35763963248479
 30
0.0
 42
0.0657934531255048
 70
     2
 50
333.05080506463872
  0
VERTEX
  5
9D7
  8
0
 10
106.2824978542067
 20
201.23955056846791
 30
0.0
 42
0.0646144333251881
 50
63.050805064638631
  0
VERTEX
  5
9D8
  8
0
 10
106.6429628437141
 20
201.2111930230781
 30
0.0
 42
0.0387729409820128
  0
VERTEX
  5
9D9
  8
0
 10
106.94074004618049
 20
201.23431918537881
 30
0.0
 42
0.0657934531255107
  0
SEQEND
  5
9DA
  8
0
  0
POLYLINE
  5
9DB
  8
0
 66
     1
 10
0.0
 20
0.0
 30
0.0
  0
VERTEX
  5
9DC
  8
0
 10
103.9421107538345
 20
201.2111930230781
 30
0.0
 42
0.0809501763471668
  0
VERTEX
  5
9DD
  8
0
 10
104.184359403635
 20
201.2506718670632
 30
0.0
 42
0.0894159048788189
  0
VERTEX
  5
9DE
  8
0
 10
104.37948786345351
 20
201.35763963248479
 30
0.0
 42
0.1047434678398684
 70
     2
 50
38.950310354694132
  0
VERTEX
  5
9DF
  8
0
 10
104.5158450798672
 20
201.52548352179139
 30
0.0
 42
0.1189395261856113
 50
128.9503103546941
  0
VERTEX
  5
9E0
  8
0
 10
104.5606553941293
 20
201.7111930230781
 30
0.0
 42
0.1189395261856327
  0
SEQEND
  5
9E1
  8
0
  0
LINE
  5
9E2
  8
0
 10
108.62448329602201
 20
201.71119302307829
 30
0.0
 11
109.12448329602201
 21
201.21119302307829
 31
0.0
  0
POLYLINE
  5
9E3
  8
0
 66
     1
 10
0.0
 20
0.0
 30
0.0
  0
VERTEX
  5
9E4
  8
0
 10
108.5538817809943
 20
201.21335267056909
 30
0.0
 42
0.0004354628099435
 50
153.95374389654509
  0
VERTEX
  5
9E5
  8
0
 10
108.55388331646419
 20
201.2151157023803
 30
0.0
 42
0.0499765945654672
  0
VERTEX
  5
9E6
  8
0
 10
108.53375970585969
 20
201.41594319814931
 30
0.0
 42
0.0637995350827107
  0
VERTEX
  5
9E7
  8
0
 10
108.4828716380194
 20
201.56589533983859
 30
0.0
 42
0.1036556554728255
 70
     2
 50
116.0462561034565
  0
VERTEX
  5
9E8
  8
0
 10
108.39314946720491
 20
201.68122306303579
 30
0.0
 42
0.1775966713056023
 50
206.0462561034565
  0
VERTEX
  5
9E9
  8
0
 10
108.31143428083099
 20
201.7111930230781
 30
0.0
 42
0.1775966713054659
  0
SEQEND
  5
9EA
  8
0
  0
POLYLINE
  5
9EB
  8
0
 66
     1
 10
0.0
 20
0.0
 30
0.0
  0
VERTEX
  5
9EC
  8
0
 10
107.6371983322292
 20
201.7111930230781
 30
0.0
 42
0.1530093298729036
  0
VERTEX
  5
9ED
  8
0
 10
107.6922888614104
 20
201.53538427421469
 30
0.0
 42
0.1068968575474274
  0
VERTEX
  5
9EE
  8
0
 10
107.8828993936268
 20
201.35763963248479
 30
0.0
 42
0.0739980512359581
 70
     2
 50
329.20354767736472
  0
VERTEX
  5
9EF
  8
0
 10
108.1696689229118
 20
201.23983781986391
 30
0.0
 42
0.0745527066867017
 50
59.203547677364639
  0
VERTEX
  5
9F0
  8
0
 10
108.4760742283425
 20
201.2111930230781
 30
0.0
 42
0.0138757375327165
  0
VERTEX
  5
9F1
  8
0
 10
108.55388331646419
 20
201.2133527558733
 30
0.0
 42
0.0561213892892297
  0
SEQEND
  5
9F2
  8
0
  0
POLYLINE
  5
9F3
  8
0
 66
     1
 10
0.0
 20
0.0
 30
0.0
  0
VERTEX
  5
9F4
  8
0
 10
108.5752408717795
 20
201.7111930230781
 30
0.0
 42
0.1071599301239294
  0
VERTEX
  5
9F5
  8
0
 10
108.6162172008281
 20
201.52219613055721
 30
0.0
 42
0.1016693890430099
  0
VERTEX
  5
9F6
  8
0
 10
108.73611025332509
 20
201.35763963248479
 30
0.0
 42
0.0947597749534213
 70
     2
 50
317.68700000215188
  0
VERTEX
  5
9F7
  8
0
 10
108.9281756281155
 20
201.2400033344432
 30
0.0
 42
0.1078501517118469
 50
47.687000002151862
  0
VERTEX
  5
9F8
  8
0
 10
109.1244832960224
 20
201.2111930230781
 30
0.0
 42
0.0903926215511379
  0
SEQEND
  5
9F9
  8
0
  0
LINE
  5
9FA
  8
0
 10
108.62448329602201
 20
202.7111930230781
 30
0.0
 11
108.62448329602201
 21
201.7111930230781
 31
0.0
  0
ARC
  5
9FB
  8
0
 10
104.12448329602169
 20
147.559086485965
 30
0.0
 40
20.0
 50
360.0
 51
17.353397977183171
  0
LINE
  5
9FC
  8
0
 10
194.5606553941291
 20
201.7081195442685
 30
0.0
 11
194.5606553941291
 21
196.5081195442684
 31
0.0
  0
LINE
  5
9FD
  8
0
 10
192.98411562729311
 20
201.7081195442687
 30
0.0
 11
192.98411562729311
 21
196.5081195442684
 31
0.0
  0
LINE
  5
9FE
  8
0
 10
191.7222268426429
 20
201.7081195442687
 30
0.0
 11
191.7222268426431
 21
196.5081195442684
 31
0.0
  0
LINE
  5
9FF
  8
0
 10
190.07363573352069
 20
201.7081195442687
 30
0.0
 11
190.07363573352069
 21
196.5081195442684
 31
0.0
  0
LINE
  5
A00
  8
0
 10
188.86689754397389
 20
201.7081195442687
 30
0.0
 11
188.86689754397389
 21
196.5081195442684
 31
0.0
  0
LINE
  5
A01
  8
0
 10
187.42448329602101
 20
201.26076365165241
 30
0.0
 11
187.42448329602101
 21
196.5081195442684
 31
0.0
  0
LINE
  5
A02
  8
0
 10
184.2687091311773
 20
201.20831228420309
 30
0.0
 11
184.2687091311773
 21
196.5081195442684
 31
0.0
  0
LINE
  5
A03
  8
0
 10
186.48837987371371
 20
201.7081195442687
 30
0.0
 11
186.48837987371371
 21
196.5081195442684
 31
0.0
  0
LINE
  5
A04
  8
0
 10
185.38497113314611
 20
201.2166791541828
 30
0.0
 11
185.38497113314611
 21
196.5081195442684
 31
0.0
  0
LINE
  5
A05
  8
0
 10
184.99794114520549
 20
201.7081195442687
 30
0.0
 11
184.99794114520549
 21
195.7081195442685
 31
0.0
  0
LINE
  5
A06
  8
1
 10
191.62448329602171
 20
208.7111930230781
 30
0.0
 11
191.62448329602171
 21
180.10811954426859
 31
0.0
  0
ARC
  5
A07
  8
0
 10
184.62448329602171
 20
190.1096562836733
 30
0.0
 40
0.5
 50
89.999999999999673
 51
180.0
  0
POLYLINE
  5
A08
  8
0
 66
     1
 10
0.0
 20
0.0
 30
0.0
  0
VERTEX
  5
A09
  8
0
 10
184.2687091311773
 20
196.5081195442684
 30
0.0
 42
0.0905018488886264
  0
VERTEX
  5
A0A
  8
0
 10
184.325190794116
 20
196.19862838035931
 30
0.0
 42
0.0948152213876642
  0
VERTEX
  5
A0B
  8
0
 10
184.4822962430278
 20
195.9424341193193
 30
0.0
 42
0.1016292794480505
 70
     2
 50
312.35042416499562
  0
VERTEX
  5
A0C
  8
0
 10
184.74191511998771
 20
195.75350818442379
 30
0.0
 42
0.1261922513727782
 50
42.350424164995573
  0
VERTEX
  5
A0D
  8
0
 10
184.99794114520549
 20
195.7081195442685
 30
0.0
 42
0.1070349181776772
  0
SEQEND
  5
A0E
  8
0
  0
ARC
  5
A0F
  8
0
 10
185.12448329602171
 20
195.2081195442685
 30
0.0
 40
0.5
 50
180.0
 51
270.0
  0
LINE
  5
A10
  8
0
 10
184.62448329602171
 20
195.2081195442685
 30
0.0
 11
184.62448329602171
 21
195.81934424595411
 31
0.0
  0
LINE
  5
A11
  8
0
 10
186.12448329602171
 20
194.7081195442685
 30
0.0
 11
186.12448329602171
 21
193.30811954426889
 31
0.0
  0
POLYLINE
  5
A12
  8
0
 66
     1
 10
0.0
 20
0.0
 30
0.0
  0
VERTEX
  5
A13
  8
0
 10
185.38497113314611
 20
196.5081195442684
 30
0.0
 42
0.1094518446866012
  0
VERTEX
  5
A14
  8
0
 10
185.45174531926091
 20
196.20673471532621
 30
0.0
 42
0.1023760341357042
  0
VERTEX
  5
A15
  8
0
 10
185.64857503007809
 20
195.9424341193193
 30
0.0
 42
0.0937369940414593
 70
     2
 50
318.36646066342911
  0
VERTEX
  5
A16
  8
0
 10
185.9626974440182
 20
195.75426169716221
 30
0.0
 42
0.1056789781822232
 50
48.366460663429031
  0
VERTEX
  5
A17
  8
0
 10
186.284971133146
 20
195.7081195442685
 30
0.0
 42
0.0884260944203596
  0
SEQEND
  5
A18
  8
0
  0
POLYLINE
  5
A19
  8
0
 66
     1
 10
0.0
 20
0.0
 30
0.0
  0
VERTEX
  5
A1A
  8
0
 10
186.284971133146
 20
195.7081195442685
 30
0.0
  0
VERTEX
  5
A1B
  8
0
 10
186.34368242778541
 20
195.74097032981319
 30
0.0
 42
0.0755304115360139
  0
VERTEX
  5
A1C
  8
0
 10
186.42880283295409
 20
195.9424341193193
 30
0.0
 42
0.0360289294855719
 70
     2
 50
75.734215600630904
  0
VERTEX
  5
A1D
  8
0
 10
186.47109189304479
 20
196.17891210552389
 30
0.0
 42
0.0262388941048364
 50
165.7342156006309
  0
VERTEX
  5
A1E
  8
0
 10
186.48837987371371
 20
196.5081195442684
 30
0.0
 42
0.0262388941048377
  0
SEQEND
  5
A1F
  8
0
  0
LINE
  5
A20
  8
0
 10
186.12448329602171
 20
193.30811954426889
 30
0.0
 11
186.42448329602189
 21
193.00811954426871
 31
0.0
  0
LINE
  5
A21
  8
0
 10
188.62448329602171
 20
192.7081195442685
 30
0.0
 11
188.62448329602171
 21
193.00811954426871
 31
0.0
  0
LINE
  5
A22
  8
0
 10
194.62448329602179
 20
193.00811954426871
 30
0.0
 11
194.62448329602179
 21
192.7081195442685
 31
0.0
  0
LINE
  5
A23
  8
0
 10
189.62448329602171
 20
192.05167228819951
 30
0.0
 11
193.62448329602179
 21
192.05167228819951
 31
0.0
  0
LINE
  5
A24
  8
0
 10
194.62448329602179
 20
192.7081195442685
 30
0.0
 11
188.62448329602171
 21
192.7081195442685
 31
0.0
  0
LINE
  5
A25
  8
5
 10
189.62448329602171
 20
192.7081195442685
 30
0.0
 11
190.0034832960221
 21
192.05167228819951
 31
0.0
  0
LINE
  5
A26
  8
0
 10
189.62448329602171
 20
192.7081195442685
 30
0.0
 11
189.62448329602171
 21
190.60965628367319
 31
0.0
  0
LINE
  5
A27
  8
3
 10
190.0034832960221
 20
190.60965628367319
 30
0.0
 11
190.0034832960221
 21
192.05167228819951
 31
0.0
  0
LINE
  5
A28
  8
5
 10
193.62448329602179
 20
192.7081195442685
 30
0.0
 11
193.2454832960214
 21
192.05167228819951
 31
0.0
  0
LINE
  5
A29
  8
0
 10
193.62448329602179
 20
192.7081195442685
 30
0.0
 11
193.62448329602179
 21
190.60965628367319
 31
0.0
  0
LINE
  5
A2A
  8
3
 10
193.2454832960214
 20
190.60965628367319
 30
0.0
 11
193.2454832960214
 21
192.05167228819951
 31
0.0
  0
POLYLINE
  5
A2B
  8
0
 66
     1
 10
0.0
 20
0.0
 30
0.0
  0
VERTEX
  5
A2C
  8
0
 10
190.93459543845509
 20
195.7081195442685
 30
0.0
 42
0.0998898388746844
  0
VERTEX
  5
A2D
  8
0
 10
191.2354209328073
 20
195.76882407315881
 30
0.0
 42
0.0990596936753903
  0
VERTEX
  5
A2E
  8
0
 10
191.49153494543179
 20
195.9424341193193
 30
0.0
 42
0.0979078572146715
 70
     2
 50
45.446359274593227
  0
VERTEX
  5
A2F
  8
0
 10
191.66208665980159
 20
196.20138556272531
 30
0.0
 42
0.0971086656708386
 50
135.44635927459319
  0
VERTEX
  5
A30
  8
0
 10
191.7222268426429
 20
196.5081195442684
 30
0.0
 42
0.097108665670858
  0
SEQEND
  5
A31
  8
0
  0
POLYLINE
  5
A32
  8
0
 66
     1
 10
0.0
 20
0.0
 30
0.0
  0
VERTEX
  5
A33
  8
0
 10
188.3244832960211
 20
195.7081195442685
 30
0.0
 42
0.1379678187719903
  0
VERTEX
  5
A34
  8
0
 10
188.5200009984317
 20
195.76311672399601
 30
0.0
 42
0.1070479250166163
  0
VERTEX
  5
A35
  8
0
 10
188.7080280889607
 20
195.9424341193193
 30
0.0
 42
0.0806815452171471
 70
     2
 50
55.86203024552713
  0
VERTEX
  5
A36
  8
0
 10
188.8231012914371
 20
196.19019623388951
 30
0.0
 42
0.0685549288735156
 50
145.86203024552711
  0
VERTEX
  5
A37
  8
0
 10
188.86689754397389
 20
196.5081195442684
 30
0.0
 42
0.0685549288735266
  0
SEQEND
  5
A38
  8
0
  0
POLYLINE
  5
A39
  8
0
 66
     1
 10
0.0
 20
0.0
 30
0.0
  0
VERTEX
  5
A3A
  8
0
 10
187.42448329602101
 20
196.5081195442684
 30
0.0
 42
0.1094518446866012
  0
VERTEX
  5
A3B
  8
0
 10
187.49125748213601
 20
196.20673471532621
 30
0.0
 42
0.1023760341357138
  0
VERTEX
  5
A3C
  8
0
 10
187.68808719295319
 20
195.9424341193193
 30
0.0
 42
0.0937369940414451
 70
     2
 50
318.36646066342911
  0
VERTEX
  5
A3D
  8
0
 10
188.0022096068931
 20
195.75426169716221
 30
0.0
 42
0.1056789781821561
 50
48.36646066342913
  0
VERTEX
  5
A3E
  8
0
 10
188.3244832960211
 20
195.70811954426901
 30
0.0
 42
0.0884260944203031
  0
SEQEND
  5
A3F
  8
0
  0
POLYLINE
  5
A40
  8
0
 66
     1
 10
0.0
 20
0.0
 30
0.0
  0
VERTEX
  5
A41
  8
0
 10
190.07363573352069
 20
196.5081195442684
 30
0.0
 42
0.1052197689628297
  0
VERTEX
  5
A42
  8
0
 10
190.1381647928736
 20
196.2048749835059
 30
0.0
 42
0.1010284069538633
  0
VERTEX
  5
A43
  8
0
 10
190.3258049927675
 20
195.9424341193193
 30
0.0
 42
0.09561581542841
 70
     2
 50
317.10189737400532
  0
VERTEX
  5
A44
  8
0
 10
190.62738981717061
 20
195.7541692519855
 30
0.0
 42
0.1097465683605581
 50
47.10189737400529
  0
VERTEX
  5
A45
  8
0
 10
190.93459543845509
 20
195.7081195442681
 30
0.0
 42
0.0921114544648355
  0
SEQEND
  5
A46
  8
0
  0
POLYLINE
  5
A47
  8
0
 66
     1
 10
0.0
 20
0.0
 30
0.0
  0
VERTEX
  5
A48
  8
0
 10
192.98411562729311
 20
196.5081195442684
 30
0.0
 42
0.0848206980772225
  0
VERTEX
  5
A49
  8
0
 10
193.0373914990237
 20
196.19632904405569
 30
0.0
 42
0.0917396304147257
  0
VERTEX
  5
A4A
  8
0
 10
193.1832478195779
 20
195.9424341193193
 30
0.0
 42
0.1035870499853415
 70
     2
 50
310.35953972815969
  0
VERTEX
  5
A4B
  8
0
 10
193.42727118574521
 20
195.7530652900108
 30
0.0
 42
0.1337296478507434
 50
40.359539728159703
  0
VERTEX
  5
A4C
  8
0
 10
193.66399545889661
 20
195.70811954427171
 30
0.0
 42
0.1138667826143605
  0
SEQEND
  5
A4D
  8
0
  0
POLYLINE
  5
A4E
  8
0
 66
     1
 10
0.0
 20
0.0
 30
0.0
  0
VERTEX
  5
A4F
  8
0
 10
193.66399545889689
 20
195.7081195442712
 30
0.0
 42
0.0887302727897582
  0
VERTEX
  5
A50
  8
0
 10
194.01169297335841
 20
195.77031177815451
 30
0.0
 42
0.0938982457623443
  0
VERTEX
  5
A51
  8
0
 10
194.2980297795178
 20
195.94243411932109
 30
0.0
 42
0.1022687129458603
 70
     2
 50
41.739342901473329
  0
VERTEX
  5
A52
  8
0
 10
194.49407083285789
 20
196.2065757159159
 30
0.0
 42
0.1090921545782859
 50
131.73934290147329
  0
VERTEX
  5
A53
  8
0
 10
194.5606553941291
 20
196.5081195442684
 30
0.0
 42
0.1090921545783206
  0
SEQEND
  5
A54
  8
0
  0
POLYLINE
  5
A55
  8
0
 66
     1
 10
0.0
 20
0.0
 30
0.0
  0
VERTEX
  5
A56
  8
0
 10
184.65329175481889
 20
201.7081195442687
 30
0.0
 42
0.1240881951977143
  0
VERTEX
  5
A57
  8
0
 10
184.51157781030909
 20
201.67239947571571
 30
0.0
 42
0.1056724887056988
  0
VERTEX
  5
A58
  8
0
 10
184.3813507737155
 20
201.56172938708181
 30
0.0
 42
0.0870433318257046
 70
     2
 50
232.42309052666249
  0
VERTEX
  5
A59
  8
0
 10
184.29093616382079
 20
201.38898458492591
 30
0.0
 42
0.0933365643076633
 50
322.42309052666252
  0
VERTEX
  5
A5A
  8
0
 10
184.2687091311773
 20
201.20831228420249
 30
0.0
 42
0.0772890502597261
  0
SEQEND
  5
A5B
  8
0
  0
POLYLINE
  5
A5C
  8
0
 66
     1
 10
0.0
 20
0.0
 30
0.0
  0
VERTEX
  5
A5D
  8
0
 10
184.2687091311773
 20
201.20831228420269
 30
0.0
 42
0.0048999274164325
 50
54.829284635508927
  0
VERTEX
  5
A5E
  8
0
 10
184.28837629051691
 20
201.2081195442685
 30
0.0
 42
0.071116880336321
  0
VERTEX
  5
A5F
  8
0
 10
184.5695482381812
 20
201.24831498064819
 30
0.0
 42
0.0826512826045614
  0
VERTEX
  5
A60
  8
0
 10
184.79011441095901
 20
201.35456615367519
 30
0.0
 42
0.1067866567410664
 70
     2
 50
35.170715364493383
  0
VERTEX
  5
A61
  8
0
 10
184.94855009620741
 20
201.52663066691841
 30
0.0
 42
0.1336415817770586
 50
125.1707153644934
  0
VERTEX
  5
A62
  8
0
 10
184.99794114520549
 20
201.7081195442687
 30
0.0
 42
0.1336415817770424
  0
SEQEND
  5
A63
  8
0
  0
POLYLINE
  5
A64
  8
0
 66
     1
 10
0.0
 20
0.0
 30
0.0
  0
VERTEX
  5
A65
  8
0
 10
185.51402471319329
 20
201.7081195442687
 30
0.0
  0
VERTEX
  5
A66
  8
0
 10
185.47663482167951
 20
201.68737495799149
 30
0.0
 42
0.0763668561550828
  0
VERTEX
  5
A67
  8
0
 10
185.4227700516056
 20
201.5618282445954
 30
0.0
 42
0.0365742959707906
 70
     2
 50
255.51269662680301
  0
VERTEX
  5
A68
  8
0
 10
185.3919729100642
 20
201.39232998306869
 30
0.0
 42
0.0327708105471049
 50
345.51269662680289
  0
VERTEX
  5
A69
  8
0
 10
185.38475033048169
 20
201.2167012144638
 30
0.0
 42
0.0266610994128657
  0
SEQEND
  5
A6A
  8
0
  0
POLYLINE
  5
A6B
  8
0
 66
     1
 10
0.0
 20
0.0
 30
0.0
  0
VERTEX
  5
A6C
  8
0
 10
185.38475033048169
 20
201.2167012144638
 30
0.0
 42
0.0249159447910383
 50
61.775106946736827
  0
VERTEX
  5
A6D
  8
0
 10
185.55685583820861
 20
201.2081195442685
 30
0.0
 42
0.0547477796256655
  0
VERTEX
  5
A6E
  8
0
 10
185.9323381238342
 20
201.2493567883125
 30
0.0
 42
0.0685683081940358
  0
VERTEX
  5
A6F
  8
0
 10
186.21554280055241
 20
201.35456615367519
 30
0.0
 42
0.1056237021746206
 70
     2
 50
28.224893053259621
  0
VERTEX
  5
A70
  8
0
 10
186.42972369665929
 20
201.53610045701339
 30
0.0
 42
0.1658060814223384
 50
118.22489305325961
  0
VERTEX
  5
A71
  8
0
 10
186.48837987371371
 20
201.7081195442687
 30
0.0
 42
0.1658060814223559
  0
SEQEND
  5
A72
  8
0
  0
LINE
  5
A73
  8
0
 10
184.62448329602171
 20
202.7081195442685
 30
0.0
 11
184.62448329602171
 21
201.7081195442685
 31
0.0
  0
POLYLINE
  5
A74
  8
0
 66
     1
 10
0.0
 20
0.0
 30
0.0
  0
VERTEX
  5
A75
  8
0
 10
190.84051982151419
 20
201.20811954426671
 30
0.0
 42
0.0577416765611558
  0
VERTEX
  5
A76
  8
0
 10
191.1949022968513
 20
201.2491817262771
 30
0.0
 42
0.0714091702527705
  0
VERTEX
  5
A77
  8
0
 10
191.4639808351742
 20
201.3545661536738
 30
0.0
 42
0.106417741603614
 70
     2
 50
29.556782905202979
  0
VERTEX
  5
A78
  8
0
 10
191.66543790152491
 20
201.53409339470579
 30
0.0
 42
0.1590353561057443
 50
119.55678290520289
  0
VERTEX
  5
A79
  8
0
 10
191.7222268426431
 20
201.7081195442687
 30
0.0
 42
0.1590353561057441
  0
SEQEND
  5
A7A
  8
0
  0
POLYLINE
  5
A7B
  8
0
 66
     1
 10
0.0
 20
0.0
 30
0.0
  0
VERTEX
  5
A7C
  8
0
 10
187.43131147231199
 20
201.7081195442687
 30
0.0
  0
VERTEX
  5
A7D
  8
0
 10
187.42986061675859
 20
201.70672097202339
 30
0.0
 42
0.005372246470765
  0
VERTEX
  5
A7E
  8
0
 10
187.4264832225536
 20
201.5765946115927
 30
0.0
 70
     2
 50
269.12884563262088
  0
VERTEX
  5
A7F
  8
0
 10
187.42449397576161
 20
201.260760962783
 30
0.0
  0
SEQEND
  5
A80
  8
0
  0
POLYLINE
  5
A81
  8
0
 66
     1
 10
0.0
 20
0.0
 30
0.0
  0
VERTEX
  5
A82
  8
0
 10
187.42449397576161
 20
201.26076096278251
 30
0.0
 42
0.010226625477955
 70
     2
 50
333.26003525150958
  0
VERTEX
  5
A83
  8
0
 10
187.4732565170639
 20
201.24953935534791
 30
0.0
 42
0.0514796672099776
 50
63.260035251509649
  0
VERTEX
  5
A84
  8
0
 10
187.87448329602111
 20
201.2081195442685
 30
0.0
 42
0.0514796672099938
  0
VERTEX
  5
A85
  8
0
 10
188.27571007497821
 20
201.24953935534791
 30
0.0
 42
0.0653335645533661
  0
VERTEX
  5
A86
  8
0
 10
188.57622614049461
 20
201.35456615367519
 30
0.0
 42
0.1043761479063614
 70
     2
 50
26.739964748487111
  0
VERTEX
  5
A87
  8
0
 10
188.8061070211198
 20
201.53845525888431
 30
0.0
 42
0.1737416071917676
 50
116.7399647484871
  0
VERTEX
  5
A88
  8
0
 10
188.86689754397389
 20
201.7081195442687
 30
0.0
 42
0.1737416071917887
  0
SEQEND
  5
A89
  8
0
  0
POLYLINE
  5
A8A
  8
0
 66
     1
 10
0.0
 20
0.0
 30
0.0
  0
VERTEX
  5
A8B
  8
0
 10
190.07363573352069
 20
201.7081195442687
 30
0.0
 42
0.1424461909456224
  0
VERTEX
  5
A8C
  8
0
 10
190.1256640317122
 20
201.52920076814411
 30
0.0
 42
0.1071692163336866
  0
VERTEX
  5
A8D
  8
0
 10
190.2982508825099
 20
201.35456615367519
 30
0.0
 42
0.0786621310584706
 70
     2
 50
326.89609130328989
  0
VERTEX
  5
A8E
  8
0
 10
190.56121098759741
 20
201.236892057825
 30
0.0
 42
0.080734269475639
 50
56.89609130328985
  0
VERTEX
  5
A8F
  8
0
 10
190.84051982151419
 20
201.2081195442685
 30
0.0
 42
0.0660383150183375
  0
SEQEND
  5
A90
  8
0
  0
POLYLINE
  5
A91
  8
0
 66
     1
 10
0.0
 20
0.0
 30
0.0
  0
VERTEX
  5
A92
  8
0
 10
193.94211075383421
 20
201.2081195442685
 30
0.0
 42
0.0809501763471668
  0
VERTEX
  5
A93
  8
0
 10
194.1843594036348
 20
201.24759838825361
 30
0.0
 42
0.0894159048788189
  0
VERTEX
  5
A94
  8
0
 10
194.37948786345331
 20
201.35456615367519
 30
0.0
 42
0.1047434678398684
 70
     2
 50
38.950310354694132
  0
VERTEX
  5
A95
  8
0
 10
194.51584507986701
 20
201.52241004298179
 30
0.0
 42
0.1189395261856113
 50
128.9503103546941
  0
VERTEX
  5
A96
  8
0
 10
194.5606553941291
 20
201.7081195442685
 30
0.0
 42
0.1189395261856327
  0
SEQEND
  5
A97
  8
0
  0
POLYLINE
  5
A98
  8
0
 66
     1
 10
0.0
 20
0.0
 30
0.0
  0
VERTEX
  5
A99
  8
0
 10
192.98411562729311
 20
201.7081195442685
 30
0.0
 42
0.1693013436267037
  0
VERTEX
  5
A9A
  8
0
 10
193.04371901161929
 20
201.5371375113979
 30
0.0
 42
0.1051146160715128
  0
VERTEX
  5
A9B
  8
0
 10
193.26470590351329
 20
201.35456615367519
 30
0.0
 42
0.0671308023179978
 70
     2
 50
332.43889368154021
  0
VERTEX
  5
A9C
  8
0
 10
193.59113839570281
 20
201.2365280539554
 30
0.0
 42
0.0661687674236607
 50
62.438893681540193
  0
VERTEX
  5
A9D
  8
0
 10
193.94211075383421
 20
201.20811954426901
 30
0.0
 42
0.0532781065161395
  0
SEQEND
  5
A9E
  8
0
  0
LINE
  5
A9F
  8
0
 10
267.32448329602181
 20
140.61119302307799
 30
0.0
 11
267.32448329602181
 21
100.611193023078
 31
0.0
  0
LINE
  5
AA0
  8
0
 10
275.92448329602189
 20
140.61119302307799
 30
0.0
 11
275.92448329602189
 21
100.611193023078
 31
0.0
  0
LINE
  5
AA1
  8
0
 10
287.32448329602192
 20
140.61119302307799
 30
0.0
 11
287.32448329602192
 21
100.611193023078
 31
0.0
  0
LINE
  5
AA2
  8
0
 10
295.92448329602189
 20
140.61119302307799
 30
0.0
 11
295.92448329602189
 21
100.611193023078
 31
0.0
  0
LINE
  5
AA3
  8
2
 10
261.62448329602188
 20
95.611193023078044
 30
0.0
 11
261.62448329602188
 21
147.55908648596491
 31
0.0
  0
LINE
  5
AA4
  8
0
 10
199.12448329602171
 20
190.10965628367319
 30
0.0
 11
199.12448329602171
 21
91.111193023078073
 31
0.0
  0
LINE
  5
AA5
  8
1
 10
291.62448329602188
 20
149.11119302307799
 30
0.0
 11
291.62448329602188
 21
92.111193023078044
 31
0.0
  0
LINE
  5
AA6
  8
1
 10
271.62448329602188
 20
149.11119302307799
 30
0.0
 11
271.62448329602188
 21
92.111193023078044
 31
0.0
  0
LINE
  5
AA7
  8
0
 10
304.12448329602171
 20
95.611193023078059
 30
0.0
 11
304.12448329602171
 21
147.5590864859648
 31
0.0
  0
LINE
  5
AA8
  8
0
 10
259.12448329602182
 20
95.611193023078059
 30
0.0
 11
259.12448329602182
 21
147.55908648596429
 31
0.0
  0
LINE
  5
AA9
  8
2
 10
301.62448329602188
 20
147.5590864859644
 30
0.0
 11
301.62448329602188
 21
95.611193023078059
 31
0.0
  0
LINE
  5
AAA
  8
1
 10
281.62448329602188
 20
208.7111930230781
 30
0.0
 11
281.62448329602188
 21
85.611193023078059
 31
0.0
  0
ARC
  5
AAB
  8
0
 10
299.12448329602188
 20
95.611193023078059
 30
0.0
 40
5.0
 50
270.0
 51
0.0
  0
ARC
  5
AAC
  8
0
 10
198.62448329602171
 20
91.111193023078073
 30
0.0
 40
0.5
 50
269.99999999999977
 51
0.0
  0
ARC
  5
AAD
  8
2
 10
299.12448329602188
 20
95.611193023078059
 30
0.0
 40
2.5
 50
270.0
 51
0.0
  0
ARC
  5
AAE
  8
0
 10
264.12448329602188
 20
95.611193023078044
 30
0.0
 40
5.0
 50
180.0
 51
270.0
  0
ARC
  5
AAF
  8
2
 10
264.12448329602188
 20
95.611193023078044
 30
0.0
 40
2.5
 50
180.0
 51
270.0
  0
LINE
  5
AB0
  8
0
 10
299.12448329602188
 20
90.611193023078059
 30
0.0
 11
264.12448329602188
 21
90.611193023078044
 31
0.0
  0
ARC
  5
AB1
  8
0
 10
271.62448329602188
 20
100.611193023078
 30
0.0
 40
4.2999999999999989
 50
180.0
 51
0.0
  0
LINE
  5
AB2
  8
1
 10
280.12448329602188
 20
100.611193023078
 30
0.0
 11
264.12448329602188
 21
100.611193023078
 31
0.0
  0
LINE
  5
AB3
  8
2
 10
299.12448329602188
 20
93.111193023078059
 30
0.0
 11
264.12448329602188
 21
93.111193023078044
 31
0.0
  0
ARC
  5
AB4
  8
0
 10
291.62448329602188
 20
100.611193023078
 30
0.0
 40
4.2999999999999989
 50
180.0
 51
0.0
  0
LINE
  5
AB5
  8
1
 10
283.12448329602188
 20
100.611193023078
 30
0.0
 11
299.12448329602188
 21
100.611193023078
 31
0.0
  0
ARC
  5
AB6
  8
0
 10
284.12448329602159
 20
147.55908648596491
 30
0.0
 40
20.0
 50
360.0
 51
17.353397977183171
  0
LINE
  5
AB7
  8
0
 10
199.12448329602199
 20
201.2081195442685
 30
0.0
 11
199.12448329602171
 21
196.5081195442684
 31
0.0
  0
LINE
  5
AB8
  8
0
 10
195.65950273911699
 20
201.7081195442685
 30
0.0
 11
195.65950273911699
 21
196.5081195442684
 31
0.0
  0
LINE
  5
AB9
  8
0
 10
198.57524087177919
 20
201.7081195442685
 30
0.0
 11
198.57524087177919
 21
195.7081195442685
 31
0.0
  0
LINE
  5
ABA
  8
0
 10
196.9407452979911
 20
201.23124652726571
 30
0.0
 11
196.9407452979911
 21
196.5081195442684
 31
0.0
  0
LINE
  5
ABB
  8
0
 10
198.55388331646401
 20
201.21027927706379
 30
0.0
 11
198.55388331646401
 21
196.5081195442684
 31
0.0
  0
LINE
  5
ABC
  8
0
 10
197.63719833222899
 20
201.7081195442685
 30
0.0
 11
197.63719833222899
 21
196.5081195442684
 31
0.0
  0
ARC
  5
ABD
  8
0
 10
198.62448329602171
 20
190.10965628367319
 30
0.0
 40
0.5
 50
0.0
 51
89.999999999999673
  0
POLYLINE
  5
ABE
  8
0
 66
     1
 10
0.0
 20
0.0
 30
0.0
  0
VERTEX
  5
ABF
  8
0
 10
198.57524087177919
 20
195.7081195442685
 30
0.0
 42
0.1365543211489539
  0
VERTEX
  5
AC0
  8
0
 10
198.77367275628879
 20
195.7633427586774
 30
0.0
 42
0.1069784838956314
  0
VERTEX
  5
AC1
  8
0
 10
198.96361391447641
 20
195.9424341193193
 30
0.0
 42
0.0813232630570643
 70
     2
 50
55.528336501122567
  0
VERTEX
  5
AC2
  8
0
 10
199.08019728054981
 20
196.19048786158609
 30
0.0
 42
0.0693773007987266
 50
145.5283365011226
  0
VERTEX
  5
AC3
  8
0
 10
199.12448329602171
 20
196.5081195442684
 30
0.0
 42
0.0693773007987186
  0
SEQEND
  5
AC4
  8
0
  0
LINE
  5
AC5
  8
0
 10
198.62448329602171
 20
195.2081195442685
 30
0.0
 11
198.62448329602171
 21
195.71128893625709
 31
0.0
  0
ARC
  5
AC6
  8
0
 10
198.12448329602179
 20
195.2081195442685
 30
0.0
 40
0.5
 50
270.00000000000011
 51
0.0
  0
POLYLINE
  5
AC7
  8
0
 66
     1
 10
0.0
 20
0.0
 30
0.0
  0
VERTEX
  5
AC8
  8
0
 10
197.63719833222899
 20
196.5081195442684
 30
0.0
  0
VERTEX
  5
AC9
  8
0
 10
197.64208525096731
 20
195.9424341193193
 30
0.0
 42
0.0073640581750739
 70
     2
 50
271.19480075340999
  0
VERTEX
  5
ACA
  8
0
 10
197.6503491919942
 20
195.7102753817141
 30
0.0
 50
1.1948007534100069
  0
VERTEX
  5
ACB
  8
0
 10
197.65388331646389
 20
195.7081195442685
 30
0.0
  0
SEQEND
  5
ACC
  8
0
  0
POLYLINE
  5
ACD
  8
0
 66
     1
 10
0.0
 20
0.0
 30
0.0
  0
VERTEX
  5
ACE
  8
0
 10
197.65388331646389
 20
195.7081195442685
 30
0.0
 42
0.0884260944203504
  0
VERTEX
  5
ACF
  8
0
 10
198.00301521033319
 20
195.77035088155881
 30
0.0
 42
0.0937369940414554
  0
VERTEX
  5
AD0
  8
0
 10
198.2902794195318
 20
195.9424341193193
 30
0.0
 42
0.1023760341356985
 70
     2
 50
41.633539336571133
  0
VERTEX
  5
AD1
  8
0
 10
198.48710913034921
 20
196.20673471532621
 30
0.0
 42
0.1094518446865961
 50
131.63353933657109
  0
VERTEX
  5
AD2
  8
0
 10
198.55388331646401
 20
196.5081195442684
 30
0.0
 42
0.1094518446865721
  0
SEQEND
  5
AD3
  8
0
  0
LINE
  5
AD4
  8
0
 10
197.12448329602171
 20
194.7081195442685
 30
0.0
 11
197.12448329602171
 21
193.30811954426889
 31
0.0
  0
LINE
  5
AD5
  8
0
 10
197.12448329602171
 20
193.30811954426889
 30
0.0
 11
196.8244832960215
 21
193.00811954426871
 31
0.0
  0
POLYLINE
  5
AD6
  8
0
 66
     1
 10
0.0
 20
0.0
 30
0.0
  0
VERTEX
  5
AD7
  8
0
 10
195.65950273911699
 20
196.5081195442684
 30
0.0
 42
0.0487609169509351
  0
VERTEX
  5
AD8
  8
0
 10
195.6911951885902
 20
196.18391423163359
 30
0.0
 42
0.0625377209737885
  0
VERTEX
  5
AD9
  8
0
 10
195.77116609933441
 20
195.9424341193189
 30
0.0
 42
0.1030003547984891
 70
     2
 50
295.48028364886733
  0
VERTEX
  5
ADA
  8
0
 10
195.9208667826415
 20
195.74550908996059
 30
0.0
 42
0.2095873959746824
 50
25.48028364886726
  0
VERTEX
  5
ADB
  8
0
 10
196.04074529799101
 20
195.7081195442681
 30
0.0
 42
0.1808147028098188
  0
SEQEND
  5
ADC
  8
0
  0
POLYLINE
  5
ADD
  8
0
 66
     1
 10
0.0
 20
0.0
 30
0.0
  0
VERTEX
  5
ADE
  8
0
 10
196.04074529799101
 20
195.7081195442685
 30
0.0
 42
0.0884260944202643
  0
VERTEX
  5
ADF
  8
0
 10
196.38987719186031
 20
195.77035088155861
 30
0.0
 42
0.0937369940413475
  0
VERTEX
  5
AE0
  8
0
 10
196.67714140105889
 20
195.9424341193193
 30
0.0
 42
0.102376034135717
 70
     2
 50
41.633539336569498
  0
VERTEX
  5
AE1
  8
0
 10
196.8739711118761
 20
196.20673471532621
 30
0.0
 42
0.1094518446865842
 50
131.6335393365695
  0
VERTEX
  5
AE2
  8
0
 10
196.9407452979911
 20
196.5081195442684
 30
0.0
 42
0.1094518446865878
  0
SEQEND
  5
AE3
  8
0
  0
LINE
  5
AE4
  8
0
 10
198.62448329602171
 20
201.7081195442687
 30
0.0
 11
199.12448329602171
 21
201.20811954426881
 31
0.0
  0
POLYLINE
  5
AE5
  8
0
 66
     1
 10
0.0
 20
0.0
 30
0.0
  0
VERTEX
  5
AE6
  8
0
 10
198.57524087177919
 20
201.7081195442685
 30
0.0
 42
0.1071599301239294
  0
VERTEX
  5
AE7
  8
0
 10
198.6162172008278
 20
201.51912265174761
 30
0.0
 42
0.1016693890430099
  0
VERTEX
  5
AE8
  8
0
 10
198.7361102533248
 20
201.35456615367519
 30
0.0
 42
0.0947597749534213
 70
     2
 50
317.68700000215188
  0
VERTEX
  5
AE9
  8
0
 10
198.9281756281153
 20
201.2369298556336
 30
0.0
 42
0.1078501517118469
 50
47.687000002151862
  0
VERTEX
  5
AEA
  8
0
 10
199.12448329602219
 20
201.2081195442685
 30
0.0
 42
0.0903926215511379
  0
SEQEND
  5
AEB
  8
0
  0
POLYLINE
  5
AEC
  8
0
 66
     1
 10
0.0
 20
0.0
 30
0.0
  0
VERTEX
  5
AED
  8
0
 10
198.55388178099409
 20
201.2102791917595
 30
0.0
 42
0.0004354628099435
 50
153.95374389654509
  0
VERTEX
  5
AEE
  8
0
 10
198.55388331646401
 20
201.21204222357071
 30
0.0
 42
0.0499765945654672
  0
VERTEX
  5
AEF
  8
0
 10
198.5337597058595
 20
201.4128697193398
 30
0.0
 42
0.0637995350827107
  0
VERTEX
  5
AF0
  8
0
 10
198.48287163801911
 20
201.56282186102899
 30
0.0
 42
0.1036556554728255
 70
     2
 50
116.0462561034565
  0
VERTEX
  5
AF1
  8
0
 10
198.39314946720469
 20
201.67814958422619
 30
0.0
 42
0.1775966713056023
 50
206.0462561034565
  0
VERTEX
  5
AF2
  8
0
 10
198.31143428083081
 20
201.7081195442685
 30
0.0
 42
0.1775966713054659
  0
SEQEND
  5
AF3
  8
0
  0
POLYLINE
  5
AF4
  8
0
 66
     1
 10
0.0
 20
0.0
 30
0.0
  0
VERTEX
  5
AF5
  8
0
 10
197.63719833222899
 20
201.7081195442685
 30
0.0
 42
0.1530093298729036
  0
VERTEX
  5
AF6
  8
0
 10
197.69228886141019
 20
201.53231079540521
 30
0.0
 42
0.1068968575474274
  0
VERTEX
  5
AF7
  8
0
 10
197.88289939362659
 20
201.35456615367519
 30
0.0
 42
0.0739980512359581
 70
     2
 50
329.20354767736472
  0
VERTEX
  5
AF8
  8
0
 10
198.1696689229116
 20
201.23676434105431
 30
0.0
 42
0.0745527066867017
 50
59.203547677364639
  0
VERTEX
  5
AF9
  8
0
 10
198.47607422834221
 20
201.2081195442685
 30
0.0
 42
0.0138757375327165
  0
VERTEX
  5
AFA
  8
0
 10
198.55388331646401
 20
201.21027927706379
 30
0.0
 42
0.0561213892892297
  0
SEQEND
  5
AFB
  8
0
  0
POLYLINE
  5
AFC
  8
0
 66
     1
 10
0.0
 20
0.0
 30
0.0
  0
VERTEX
  5
AFD
  8
0
 10
196.94074004618031
 20
201.23124570656921
 30
0.0
 42
0.0101826199204135
  0
VERTEX
  5
AFE
  8
0
 10
196.93651797598369
 20
201.42442307418401
 30
0.0
 42
0.0148543599624011
  0
VERTEX
  5
AFF
  8
0
 10
196.92629037842519
 20
201.56637880750799
 30
0.0
 42
0.0349576211750113
 70
     2
 50
95.822973103683339
  0
VERTEX
  5
B00
  8
0
 10
196.903363076349
 20
201.69873919297399
 30
0.0
 50
185.82297310368341
  0
VERTEX
  5
B01
  8
0
 10
196.89139311556639
 20
201.7081195442685
 30
0.0
  0
SEQEND
  5
B02
  8
0
  0
POLYLINE
  5
B03
  8
0
 66
     1
 10
0.0
 20
0.0
 30
0.0
  0
VERTEX
  5
B04
  8
0
 10
195.65950273911699
 20
201.7081195442685
 30
0.0
 42
0.1725977341063799
  0
VERTEX
  5
B05
  8
0
 10
195.71998915559999
 20
201.53811578442389
 30
0.0
 42
0.1045759356935006
  0
VERTEX
  5
B06
  8
0
 10
195.94755153472701
 20
201.35456615367519
 30
0.0
 42
0.0657934531255048
 70
     2
 50
333.05080506463872
  0
VERTEX
  5
B07
  8
0
 10
196.2824978542065
 20
201.23647708965831
 30
0.0
 42
0.0646144333251881
 50
63.050805064638631
  0
VERTEX
  5
B08
  8
0
 10
196.6429628437138
 20
201.2081195442685
 30
0.0
 42
0.0387729409820128
  0
VERTEX
  5
B09
  8
0
 10
196.94074004618031
 20
201.23124570656921
 30
0.0
 42
0.0657934531255107
  0
SEQEND
  5
B0A
  8
0
  0
LINE
  5
B0B
  8
0
 10
198.62448329602171
 20
202.7081195442685
 30
0.0
 11
198.62448329602171
 21
201.7081195442685
 31
0.0
  0
LINE
  5
B0C
  8
0
 10
292.72090280806009
 20
187.10405253107481
 30
0.0
 11
303.21414810182858
 21
153.52437756033311
 31
0.0
  0
LINE
  5
B0D
  8
0
 10
270.52806378398338
 20
187.1040525310747
 30
0.0
 11
260.03481849021489
 21
153.5243775603326
 31
0.0
  0
CIRCLE
  5
B0E
  8
0
 10
281.62448329602188
 20
177.6111930230779
 30
0.0
 40
5.0999999999999988
  0
ARC
  5
B0F
  8
0
 10
271.62448329602188
 20
140.61119302307799
 30
0.0
 40
4.2999999999999989
 50
0.0
 51
180.0
  0
LINE
  5
B10
  8
2
 10
295.29291490692702
 20
164.6096562836731
 30
0.0
 11
267.95605168511679
 21
164.6096562836733
 31
0.0
  0
LINE
  5
B11
  8
1
 10
280.12448329602188
 20
140.61119302307799
 30
0.0
 11
264.12448329602188
 21
140.61119302307799
 31
0.0
  0
LINE
  5
B12
  8
2
 10
265.56984358439098
 20
162.8553176679693
 30
0.0
 11
262.42102659094093
 21
152.77871617603719
 31
0.0
  0
ARC
  5
B13
  8
0
 10
279.12448329602171
 20
147.55908648596429
 30
0.0
 40
20.0
 50
162.64660202281681
 51
180.0
  0
ARC
  5
B14
  8
2
 10
279.12448329602188
 20
147.55908648596491
 30
0.0
 40
17.5
 50
162.64660202281681
 51
179.99999999999989
  0
ARC
  5
B15
  8
2
 10
267.95605168511679
 20
162.1096562836733
 30
0.0
 40
2.5
 50
89.999999999999687
 51
162.64660202281681
  0
LINE
  5
B16
  8
2
 10
297.67912300765289
 20
162.8553176679691
 30
0.0
 11
300.827940001103
 21
152.7787161760366
 31
0.0
  0
ARC
  5
B17
  8
0
 10
291.62448329602188
 20
140.61119302307799
 30
0.0
 40
4.2999999999999989
 50
0.0
 51
180.0
  0
LINE
  5
B18
  8
1
 10
283.12448329602188
 20
140.61119302307799
 30
0.0
 11
299.12448329602188
 21
140.61119302307799
 31
0.0
  0
ARC
  5
B19
  8
2
 10
284.12448329602188
 20
147.5590864859644
 30
0.0
 40
17.5
 50
0.0
 51
17.353397977183
  0
ARC
  5
B1A
  8
2
 10
295.29291490692702
 20
162.1096562836731
 30
0.0
 40
2.5
 50
17.353397977183349
 51
89.999999999999616
  0
ARC
  5
B1B
  8
0
 10
275.30047998543517
 20
185.61272976248259
 30
0.0
 40
5.0
 50
90.000000000000185
 51
162.64660202281681
  0
LINE
  5
B1C
  8
1
 10
271.12448329602188
 20
177.6111930230779
 30
0.0
 11
292.12448329602188
 21
177.6111930230779
 31
0.0
  0
LINE
  5
B1D
  8
0
 10
289.12448329602211
 20
201.21119302307801
 30
0.0
 11
289.12448329602188
 21
196.51119302307791
 31
0.0
  0
LINE
  5
B1E
  8
0
 10
284.56065539412918
 20
201.71119302307801
 30
0.0
 11
284.56065539412918
 21
196.51119302307791
 31
0.0
  0
LINE
  5
B1F
  8
0
 10
282.98411562729319
 20
201.71119302307821
 30
0.0
 11
282.98411562729319
 21
196.51119302307791
 31
0.0
  0
LINE
  5
B20
  8
0
 10
285.65950273911722
 20
201.71119302307801
 30
0.0
 11
285.65950273911722
 21
196.51119302307791
 31
0.0
  0
LINE
  5
B21
  8
0
 10
288.57524087177939
 20
201.71119302307801
 30
0.0
 11
288.57524087177939
 21
195.7111930230779
 31
0.0
  0
LINE
  5
B22
  8
0
 10
286.94074529799121
 20
201.23432000607511
 30
0.0
 11
286.94074529799121
 21
196.51119302307791
 31
0.0
  0
LINE
  5
B23
  8
0
 10
288.55388331646412
 20
201.21335275587319
 30
0.0
 11
288.55388331646412
 21
196.51119302307791
 31
0.0
  0
LINE
  5
B24
  8
0
 10
287.63719833222922
 20
201.71119302307801
 30
0.0
 11
287.63719833222922
 21
196.51119302307791
 31
0.0
  0
LINE
  5
B25
  8
0
 10
281.72222684264301
 20
201.71119302307821
 30
0.0
 11
281.72222684264318
 21
196.51119302307791
 31
0.0
  0
LINE
  5
B26
  8
0
 10
280.0736357335208
 20
201.71119302307821
 30
0.0
 11
280.0736357335208
 21
196.51119302307791
 31
0.0
  0
LINE
  5
B27
  8
0
 10
278.86689754397401
 20
201.71119302307821
 30
0.0
 11
278.86689754397401
 21
196.51119302307791
 31
0.0
  0
LINE
  5
B28
  8
0
 10
277.42448329602109
 20
201.26383713046189
 30
0.0
 11
277.42448329602109
 21
196.51119302307791
 31
0.0
  0
LINE
  5
B29
  8
0
 10
274.2687091311775
 20
201.2113857630126
 30
0.0
 11
274.2687091311775
 21
196.51119302307791
 31
0.0
  0
LINE
  5
B2A
  8
0
 10
276.48837987371388
 20
201.71119302307821
 30
0.0
 11
276.48837987371388
 21
196.51119302307791
 31
0.0
  0
LINE
  5
B2B
  8
0
 10
275.38497113314628
 20
201.21975263299231
 30
0.0
 11
275.38497113314628
 21
196.51119302307791
 31
0.0
  0
LINE
  5
B2C
  8
0
 10
274.99794114520557
 20
201.71119302307821
 30
0.0
 11
274.99794114520557
 21
195.7111930230779
 31
0.0
  0
POLYLINE
  5
B2D
  8
0
 66
     1
 10
0.0
 20
0.0
 30
0.0
  0
VERTEX
  5
B2E
  8
0
 10
288.57524087177939
 20
195.7111930230779
 30
0.0
 42
0.1365543211489539
  0
VERTEX
  5
B2F
  8
0
 10
288.77367275628887
 20
195.76641623748679
 30
0.0
 42
0.1069784838956314
  0
VERTEX
  5
B30
  8
0
 10
288.96361391447653
 20
195.94550759812881
 30
0.0
 42
0.0813232630570643
 70
     2
 50
55.528336501122567
  0
VERTEX
  5
B31
  8
0
 10
289.0801972805499
 20
196.1935613403956
 30
0.0
 42
0.0693773007987266
 50
145.5283365011226
  0
VERTEX
  5
B32
  8
0
 10
289.12448329602188
 20
196.51119302307791
 30
0.0
 42
0.0693773007987186
  0
SEQEND
  5
B33
  8
0
  0
ARC
  5
B34
  8
0
 10
287.9484866066083
 20
185.6127297624827
 30
0.0
 40
5.0
 50
17.353397977183189
 51
90.000000000000099
  0
LINE
  5
B35
  8
0
 10
279.62448329602188
 20
192.054745767009
 30
0.0
 11
283.62448329602188
 21
192.054745767009
 31
0.0
  0
LINE
  5
B36
  8
0
 10
284.62448329602188
 20
192.7111930230779
 30
0.0
 11
278.62448329602188
 21
192.7111930230779
 31
0.0
  0
POLYLINE
  5
B37
  8
0
 66
     1
 10
0.0
 20
0.0
 30
0.0
  0
VERTEX
  5
B38
  8
0
 10
280.93459543845518
 20
195.7111930230779
 30
0.0
 42
0.0998898388746844
  0
VERTEX
  5
B39
  8
0
 10
281.23542093280747
 20
195.77189755196821
 30
0.0
 42
0.0990596936753903
  0
VERTEX
  5
B3A
  8
0
 10
281.49153494543202
 20
195.94550759812881
 30
0.0
 42
0.0979078572146715
 70
     2
 50
45.446359274593227
  0
VERTEX
  5
B3B
  8
0
 10
281.66208665980179
 20
196.2044590415347
 30
0.0
 42
0.0971086656708386
 50
135.44635927459319
  0
VERTEX
  5
B3C
  8
0
 10
281.72222684264301
 20
196.51119302307791
 30
0.0
 42
0.097108665670858
  0
SEQEND
  5
B3D
  8
0
  0
LINE
  5
B3E
  8
0
 10
275.12448329602188
 20
194.7111930230779
 30
0.0
 11
288.12448329602188
 21
194.7111930230779
 31
0.0
  0
LINE
  5
B3F
  8
0
 10
276.424483296022
 20
193.01119302307811
 30
0.0
 11
286.8244832960217
 21
193.01119302307811
 31
0.0
  0
LINE
  5
B40
  8
0
 10
287.12448329602188
 20
193.31119302307829
 30
0.0
 11
276.12448329602188
 21
193.31119302307829
 31
0.0
  0
LINE
  5
B41
  8
0
 10
287.9484866066083
 20
190.6127297624827
 30
0.0
 11
275.30047998543517
 21
190.61272976248259
 31
0.0
  0
LINE
  5
B42
  8
0
 10
278.62448329602188
 20
192.7111930230779
 30
0.0
 11
278.62448329602188
 21
193.01119302307811
 31
0.0
  0
LINE
  5
B43
  8
5
 10
279.62448329602188
 20
192.7111930230779
 30
0.0
 11
280.00348329602218
 21
192.054745767009
 31
0.0
  0
LINE
  5
B44
  8
0
 10
279.62448329602188
 20
192.7111930230779
 30
0.0
 11
279.62448329602188
 21
190.6127297624827
 31
0.0
  0
LINE
  5
B45
  8
3
 10
280.00348329602218
 20
190.6127297624827
 30
0.0
 11
280.00348329602218
 21
192.054745767009
 31
0.0
  0
POLYLINE
  5
B46
  8
0
 66
     1
 10
0.0
 20
0.0
 30
0.0
  0
VERTEX
  5
B47
  8
0
 10
274.2687091311775
 20
196.51119302307791
 30
0.0
 42
0.0905018488886264
  0
VERTEX
  5
B48
  8
0
 10
274.32519079411622
 20
196.20170185916879
 30
0.0
 42
0.0948152213876642
  0
VERTEX
  5
B49
  8
0
 10
274.48229624302797
 20
195.94550759812881
 30
0.0
 42
0.1016292794480505
 70
     2
 50
312.35042416499562
  0
VERTEX
  5
B4A
  8
0
 10
274.74191511998782
 20
195.75658166323331
 30
0.0
 42
0.1261922513727782
 50
42.350424164995573
  0
VERTEX
  5
B4B
  8
0
 10
274.99794114520557
 20
195.7111930230779
 30
0.0
 42
0.1070349181776772
  0
SEQEND
  5
B4C
  8
0
  0
ARC
  5
B4D
  8
0
 10
275.12448329602188
 20
195.21119302307801
 30
0.0
 40
0.5
 50
180.0
 51
270.0
  0
LINE
  5
B4E
  8
0
 10
274.62448329602188
 20
195.21119302307801
 30
0.0
 11
274.62448329602188
 21
195.8224177247636
 31
0.0
  0
LINE
  5
B4F
  8
0
 10
276.12448329602188
 20
194.7111930230779
 30
0.0
 11
276.12448329602188
 21
193.31119302307829
 31
0.0
  0
POLYLINE
  5
B50
  8
0
 66
     1
 10
0.0
 20
0.0
 30
0.0
  0
VERTEX
  5
B51
  8
0
 10
275.38497113314628
 20
196.51119302307791
 30
0.0
 42
0.1094518446866012
  0
VERTEX
  5
B52
  8
0
 10
275.45174531926108
 20
196.20980819413569
 30
0.0
 42
0.1023760341357042
  0
VERTEX
  5
B53
  8
0
 10
275.64857503007818
 20
195.94550759812881
 30
0.0
 42
0.0937369940414593
 70
     2
 50
318.36646066342911
  0
VERTEX
  5
B54
  8
0
 10
275.96269744401837
 20
195.75733517597169
 30
0.0
 42
0.1056789781822232
 50
48.366460663429031
  0
VERTEX
  5
B55
  8
0
 10
276.28497113314609
 20
195.7111930230779
 30
0.0
 42
0.0884260944203596
  0
SEQEND
  5
B56
  8
0
  0
POLYLINE
  5
B57
  8
0
 66
     1
 10
0.0
 20
0.0
 30
0.0
  0
VERTEX
  5
B58
  8
0
 10
276.28497113314609
 20
195.7111930230779
 30
0.0
  0
VERTEX
  5
B59
  8
0
 10
276.3436824277855
 20
195.74404380862271
 30
0.0
 42
0.0755304115360139
  0
VERTEX
  5
B5A
  8
0
 10
276.4288028329542
 20
195.94550759812881
 30
0.0
 42
0.0360289294855719
 70
     2
 50
75.734215600630904
  0
VERTEX
  5
B5B
  8
0
 10
276.4710918930449
 20
196.1819855843334
 30
0.0
 42
0.0262388941048364
 50
165.7342156006309
  0
VERTEX
  5
B5C
  8
0
 10
276.48837987371388
 20
196.51119302307791
 30
0.0
 42
0.0262388941048377
  0
SEQEND
  5
B5D
  8
0
  0
LINE
  5
B5E
  8
0
 10
276.12448329602188
 20
193.31119302307829
 30
0.0
 11
276.424483296022
 21
193.01119302307811
 31
0.0
  0
POLYLINE
  5
B5F
  8
0
 66
     1
 10
0.0
 20
0.0
 30
0.0
  0
VERTEX
  5
B60
  8
0
 10
278.3244832960213
 20
195.7111930230779
 30
0.0
 42
0.1379678187719903
  0
VERTEX
  5
B61
  8
0
 10
278.52000099843178
 20
195.7661902028054
 30
0.0
 42
0.1070479250166163
  0
VERTEX
  5
B62
  8
0
 10
278.70802808896082
 20
195.94550759812881
 30
0.0
 42
0.0806815452171471
 70
     2
 50
55.86203024552713
  0
VERTEX
  5
B63
  8
0
 10
278.82310129143718
 20
196.19326971269891
 30
0.0
 42
0.0685549288735156
 50
145.86203024552711
  0
VERTEX
  5
B64
  8
0
 10
278.86689754397401
 20
196.51119302307791
 30
0.0
 42
0.0685549288735266
  0
SEQEND
  5
B65
  8
0
  0
POLYLINE
  5
B66
  8
0
 66
     1
 10
0.0
 20
0.0
 30
0.0
  0
VERTEX
  5
B67
  8
0
 10
277.42448329602109
 20
196.51119302307791
 30
0.0
 42
0.1094518446866012
  0
VERTEX
  5
B68
  8
0
 10
277.49125748213618
 20
196.20980819413569
 30
0.0
 42
0.1023760341357138
  0
VERTEX
  5
B69
  8
0
 10
277.68808719295328
 20
195.94550759812881
 30
0.0
 42
0.0937369940414451
 70
     2
 50
318.36646066342911
  0
VERTEX
  5
B6A
  8
0
 10
278.0022096068933
 20
195.75733517597169
 30
0.0
 42
0.1056789781821561
 50
48.36646066342913
  0
VERTEX
  5
B6B
  8
0
 10
278.3244832960213
 20
195.71119302307841
 30
0.0
 42
0.0884260944203031
  0
SEQEND
  5
B6C
  8
0
  0
POLYLINE
  5
B6D
  8
0
 66
     1
 10
0.0
 20
0.0
 30
0.0
  0
VERTEX
  5
B6E
  8
0
 10
280.0736357335208
 20
196.51119302307791
 30
0.0
 42
0.1052197689628297
  0
VERTEX
  5
B6F
  8
0
 10
280.13816479287368
 20
196.20794846231539
 30
0.0
 42
0.1010284069538633
  0
VERTEX
  5
B70
  8
0
 10
280.32580499276759
 20
195.94550759812881
 30
0.0
 42
0.09561581542841
 70
     2
 50
317.10189737400532
  0
VERTEX
  5
B71
  8
0
 10
280.62738981717069
 20
195.7572427307949
 30
0.0
 42
0.1097465683605581
 50
47.10189737400529
  0
VERTEX
  5
B72
  8
0
 10
280.93459543845518
 20
195.7111930230775
 30
0.0
 42
0.0921114544648355
  0
SEQEND
  5
B73
  8
0
  0
LINE
  5
B74
  8
0
 10
284.62448329602188
 20
193.01119302307811
 30
0.0
 11
284.62448329602188
 21
192.7111930230779
 31
0.0
  0
LINE
  5
B75
  8
5
 10
283.62448329602188
 20
192.7111930230779
 30
0.0
 11
283.24548329602152
 21
192.054745767009
 31
0.0
  0
LINE
  5
B76
  8
0
 10
283.62448329602188
 20
192.7111930230779
 30
0.0
 11
283.62448329602188
 21
190.6127297624827
 31
0.0
  0
LINE
  5
B77
  8
3
 10
283.24548329602152
 20
190.6127297624827
 30
0.0
 11
283.24548329602152
 21
192.054745767009
 31
0.0
  0
POLYLINE
  5
B78
  8
0
 66
     1
 10
0.0
 20
0.0
 30
0.0
  0
VERTEX
  5
B79
  8
0
 10
282.98411562729319
 20
196.51119302307791
 30
0.0
 42
0.0848206980772225
  0
VERTEX
  5
B7A
  8
0
 10
283.03739149902378
 20
196.1994025228652
 30
0.0
 42
0.0917396304147257
  0
VERTEX
  5
B7B
  8
0
 10
283.18324781957813
 20
195.94550759812881
 30
0.0
 42
0.1035870499853415
 70
     2
 50
310.35953972815969
  0
VERTEX
  5
B7C
  8
0
 10
283.42727118574538
 20
195.75613876882031
 30
0.0
 42
0.1337296478507434
 50
40.359539728159703
  0
VERTEX
  5
B7D
  8
0
 10
283.66399545889669
 20
195.71119302308111
 30
0.0
 42
0.1138667826143605
  0
SEQEND
  5
B7E
  8
0
  0
POLYLINE
  5
B7F
  8
0
 66
     1
 10
0.0
 20
0.0
 30
0.0
  0
VERTEX
  5
B80
  8
0
 10
283.66399545889698
 20
195.71119302308071
 30
0.0
 42
0.0887302727897582
  0
VERTEX
  5
B81
  8
0
 10
284.01169297335849
 20
195.77338525696391
 30
0.0
 42
0.0938982457623443
  0
VERTEX
  5
B82
  8
0
 10
284.29802977951789
 20
195.9455075981306
 30
0.0
 42
0.1022687129458603
 70
     2
 50
41.739342901473329
  0
VERTEX
  5
B83
  8
0
 10
284.49407083285809
 20
196.2096491947253
 30
0.0
 42
0.1090921545782859
 50
131.73934290147329
  0
VERTEX
  5
B84
  8
0
 10
284.56065539412918
 20
196.51119302307791
 30
0.0
 42
0.1090921545783206
  0
SEQEND
  5
B85
  8
0
  0
LINE
  5
B86
  8
0
 10
288.62448329602188
 20
195.21119302307801
 30
0.0
 11
288.62448329602188
 21
195.7143624150666
 31
0.0
  0
ARC
  5
B87
  8
0
 10
288.12448329602188
 20
195.21119302307801
 30
0.0
 40
0.5
 50
270.00000000000011
 51
0.0
  0
POLYLINE
  5
B88
  8
0
 66
     1
 10
0.0
 20
0.0
 30
0.0
  0
VERTEX
  5
B89
  8
0
 10
287.63719833222922
 20
196.51119302307791
 30
0.0
  0
VERTEX
  5
B8A
  8
0
 10
287.6420852509674
 20
195.94550759812881
 30
0.0
 42
0.0073640581750739
 70
     2
 50
271.19480075340999
  0
VERTEX
  5
B8B
  8
0
 10
287.65034919199428
 20
195.7133488605235
 30
0.0
 50
1.1948007534100069
  0
VERTEX
  5
B8C
  8
0
 10
287.65388331646398
 20
195.7111930230779
 30
0.0
  0
SEQEND
  5
B8D
  8
0
  0
POLYLINE
  5
B8E
  8
0
 66
     1
 10
0.0
 20
0.0
 30
0.0
  0
VERTEX
  5
B8F
  8
0
 10
287.65388331646398
 20
195.7111930230779
 30
0.0
 42
0.0884260944203504
  0
VERTEX
  5
B90
  8
0
 10
288.00301521033339
 20
195.7734243603683
 30
0.0
 42
0.0937369940414554
  0
VERTEX
  5
B91
  8
0
 10
288.29027941953188
 20
195.94550759812881
 30
0.0
 42
0.1023760341356985
 70
     2
 50
41.633539336571133
  0
VERTEX
  5
B92
  8
0
 10
288.48710913034932
 20
196.20980819413569
 30
0.0
 42
0.1094518446865961
 50
131.63353933657109
  0
VERTEX
  5
B93
  8
0
 10
288.55388331646412
 20
196.51119302307791
 30
0.0
 42
0.1094518446865721
  0
SEQEND
  5
B94
  8
0
  0
LINE
  5
B95
  8
0
 10
287.12448329602188
 20
194.7111930230779
 30
0.0
 11
287.12448329602188
 21
193.31119302307829
 31
0.0
  0
LINE
  5
B96
  8
0
 10
287.12448329602188
 20
193.31119302307829
 30
0.0
 11
286.8244832960217
 21
193.01119302307811
 31
0.0
  0
POLYLINE
  5
B97
  8
0
 66
     1
 10
0.0
 20
0.0
 30
0.0
  0
VERTEX
  5
B98
  8
0
 10
285.65950273911722
 20
196.51119302307791
 30
0.0
 42
0.0487609169509351
  0
VERTEX
  5
B99
  8
0
 10
285.69119518859031
 20
196.18698771044311
 30
0.0
 42
0.0625377209737885
  0
VERTEX
  5
B9A
  8
0
 10
285.77116609933449
 20
195.9455075981283
 30
0.0
 42
0.1030003547984891
 70
     2
 50
295.48028364886733
  0
VERTEX
  5
B9B
  8
0
 10
285.92086678264172
 20
195.7485825687701
 30
0.0
 42
0.2095873959746824
 50
25.48028364886726
  0
VERTEX
  5
B9C
  8
0
 10
286.04074529799112
 20
195.7111930230775
 30
0.0
 42
0.1808147028098188
  0
SEQEND
  5
B9D
  8
0
  0
POLYLINE
  5
B9E
  8
0
 66
     1
 10
0.0
 20
0.0
 30
0.0
  0
VERTEX
  5
B9F
  8
0
 10
286.04074529799112
 20
195.7111930230779
 30
0.0
 42
0.0884260944202643
  0
VERTEX
  5
BA0
  8
0
 10
286.38987719186042
 20
195.77342436036801
 30
0.0
 42
0.0937369940413475
  0
VERTEX
  5
BA1
  8
0
 10
286.67714140105898
 20
195.94550759812881
 30
0.0
 42
0.102376034135717
 70
     2
 50
41.633539336569498
  0
VERTEX
  5
BA2
  8
0
 10
286.87397111187619
 20
196.20980819413569
 30
0.0
 42
0.1094518446865842
 50
131.6335393365695
  0
VERTEX
  5
BA3
  8
0
 10
286.94074529799121
 20
196.51119302307791
 30
0.0
 42
0.1094518446865878
  0
SEQEND
  5
BA4
  8
0
  0
LINE
  5
BA5
  8
0
 10
288.62448329602188
 20
201.71119302307821
 30
0.0
 11
289.12448329602188
 21
201.21119302307821
 31
0.0
  0
POLYLINE
  5
BA6
  8
0
 66
     1
 10
0.0
 20
0.0
 30
0.0
  0
VERTEX
  5
BA7
  8
0
 10
288.57524087177939
 20
201.71119302307801
 30
0.0
 42
0.1071599301239294
  0
VERTEX
  5
BA8
  8
0
 10
288.61621720082798
 20
201.52219613055709
 30
0.0
 42
0.1016693890430099
  0
VERTEX
  5
BA9
  8
0
 10
288.73611025332502
 20
201.35763963248459
 30
0.0
 42
0.0947597749534213
 70
     2
 50
317.68700000215188
  0
VERTEX
  5
BAA
  8
0
 10
288.92817562811541
 20
201.24000333444309
 30
0.0
 42
0.1078501517118469
 50
47.687000002151862
  0
VERTEX
  5
BAB
  8
0
 10
289.12448329602228
 20
201.21119302307801
 30
0.0
 42
0.0903926215511379
  0
SEQEND
  5
BAC
  8
0
  0
ARC
  5
BAD
  8
0
 10
281.62448329602188
 20
178.71119302307801
 30
0.0
 40
25.0
 50
73.739795291688026
 51
106.2602047083119
  0
LINE
  5
BAE
  8
0
 10
274.62448329602188
 20
202.71119302307801
 30
0.0
 11
288.62448329602188
 21
202.71119302307801
 31
0.0
  0
POLYLINE
  5
BAF
  8
0
 66
     1
 10
0.0
 20
0.0
 30
0.0
  0
VERTEX
  5
BB0
  8
0
 10
280.84051982151431
 20
201.21119302307619
 30
0.0
 42
0.0577416765611558
  0
VERTEX
  5
BB1
  8
0
 10
281.19490229685152
 20
201.2522552050865
 30
0.0
 42
0.0714091702527705
  0
VERTEX
  5
BB2
  8
0
 10
281.46398083517443
 20
201.35763963248331
 30
0.0
 42
0.106417741603614
 70
     2
 50
29.556782905202979
  0
VERTEX
  5
BB3
  8
0
 10
281.66543790152508
 20
201.5371668735153
 30
0.0
 42
0.1590353561057443
 50
119.55678290520289
  0
VERTEX
  5
BB4
  8
0
 10
281.72222684264318
 20
201.71119302307821
 30
0.0
 42
0.1590353561057441
  0
SEQEND
  5
BB5
  8
0
  0
LINE
  5
BB6
  8
0
 10
274.62448329602188
 20
201.71119302307821
 30
0.0
 11
288.62448329602211
 21
201.71119302307801
 31
0.0
  0
POLYLINE
  5
BB7
  8
0
 66
     1
 10
0.0
 20
0.0
 30
0.0
  0
VERTEX
  5
BB8
  8
0
 10
274.65329175481901
 20
201.71119302307821
 30
0.0
 42
0.1240881951977143
  0
VERTEX
  5
BB9
  8
0
 10
274.51157781030918
 20
201.67547295452519
 30
0.0
 42
0.1056724887056988
  0
VERTEX
  5
BBA
  8
0
 10
274.38135077371561
 20
201.56480286589129
 30
0.0
 42
0.0870433318257046
 70
     2
 50
232.42309052666249
  0
VERTEX
  5
BBB
  8
0
 10
274.29093616382102
 20
201.39205806373539
 30
0.0
 42
0.0933365643076633
 50
322.42309052666252
  0
VERTEX
  5
BBC
  8
0
 10
274.2687091311775
 20
201.21138576301189
 30
0.0
 42
0.0772890502597261
  0
SEQEND
  5
BBD
  8
0
  0
POLYLINE
  5
BBE
  8
0
 66
     1
 10
0.0
 20
0.0
 30
0.0
  0
VERTEX
  5
BBF
  8
0
 10
274.2687091311775
 20
201.21138576301209
 30
0.0
 42
0.0048999274164325
 50
54.829284635508927
  0
VERTEX
  5
BC0
  8
0
 10
274.28837629051708
 20
201.21119302307801
 30
0.0
 42
0.071116880336321
  0
VERTEX
  5
BC1
  8
0
 10
274.56954823818131
 20
201.2513884594577
 30
0.0
 42
0.0826512826045614
  0
VERTEX
  5
BC2
  8
0
 10
274.79011441095912
 20
201.35763963248459
 30
0.0
 42
0.1067866567410664
 70
     2
 50
35.170715364493383
  0
VERTEX
  5
BC3
  8
0
 10
274.9485500962075
 20
201.52970414572781
 30
0.0
 42
0.1336415817770586
 50
125.1707153644934
  0
VERTEX
  5
BC4
  8
0
 10
274.99794114520557
 20
201.71119302307821
 30
0.0
 42
0.1336415817770424
  0
SEQEND
  5
BC5
  8
0
  0
POLYLINE
  5
BC6
  8
0
 66
     1
 10
0.0
 20
0.0
 30
0.0
  0
VERTEX
  5
BC7
  8
0
 10
275.51402471319352
 20
201.71119302307821
 30
0.0
  0
VERTEX
  5
BC8
  8
0
 10
275.47663482167962
 20
201.69044843680089
 30
0.0
 42
0.0763668561550828
  0
VERTEX
  5
BC9
  8
0
 10
275.42277005160571
 20
201.56490172340489
 30
0.0
 42
0.0365742959707906
 70
     2
 50
255.51269662680301
  0
VERTEX
  5
BCA
  8
0
 10
275.3919729100644
 20
201.3954034618782
 30
0.0
 42
0.0327708105471049
 50
345.51269662680289
  0
VERTEX
  5
BCB
  8
0
 10
275.38475033048178
 20
201.21977469327331
 30
0.0
 42
0.0266610994128657
  0
SEQEND
  5
BCC
  8
0
  0
POLYLINE
  5
BCD
  8
0
 66
     1
 10
0.0
 20
0.0
 30
0.0
  0
VERTEX
  5
BCE
  8
0
 10
275.38475033048178
 20
201.21977469327331
 30
0.0
 42
0.0249159447910383
 50
61.775106946736827
  0
VERTEX
  5
BCF
  8
0
 10
275.55685583820872
 20
201.21119302307801
 30
0.0
 42
0.0547477796256655
  0
VERTEX
  5
BD0
  8
0
 10
275.93233812383431
 20
201.25243026712189
 30
0.0
 42
0.0685683081940358
  0
VERTEX
  5
BD1
  8
0
 10
276.21554280055261
 20
201.35763963248459
 30
0.0
 42
0.1056237021746206
 70
     2
 50
28.224893053259621
  0
VERTEX
  5
BD2
  8
0
 10
276.42972369665938
 20
201.53917393582279
 30
0.0
 42
0.1658060814223384
 50
118.22489305325961
  0
VERTEX
  5
BD3
  8
0
 10
276.48837987371388
 20
201.71119302307821
 30
0.0
 42
0.1658060814223559
  0
SEQEND
  5
BD4
  8
0
  0
LINE
  5
BD5
  8
0
 10
274.62448329602188
 20
202.71119302307801
 30
0.0
 11
274.62448329602188
 21
201.71119302307801
 31
0.0
  0
POLYLINE
  5
BD6
  8
0
 66
     1
 10
0.0
 20
0.0
 30
0.0
  0
VERTEX
  5
BD7
  8
0
 10
277.43131147231219
 20
201.71119302307821
 30
0.0
  0
VERTEX
  5
BD8
  8
0
 10
277.42986061675867
 20
201.7097944508329
 30
0.0
 42
0.005372246470765
  0
VERTEX
  5
BD9
  8
0
 10
277.42648322255371
 20
201.57966809040221
 30
0.0
 70
     2
 50
269.12884563262088
  0
VERTEX
  5
BDA
  8
0
 10
277.42449397576178
 20
201.26383444159239
 30
0.0
  0
SEQEND
  5
BDB
  8
0
  0
POLYLINE
  5
BDC
  8
0
 66
     1
 10
0.0
 20
0.0
 30
0.0
  0
VERTEX
  5
BDD
  8
0
 10
277.42449397576178
 20
201.263834441592
 30
0.0
 42
0.010226625477955
 70
     2
 50
333.26003525150958
  0
VERTEX
  5
BDE
  8
0
 10
277.4732565170641
 20
201.2526128341573
 30
0.0
 42
0.0514796672099776
 50
63.260035251509649
  0
VERTEX
  5
BDF
  8
0
 10
277.8744832960212
 20
201.21119302307801
 30
0.0
 42
0.0514796672099938
  0
VERTEX
  5
BE0
  8
0
 10
278.27571007497829
 20
201.2526128341573
 30
0.0
 42
0.0653335645533661
  0
VERTEX
  5
BE1
  8
0
 10
278.57622614049473
 20
201.35763963248459
 30
0.0
 42
0.1043761479063614
 70
     2
 50
26.739964748487111
  0
VERTEX
  5
BE2
  8
0
 10
278.80610702111989
 20
201.5415287376938
 30
0.0
 42
0.1737416071917676
 50
116.7399647484871
  0
VERTEX
  5
BE3
  8
0
 10
278.86689754397401
 20
201.71119302307821
 30
0.0
 42
0.1737416071917887
  0
SEQEND
  5
BE4
  8
0
  0
POLYLINE
  5
BE5
  8
0
 66
     1
 10
0.0
 20
0.0
 30
0.0
  0
VERTEX
  5
BE6
  8
0
 10
280.0736357335208
 20
201.71119302307821
 30
0.0
 42
0.1424461909456224
  0
VERTEX
  5
BE7
  8
0
 10
280.1256640317124
 20
201.53227424695351
 30
0.0
 42
0.1071692163336866
  0
VERTEX
  5
BE8
  8
0
 10
280.29825088250999
 20
201.35763963248459
 30
0.0
 42
0.0786621310584706
 70
     2
 50
326.89609130328989
  0
VERTEX
  5
BE9
  8
0
 10
280.56121098759758
 20
201.23996553663449
 30
0.0
 42
0.080734269475639
 50
56.89609130328985
  0
VERTEX
  5
BEA
  8
0
 10
280.84051982151431
 20
201.21119302307801
 30
0.0
 42
0.0660383150183375
  0
SEQEND
  5
BEB
  8
0
  0
POLYLINE
  5
BEC
  8
0
 66
     1
 10
0.0
 20
0.0
 30
0.0
  0
VERTEX
  5
BED
  8
0
 10
283.94211075383441
 20
201.21119302307801
 30
0.0
 42
0.0809501763471668
  0
VERTEX
  5
BEE
  8
0
 10
284.18435940363491
 20
201.25067186706309
 30
0.0
 42
0.0894159048788189
  0
VERTEX
  5
BEF
  8
0
 10
284.37948786345339
 20
201.35763963248459
 30
0.0
 42
0.1047434678398684
 70
     2
 50
38.950310354694132
  0
VERTEX
  5
BF0
  8
0
 10
284.51584507986712
 20
201.52548352179119
 30
0.0
 42
0.1189395261856113
 50
128.9503103546941
  0
VERTEX
  5
BF1
  8
0
 10
284.56065539412918
 20
201.71119302307801
 30
0.0
 42
0.1189395261856327
  0
SEQEND
  5
BF2
  8
0
  0
POLYLINE
  5
BF3
  8
0
 66
     1
 10
0.0
 20
0.0
 30
0.0
  0
VERTEX
  5
BF4
  8
0
 10
282.98411562729319
 20
201.71119302307801
 30
0.0
 42
0.1693013436267037
  0
VERTEX
  5
BF5
  8
0
 10
283.04371901161937
 20
201.54021099020741
 30
0.0
 42
0.1051146160715128
  0
VERTEX
  5
BF6
  8
0
 10
283.2647059035134
 20
201.35763963248459
 30
0.0
 42
0.0671308023179978
 70
     2
 50
332.43889368154021
  0
VERTEX
  5
BF7
  8
0
 10
283.5911383957029
 20
201.23960153276479
 30
0.0
 42
0.0661687674236607
 50
62.438893681540193
  0
VERTEX
  5
BF8
  8
0
 10
283.94211075383441
 20
201.21119302307841
 30
0.0
 42
0.0532781065161395
  0
SEQEND
  5
BF9
  8
0
  0
POLYLINE
  5
BFA
  8
0
 66
     1
 10
0.0
 20
0.0
 30
0.0
  0
VERTEX
  5
BFB
  8
0
 10
288.55388178099417
 20
201.21335267056901
 30
0.0
 42
0.0004354628099435
 50
153.95374389654509
  0
VERTEX
  5
BFC
  8
0
 10
288.55388331646412
 20
201.2151157023801
 30
0.0
 42
0.0499765945654672
  0
VERTEX
  5
BFD
  8
0
 10
288.53375970585961
 20
201.41594319814919
 30
0.0
 42
0.0637995350827107
  0
VERTEX
  5
BFE
  8
0
 10
288.48287163801928
 20
201.56589533983851
 30
0.0
 42
0.1036556554728255
 70
     2
 50
116.0462561034565
  0
VERTEX
  5
BFF
  8
0
 10
288.39314946720492
 20
201.6812230630357
 30
0.0
 42
0.1775966713056023
 50
206.0462561034565
  0
VERTEX
  5
C00
  8
0
 10
288.31143428083101
 20
201.71119302307801
 30
0.0
 42
0.1775966713054659
  0
SEQEND
  5
C01
  8
0
  0
POLYLINE
  5
C02
  8
0
 66
     1
 10
0.0
 20
0.0
 30
0.0
  0
VERTEX
  5
C03
  8
0
 10
287.63719833222922
 20
201.71119302307801
 30
0.0
 42
0.1530093298729036
  0
VERTEX
  5
C04
  8
0
 10
287.6922888614103
 20
201.53538427421461
 30
0.0
 42
0.1068968575474274
  0
VERTEX
  5
C05
  8
0
 10
287.8828993936267
 20
201.35763963248459
 30
0.0
 42
0.0739980512359581
 70
     2
 50
329.20354767736472
  0
VERTEX
  5
C06
  8
0
 10
288.1696689229118
 20
201.23983781986379
 30
0.0
 42
0.0745527066867017
 50
59.203547677364639
  0
VERTEX
  5
C07
  8
0
 10
288.47607422834238
 20
201.21119302307801
 30
0.0
 42
0.0138757375327165
  0
VERTEX
  5
C08
  8
0
 10
288.55388331646412
 20
201.21335275587319
 30
0.0
 42
0.0561213892892297
  0
SEQEND
  5
C09
  8
0
  0
POLYLINE
  5
C0A
  8
0
 66
     1
 10
0.0
 20
0.0
 30
0.0
  0
VERTEX
  5
C0B
  8
0
 10
286.94074004618039
 20
201.23431918537869
 30
0.0
 42
0.0101826199204135
  0
VERTEX
  5
C0C
  8
0
 10
286.9365179759838
 20
201.4274965529934
 30
0.0
 42
0.0148543599624011
  0
VERTEX
  5
C0D
  8
0
 10
286.92629037842528
 20
201.56945228631739
 30
0.0
 42
0.0349576211750113
 70
     2
 50
95.822973103683339
  0
VERTEX
  5
C0E
  8
0
 10
286.90336307634919
 20
201.70181267178339
 30
0.0
 50
185.82297310368341
  0
VERTEX
  5
C0F
  8
0
 10
286.89139311556659
 20
201.71119302307801
 30
0.0
  0
SEQEND
  5
C10
  8
0
  0
POLYLINE
  5
C11
  8
0
 66
     1
 10
0.0
 20
0.0
 30
0.0
  0
VERTEX
  5
C12
  8
0
 10
285.65950273911722
 20
201.71119302307801
 30
0.0
 42
0.1725977341063799
  0
VERTEX
  5
C13
  8
0
 10
285.7199891556001
 20
201.54118926323341
 30
0.0
 42
0.1045759356935006
  0
VERTEX
  5
C14
  8
0
 10
285.9475515347271
 20
201.35763963248459
 30
0.0
 42
0.0657934531255048
 70
     2
 50
333.05080506463872
  0
VERTEX
  5
C15
  8
0
 10
286.28249785420661
 20
201.23955056846779
 30
0.0
 42
0.0646144333251881
 50
63.050805064638631
  0
VERTEX
  5
C16
  8
0
 10
286.64296284371397
 20
201.21119302307801
 30
0.0
 42
0.0387729409820128
  0
VERTEX
  5
C17
  8
0
 10
286.94074004618039
 20
201.23431918537869
 30
0.0
 42
0.0657934531255107
  0
SEQEND
  5
C18
  8
0
  0
LINE
  5
C19
  8
0
 10
288.62448329602188
 20
202.71119302307801
 30
0.0
 11
288.62448329602188
 21
201.71119302307801
 31
0.0
  0
LINE
  5
C30
  8
0
 10
79.124483296021879
 20
53.111193023078151
 30
0.0
 11
79.124483296021879
 21
38.111193023078158
 31
0.0
  0
LINE
  5
C31
  8
0
 10
124.12448329602189
 20
53.111193023078137
 30
0.0
 11
124.12448329602201
 21
38.111193023078137
 31
0.0
  0
LINE
  5
C32
  8
0
 10
79.124483296021879
 20
38.111193023078158
 30
0.0
 11
124.12448329602201
 21
38.111193023078151
 31
0.0
  0
LINE
  5
C33
  8
0
 10
79.124483296021879
 20
53.111193023078151
 30
0.0
 11
124.12448329602201
 21
53.111193023078151
 31
0.0
  0
LINE
  5
C34
  8
0
 10
79.124483296021864
 20
243.7111930230781
 30
0.0
 11
79.124483296021879
 21
258.71119302307812
 31
0.0
  0
LINE
  5
C35
  8
0
 10
124.12448329602169
 20
243.7111930230781
 30
0.0
 11
124.12448329602169
 21
258.71119302307812
 31
0.0
  0
LINE
  5
C36
  8
0
 10
124.12448329602169
 20
258.71119302307812
 30
0.0
 11
79.124483296021879
 21
258.71119302307812
 31
0.0
  0
LINE
  5
C37
  8
0
 10
124.12448329602169
 20
243.7111930230781
 30
0.0
 11
79.124483296021879
 21
243.7111930230781
 31
0.0
  0
LINE
  5
C38
  8
0
 10
112.7209028080602
 20
243.7111930230781
 30
0.0
 11
112.7209028080602
 21
258.71119302307812
 31
0.0
  0
LINE
  5
C39
  8
0
 10
90.528063783983555
 20
243.7111930230781
 30
0.0
 11
90.528063783983555
 21
258.71119302307812
 31
0.0
  0
CIRCLE
  5
C3D
  8
0
 10
101.62448329602201
 20
251.2111930230781
 30
0.0
 40
6.9999999999999707
  0
CIRCLE
  5
C3E
  8
0
 10
101.62448329602201
 20
251.2111930230781
 30
0.0
 40
7.5097217770179583
  0
LINE
  5
C43
  8
1
 10
101.62448329602201
 20
208.7111930230781
 30
0.0
 11
101.62448329602201
 21
84.053196375331055
 31
0.0
  0
LINE
  5
C45
  8
1
 10
74.124483296021879
 20
251.2111930230781
 30
0.0
 11
129.12448329602179
 21
251.2111930230781
 31
0.0
  0
LINE
  5
C48
  8
1
 10
74.124483296022106
 20
45.611193023078073
 30
0.0
 11
129.12448329602199
 21
45.61119302307813
 31
0.0
  0
LINE
  5
C49
  8
1
 10
101.62448329602221
 20
58.111193023078101
 30
0.0
 11
101.62448329602221
 21
33.111193023078101
 31
0.0
  0
TEXT
  5
D71
  8
0
 62
     3
 10
0.0
 20
0.0
 30
0.0
 40
10.0
  1
KG-BR2
  7
STANDARD1
  0
ENDSEC
  0
EOF
