  0
SECTION
  2
HEADER
  9
$ACADVER
  1
AC1009
  9
$INSBASE
 10
0.0
 20
0.0
 30
0.0
  9
$EXTMIN
 10
0.0
 20
-2.960436562073669
 30
0.0
  9
$EXTMAX
 10
303.71784699915469
 20
182.06391792514381
 30
0.0
  9
$LIMMIN
 10
0.0
 20
0.0
  9
$LIMMAX
 10
187.5
 20
135.0
  9
$ORTHOMODE
 70
     0
  9
$REGENMODE
 70
     1
  9
$FILLMODE
 70
     1
  9
$QTEXTMODE
 70
     0
  9
$MIRRTEXT
 70
     0
  9
$DRAGMODE
 70
     2
  9
$LTSCALE
 40
5.0
  9
$OSMODE
 70
  3071
  9
$ATTMODE
 70
     1
  9
$TEXTSIZE
 40
5.0
  9
$TRACEWID
 40
0.05
  9
$TEXTSTYLE
  7
STANDARD
  9
$CLAYER
  8
0
  9
$CELTYPE
  6
BYLAYER
  9
$CECOLOR
 62
   256
  9
$DIMSCALE
 40
0.5
  9
$DIMASZ
 40
3.0
  9
$DIMEXO
 40
2.0
  9
$DIMDLI
 40
0.38
  9
$DIMRND
 40
0.0
  9
$DIMDLE
 40
0.0
  9
$DIMEXE
 40
2.0
  9
$DIMTP
 40
0.0
  9
$DIMTM
 40
0.0
  9
$DIMTXT
 40
3.2000000000000002
  9
$DIMCEN
 40
0.0
  9
$DIMTSZ
 40
0.0
  9
$DIMTOL
 70
     0
  9
$DIMLIM
 70
     0
  9
$DIMTIH
 70
     0
  9
$DIMTOH
 70
     0
  9
$DIMSE1
 70
     0
  9
$DIMSE2
 70
     0
  9
$DIMTAD
 70
     1
  9
$DIMZIN
 70
     0
  9
$DIMBLK
  1

  9
$DIMASO
 70
     0
  9
$DIMSHO
 70
     0
  9
$DIMPOST
  1

  9
$DIMAPOST
  1

  9
$DIMALT
 70
     0
  9
$DIMALTD
 70
     2
  9
$DIMALTF
 40
25.399999999999999
  9
$DIMLFAC
 40
1.0
  9
$DIMTOFL
 70
     1
  9
$DIMTVP
 40
1.6000000000000001
  9
$DIMTIX
 70
     1
  9
$DIMSOXD
 70
     0
  9
$DIMSAH
 70
     0
  9
$DIMBLK1
  1

  9
$DIMBLK2
  1

  9
$DIMSTYLE
  2
STANDARD
  9
$DIMCLRD
 70
     0
  9
$DIMCLRE
 70
     0
  9
$DIMCLRT
 70
     0
  9
$DIMTFAC
 40
1.0
  9
$DIMGAP
 40
0.09
  9
$LUNITS
 70
     2
  9
$LUPREC
 70
     4
  9
$SKETCHINC
 40
0.1
  9
$FILLETRAD
 40
0.0
  9
$AUNITS
 70
     0
  9
$AUPREC
 70
     4
  9
$MENU
  1
E:\r13\win\SUPPORT\ACAD
  9
$ELEVATION
 40
0.0
  9
$PELEVATION
 40
0.0
  9
$THICKNESS
 40
0.0
  9
$LIMCHECK
 70
     0
  9
$BLIPMODE
 70
     0
  9
$CHAMFERA
 40
0.0
  9
$CHAMFERB
 40
0.0
  9
$SKPOLY
 70
     0
  9
$TDCREATE
 40
2449840.6523611108
  9
$TDUPDATE
 40
2456597.4742311579
  9
$TDINDWG
 40
0.2161380093
  9
$TDUSRTIMER
 40
0.2161380093
  9
$USRTIMER
 70
     1
  9
$ANGBASE
 50
0.0
  9
$ANGDIR
 70
     0
  9
$PDMODE
 70
     0
  9
$PDSIZE
 40
0.0
  9
$PLINEWID
 40
0.0
  9
$COORDS
 70
     1
  9
$SPLFRAME
 70
     0
  9
$SPLINETYPE
 70
     6
  9
$SPLINESEGS
 70
     8
  9
$ATTDIA
 70
     0
  9
$ATTREQ
 70
     1
  9
$HANDLING
 70
     1
  9
$HANDSEED
  5
85E
  9
$SURFTAB1
 70
     6
  9
$SURFTAB2
 70
     6
  9
$SURFTYPE
 70
     6
  9
$SURFU
 70
     6
  9
$SURFV
 70
     6
  9
$UCSNAME
  2

  9
$UCSORG
 10
0.0
 20
0.0
 30
0.0
  9
$UCSXDIR
 10
1.0
 20
0.0
 30
0.0
  9
$UCSYDIR
 10
0.0
 20
1.0
 30
0.0
  9
$PUCSNAME
  2

  9
$PUCSORG
 10
0.0
 20
0.0
 30
0.0
  9
$PUCSXDIR
 10
1.0
 20
0.0
 30
0.0
  9
$PUCSYDIR
 10
0.0
 20
1.0
 30
0.0
  9
$USERI1
 70
     0
  9
$USERI2
 70
     1
  9
$USERI3
 70
     0
  9
$USERI4
 70
     0
  9
$USERI5
 70
     0
  9
$USERR1
 40
0.0
  9
$USERR2
 40
0.0
  9
$USERR3
 40
0.0
  9
$USERR4
 40
0.0
  9
$USERR5
 40
0.0
  9
$WORLDVIEW
 70
     1
  9
$SHADEDGE
 70
     3
  9
$SHADEDIF
 70
    70
  9
$TILEMODE
 70
     1
  9
$MAXACTVP
 70
    16
  9
$PLIMCHECK
 70
     0
  9
$PEXTMIN
 10
1.0000000000000000E+020
 20
1.0000000000000000E+020
 30
1.0000000000000000E+020
  9
$PEXTMAX
 10
-1.0000000000000000E+020
 20
-1.0000000000000000E+020
 30
-1.0000000000000000E+020
  9
$PLIMMIN
 10
0.0
 20
0.0
  9
$PLIMMAX
 10
12.0
 20
9.0
  9
$UNITMODE
 70
     0
  9
$VISRETAIN
 70
     0
  9
$PLINEGEN
 70
     0
  9
$PSLTSCALE
 70
     0
  0
ENDSEC
  0
SECTION
  2
TABLES
  0
TABLE
  2
VPORT
 70
     1
  0
VPORT
  2
*ACTIVE
 70
     0
 10
0.0
 20
0.0
 11
1.0
 21
1.0
 12
151.85892420672559
 22
109.4465673493039
 13
0.0
 23
0.0
 14
5.0
 24
5.0
 15
5.0
 25
5.0
 16
0.0
 26
0.0
 36
1.0
 17
0.0
 27
0.0
 37
0.0
 40
226.9483696441948
 41
1.9089595375722539
 42
50.0
 43
0.0
 44
0.0
 50
0.0
 51
0.0
 71
     0
 72
   500
 73
     1
 74
     0
 75
     0
 76
     0
 77
     0
 78
     2
  0
ENDTAB
  0
TABLE
  2
LTYPE
 70
     3
  0
LTYPE
  2
CONTINUOUS
 70
     0
  3
Solid Line
 72
    65
 73
     0
 40
0.0
  0
LTYPE
  2
CENTER
 70
     0
  3
____ _ ____ _ ____ _ ____ _ ____ _ ____ _ ____
 72
    65
 73
     4
 40
2.0
 49
1.25
 49
-0.25
 49
0.25
 49
-0.25
  0
LTYPE
  2
PHANTOM2
 70
     0
  3
___ _ _ ___ _ _ ___ _ _ ___ _ _
 72
    65
 73
     6
 40
1.25
 49
0.625
 49
-0.125
 49
0.125
 49
-0.125
 49
0.125
 49
-0.125
  0
ENDTAB
  0
TABLE
  2
LAYER
 70
     3
  0
LAYER
  2
0
 70
     0
 62
     7
  6
CONTINUOUS
  0
LAYER
  2
1
 70
     0
 62
     1
  6
CENTER
  0
LAYER
  2
3
 70
     0
 62
     3
  6
CONTINUOUS
  0
ENDTAB
  0
TABLE
  2
STYLE
 70
     2
  0
STYLE
  2
STANDARD
 70
     0
 40
0.0
 41
1.0
 50
0.0
 71
     0
 42
5.0
  3
TXT
  4
BIGFONT
  0
STYLE
  2
STANDARD1
 70
     0
 40
0.0
 41
1.0
 50
0.0
 71
     0
 42
3.0
  3
txt
  4

  0
ENDTAB
  0
TABLE
  2
VIEW
 70
     0
  0
ENDTAB
  0
TABLE
  2
UCS
 70
     0
  0
ENDTAB
  0
TABLE
  2
APPID
 70
     3
  0
APPID
  2
ACAD
 70
     0
  0
APPID
  2
ACAD_MLEADERVER
 70
     0
  0
APPID
  2
ACAD_NAV_VCDISPLAY
 70
     0
  0
ENDTAB
  0
TABLE
  2
DIMSTYLE
 70
     1
  0
DIMSTYLE
  2
STANDARD
 70
     0
  3

  4

  5

  6

  7

 40
1.0
 41
0.18
 42
0.0625
 43
0.38
 44
0.18
 45
0.0
 46
0.0
 47
0.0
 48
0.0
140
0.18
141
0.09
142
0.0
143
25.399999999999999
144
1.0
145
0.0
146
1.0
147
0.09
 71
     0
 72
     0
 73
     1
 74
     1
 75
     0
 76
     0
 77
     0
 78
     0
170
     0
171
     2
172
     0
173
     0
174
     0
175
     0
176
     0
177
     0
178
     0
  0
ENDTAB
  0
ENDSEC
  0
SECTION
  2
BLOCKS
  0
BLOCK
  8
0
  2
$MODEL_SPACE
 70
     0
 10
0.0
 20
0.0
 30
0.0
  3
$MODEL_SPACE
  1

  0
ENDBLK
  5
716
  8
0
  0
BLOCK
 67
     1
  8
0
  2
$PAPER_SPACE
 70
     0
 10
0.0
 20
0.0
 30
0.0
  3
$PAPER_SPACE
  1

  0
ENDBLK
  5
714
 67
     1
  8
0
  0
BLOCK
  8
0
  2
STDGX5
 70
     0
 10
0.0
 20
0.0
 30
0.0
  3
STDGX5
  1

  0
ENDBLK
  5
114
  8
0
  0
ENDSEC
  0
SECTION
  2
ENTITIES
  0
INSERT
  5
1D2
  8
0
  2
STDGX5
 10
0.0
 20
0.0
 30
0.0
 41
0.25
 42
0.25
 43
0.25
  0
INSERT
  5
1D3
  8
0
  2
STDGX5
 10
0.0
 20
0.0
 30
0.0
 41
0.25
 42
0.25
 43
0.25
  0
INSERT
  5
1D4
  8
0
  2
STDGX5
 10
68.75
 20
0.0
 30
0.0
 41
0.25
 42
0.25
 43
0.25
  0
INSERT
  5
1D5
  8
0
  2
STDGX5
 10
68.75
 20
0.0
 30
0.0
 41
0.25
 42
0.25
 43
0.25
  0
INSERT
  5
35E
  8
0
  2
STDGX5
 10
0.0
 20
0.0
 30
0.0
 41
0.5
 42
0.5
 43
0.5
  0
INSERT
  5
35F
  8
0
  2
STDGX5
 10
0.0
 20
0.0
 30
0.0
 41
0.5
 42
0.5
 43
0.5
  0
INSERT
  5
360
  8
0
  2
STDGX5
 10
137.5
 20
0.0
 30
0.0
 41
0.5
 42
0.5
 43
0.5
  0
INSERT
  5
361
  8
0
  2
STDGX5
 10
137.5
 20
0.0
 30
0.0
 41
0.5
 42
0.5
 43
0.5
  0
INSERT
  5
3E0
  8
0
  2
STDGX5
 10
-35.0
 20
-100.0
 30
0.0
 41
0.3333333333333333
 42
0.3333333333333333
 43
0.3333333333333333
  0
INSERT
  5
3E1
  8
0
  2
STDGX5
 10
-35.0
 20
-100.0
 30
0.0
 41
0.3333333333333333
 42
0.3333333333333333
 43
0.3333333333333333
  0
INSERT
  5
3E2
  8
0
  2
STDGX5
 10
56.666666666666643
 20
-100.0
 30
0.0
 41
0.3333333333333333
 42
0.3333333333333333
 43
0.3333333333333333
  0
INSERT
  5
3E3
  8
0
  2
STDGX5
 10
56.666666666666643
 20
-100.0
 30
0.0
 41
0.3333333333333333
 42
0.3333333333333333
 43
0.3333333333333333
  0
INSERT
  5
43A
  8
0
  2
STDGX5
 10
-35.0
 20
-100.0
 30
0.0
 41
0.3333333333333333
 42
0.3333333333333333
 43
0.3333333333333333
  0
INSERT
  5
43B
  8
0
  2
STDGX5
 10
-35.0
 20
-100.0
 30
0.0
 41
0.3333333333333333
 42
0.3333333333333333
 43
0.3333333333333333
  0
INSERT
  5
43C
  8
0
  2
STDGX5
 10
56.666666666666657
 20
-100.0
 30
0.0
 41
0.3333333333333333
 42
0.3333333333333333
 43
0.3333333333333333
  0
INSERT
  5
43D
  8
0
  2
STDGX5
 10
56.666666666666657
 20
-100.0
 30
0.0
 41
0.3333333333333333
 42
0.3333333333333333
 43
0.3333333333333333
  0
INSERT
  5
541
  8
0
  2
STDGX5
 10
0.0
 20
0.0
 30
0.0
  0
INSERT
  5
542
  8
0
  2
STDGX5
 10
0.0
 20
0.0
 30
0.0
  0
INSERT
  5
543
  8
0
  2
STDGX5
 10
275.0
 20
0.0
 30
0.0
  0
INSERT
  5
544
  8
0
  2
STDGX5
 10
275.0
 20
0.0
 30
0.0
  0
LINE
  5
59C
  8
1
 10
117.7178469991547
 20
177.06391792514381
 30
0.0
 11
253.71784699915469
 21
177.06391792514381
 31
0.0
  0
LINE
  5
59D
  8
0
 10
128.7178469991548
 20
172.0639179251437
 30
0.0
 11
247.21784699915469
 21
172.0639179251437
 31
0.0
  0
LINE
  5
59E
  8
3
 10
128.7178469991548
 20
172.8759179251438
 30
0.0
 11
248.0298469991547
 21
172.87591792514371
 31
0.0
  0
LINE
  5
59F
  8
0
 10
128.7178469991548
 20
182.06391792514381
 30
0.0
 11
247.2178469991548
 21
182.06391792514381
 31
0.0
  0
LINE
  5
5A0
  8
3
 10
128.7178469991548
 20
181.25191792514411
 30
0.0
 11
248.02984699915461
 21
181.25191792514391
 31
0.0
  0
LINE
  5
5A1
  8
1
 10
117.7178469991547
 20
114.8635078998704
 30
0.0
 11
253.71784699915469
 21
114.8635078998704
 31
0.0
  0
LINE
  5
5A2
  8
0
 10
128.7178469991548
 20
119.8635078998704
 30
0.0
 11
240.14049672996509
 21
119.8635078998704
 31
0.0
  0
LINE
  5
5A3
  8
3
 10
128.7178469991548
 20
119.0515078998707
 30
0.0
 11
240.60930514854701
 21
119.0515078998705
 31
0.0
  0
LINE
  5
5A4
  8
3
 10
128.7178469991548
 20
110.6755078998704
 30
0.0
 11
240.60930514854709
 21
110.6755078998703
 31
0.0
  0
LINE
  5
5A5
  8
0
 10
128.7178469991548
 20
109.8635078998703
 30
0.0
 11
240.14049672996509
 21
109.8635078998704
 31
0.0
  0
ARC
  5
5A6
  8
0
 10
128.41784699915479
 20
117.6635078998703
 30
0.0
 40
0.3
 50
269.99999999999937
 51
0.0
  0
LINE
  5
5A7
  8
0
 10
128.7178469991548
 20
109.8635078998703
 30
0.0
 11
128.7178469991548
 21
119.8635078998704
 31
0.0
  0
LINE
  5
5A8
  8
3
 10
127.9678689994778
 20
116.93050789987061
 30
0.0
 11
123.1848469991549
 21
116.93050789987061
 31
0.0
  0
LINE
  5
5A9
  8
3
 10
127.9678689994778
 20
112.79650789987021
 30
0.0
 11
123.1848469991549
 21
112.79650789987021
 31
0.0
  0
LINE
  5
5AA
  8
0
 10
123.61784699915459
 20
112.3635078998703
 30
0.0
 11
122.7178469991547
 21
113.2635078998704
 31
0.0
  0
LINE
  5
5AB
  8
0
 10
122.7178469991547
 20
116.46350789987029
 30
0.0
 11
123.61784699915459
 21
117.3635078998704
 31
0.0
  0
LINE
  5
5AC
  8
0
 10
122.7178469991547
 20
113.2635078998704
 30
0.0
 11
122.7178469991547
 21
116.46350789987029
 31
0.0
  0
ARC
  5
5AD
  8
0
 10
128.41784699915479
 20
112.0635078998703
 30
0.0
 40
0.3
 50
0.0
 51
90.0
  0
LINE
  5
5AE
  8
3
 10
127.9678689994778
 20
112.79650789987021
 30
0.0
 11
128.71784699915469
 21
112.3635078998703
 31
0.0
  0
LINE
  5
5AF
  8
3
 10
127.9678689994778
 20
116.93050789987061
 30
0.0
 11
128.71784699915469
 21
117.3635078998703
 31
0.0
  0
LINE
  5
5B0
  8
0
 10
127.9678689994778
 20
112.3635078998703
 30
0.0
 11
127.9678689994778
 21
117.3635078998703
 31
0.0
  0
LINE
  5
5B1
  8
0
 10
123.61784699915469
 20
112.3635078998704
 30
0.0
 11
123.61784699915469
 21
117.3635078998704
 31
0.0
  0
LINE
  5
5B2
  8
0
 10
128.41784699915479
 20
112.3635078998703
 30
0.0
 11
123.61784699915459
 21
112.3635078998703
 31
0.0
  0
LINE
  5
5B3
  8
0
 10
128.41784699915479
 20
117.3635078998703
 30
0.0
 11
123.61784699915459
 21
117.3635078998704
 31
0.0
  0
LINE
  5
5B4
  8
0
 10
128.7178469991548
 20
172.0639179251437
 30
0.0
 11
128.7178469991548
 21
182.06391792514381
 31
0.0
  0
LINE
  5
5B5
  8
0
 10
122.7178469991547
 20
175.46391792514379
 30
0.0
 11
122.7178469991547
 21
178.66391792514369
 31
0.0
  0
LINE
  5
5B6
  8
0
 10
127.9678689994778
 20
174.5639179251437
 30
0.0
 11
127.9678689994778
 21
179.5639179251437
 31
0.0
  0
LINE
  5
5B7
  8
0
 10
123.61784699915469
 20
174.56391792514381
 30
0.0
 11
123.61784699915469
 21
179.56391792514381
 31
0.0
  0
LINE
  5
5B8
  8
3
 10
127.9678689994778
 20
174.99691792514361
 30
0.0
 11
123.1848469991549
 21
174.99691792514361
 31
0.0
  0
LINE
  5
5B9
  8
0
 10
123.61784699915459
 20
174.5639179251437
 30
0.0
 11
122.7178469991547
 21
175.46391792514379
 31
0.0
  0
ARC
  5
5BA
  8
0
 10
128.41784699915479
 20
174.26391792514369
 30
0.0
 40
0.3
 50
0.0
 51
90.0
  0
LINE
  5
5BB
  8
3
 10
127.9678689994778
 20
174.99691792514361
 30
0.0
 11
128.71784699915469
 21
174.5639179251437
 31
0.0
  0
LINE
  5
5BC
  8
0
 10
128.41784699915479
 20
174.5639179251437
 30
0.0
 11
123.61784699915459
 21
174.5639179251437
 31
0.0
  0
LINE
  5
5BD
  8
3
 10
127.9678689994778
 20
179.13091792514399
 30
0.0
 11
123.1848469991549
 21
179.13091792514399
 31
0.0
  0
LINE
  5
5BE
  8
0
 10
122.7178469991547
 20
178.66391792514369
 30
0.0
 11
123.61784699915459
 21
179.56391792514381
 31
0.0
  0
ARC
  5
5BF
  8
0
 10
128.41784699915479
 20
179.8639179251438
 30
0.0
 40
0.3
 50
269.99999999999937
 51
0.0
  0
LINE
  5
5C0
  8
3
 10
127.9678689994778
 20
179.13091792514399
 30
0.0
 11
128.71784699915469
 21
179.5639179251437
 31
0.0
  0
LINE
  5
5C1
  8
0
 10
128.41784699915479
 20
179.5639179251437
 30
0.0
 11
123.61784699915459
 21
179.56391792514381
 31
0.0
  0
LINE
  5
5C2
  8
0
 10
247.21784699915469
 20
118.8635078998704
 30
0.0
 11
247.21784699915469
 21
110.8635078998704
 31
0.0
  0
LINE
  5
5C3
  8
0
 10
248.7178469991548
 20
118.3635078998704
 30
0.0
 11
248.7178469991548
 21
111.3635078998704
 31
0.0
  0
LINE
  5
5C4
  8
0
 10
240.71784699915469
 20
110.8635078998704
 30
0.0
 11
248.2178469991548
 21
110.8635078998704
 31
0.0
  0
LINE
  5
5C5
  8
0
 10
240.71784699915469
 20
110.8635078998704
 30
0.0
 11
240.14049672996509
 21
109.8635078998704
 31
0.0
  0
LINE
  5
5C6
  8
0
 10
248.7178469991548
 20
111.3635078998704
 30
0.0
 11
248.2178469991548
 21
110.8635078998704
 31
0.0
  0
LINE
  5
5C7
  8
3
 10
240.71784699915469
 20
174.0639179251439
 30
0.0
 11
247.2178469991548
 21
180.06391792514381
 31
0.0
  0
LINE
  5
5C8
  8
3
 10
240.71784699915469
 20
180.06391792514381
 30
0.0
 11
247.217846999155
 21
174.06391792514381
 31
0.0
  0
LINE
  5
5C9
  8
0
 10
247.217846999155
 20
174.06391792514381
 30
0.0
 11
240.71784699915469
 21
174.06391792514381
 31
0.0
  0
LINE
  5
5CA
  8
0
 10
247.2178469991548
 20
180.06391792514381
 30
0.0
 11
240.71784699915469
 21
180.06391792514381
 31
0.0
  0
LINE
  5
5CB
  8
0
 10
240.71784699915469
 20
118.8635078998704
 30
0.0
 11
248.2178469991548
 21
118.8635078998704
 31
0.0
  0
LINE
  5
5CC
  8
0
 10
240.71784699915469
 20
118.8635078998704
 30
0.0
 11
240.14049672996509
 21
119.8635078998704
 31
0.0
  0
ARC
  5
5CD
  8
0
 10
248.22340049861921
 20
177.06391792514381
 30
0.0
 40
8.0829037686541252
 50
158.2132107017369
 51
201.7867892982639
  0
LINE
  5
5CE
  8
0
 10
240.71784699915469
 20
174.06391792514381
 30
0.0
 11
240.71784699915469
 21
180.06391792514381
 31
0.0
  0
LINE
  5
5CF
  8
0
 10
248.7178469991548
 20
118.3635078998704
 30
0.0
 11
248.2178469991548
 21
118.8635078998704
 31
0.0
  0
ARC
  5
5D0
  8
0
 10
243.2178469991531
 20
177.0639179251437
 30
0.0
 40
5.0000000000013953
 50
323.13010235416817
 51
36.869897645833873
  0
LINE
  5
5D1
  8
0
 10
248.7178469991548
 20
180.56391792514381
 30
0.0
 11
248.7178469991548
 21
173.56391792514381
 31
0.0
  0
LINE
  5
5D2
  8
0
 10
247.21784699915469
 20
174.06391792514381
 30
0.0
 11
247.21784699915469
 21
172.0639179251437
 31
0.0
  0
LINE
  5
5D3
  8
0
 10
248.7178469991548
 20
173.56391792514381
 30
0.0
 11
247.21784699915469
 21
172.0639179251437
 31
0.0
  0
LINE
  5
5D4
  8
0
 10
247.2178469991548
 20
182.06391792514381
 30
0.0
 11
247.2178469991548
 21
180.06391792514381
 31
0.0
  0
LINE
  5
5D5
  8
0
 10
248.7178469991548
 20
180.56391792514381
 30
0.0
 11
247.2178469991548
 21
182.06391792514381
 31
0.0
  0
INSERT
  5
65D
  8
0
  2
STDGX5
 10
195.68833777469149
 20
3.7306298458354372
 30
0.0
 41
0.25
 42
0.25
 43
0.25
  0
INSERT
  5
65E
  8
0
  2
STDGX5
 10
195.68833777469149
 20
3.7306298458354372
 30
0.0
 41
0.25
 42
0.25
 43
0.25
  0
INSERT
  5
65F
  8
0
  2
STDGX5
 10
264.43833777469149
 20
3.7306298458354372
 30
0.0
 41
0.25
 42
0.25
 43
0.25
  0
INSERT
  5
660
  8
0
  2
STDGX5
 10
264.43833777469149
 20
3.7306298458354372
 30
0.0
 41
0.25
 42
0.25
 43
0.25
  0
INSERT
  5
661
  8
0
  2
STDGX5
 10
195.68833777469149
 20
3.7306298458354372
 30
0.0
 41
0.5
 42
0.5
 43
0.5
  0
INSERT
  5
662
  8
0
  2
STDGX5
 10
195.68833777469149
 20
3.7306298458354372
 30
0.0
 41
0.5
 42
0.5
 43
0.5
  0
INSERT
  5
663
  8
0
  2
STDGX5
 10
333.18833777469149
 20
3.7306298458354372
 30
0.0
 41
0.5
 42
0.5
 43
0.5
  0
INSERT
  5
664
  8
0
  2
STDGX5
 10
333.18833777469149
 20
3.7306298458354372
 30
0.0
 41
0.5
 42
0.5
 43
0.5
  0
INSERT
  5
666
  8
0
  2
STDGX5
 10
160.68833777469149
 20
-96.269370154164577
 30
0.0
 41
0.3333333333333333
 42
0.3333333333333333
 43
0.3333333333333333
  0
INSERT
  5
667
  8
0
  2
STDGX5
 10
160.68833777469149
 20
-96.269370154164577
 30
0.0
 41
0.3333333333333333
 42
0.3333333333333333
 43
0.3333333333333333
  0
INSERT
  5
668
  8
0
  2
STDGX5
 10
252.35500444135809
 20
-96.269370154164577
 30
0.0
 41
0.3333333333333333
 42
0.3333333333333333
 43
0.3333333333333333
  0
INSERT
  5
669
  8
0
  2
STDGX5
 10
252.35500444135809
 20
-96.269370154164577
 30
0.0
 41
0.3333333333333333
 42
0.3333333333333333
 43
0.3333333333333333
  0
INSERT
  5
66B
  8
0
  2
STDGX5
 10
160.68833777469149
 20
-96.269370154164577
 30
0.0
 41
0.3333333333333333
 42
0.3333333333333333
 43
0.3333333333333333
  0
INSERT
  5
66C
  8
0
  2
STDGX5
 10
160.68833777469149
 20
-96.269370154164577
 30
0.0
 41
0.3333333333333333
 42
0.3333333333333333
 43
0.3333333333333333
  0
INSERT
  5
66D
  8
0
  2
STDGX5
 10
252.35500444135809
 20
-96.269370154164577
 30
0.0
 41
0.3333333333333333
 42
0.3333333333333333
 43
0.3333333333333333
  0
INSERT
  5
66E
  8
0
  2
STDGX5
 10
252.35500444135809
 20
-96.269370154164577
 30
0.0
 41
0.3333333333333333
 42
0.3333333333333333
 43
0.3333333333333333
  0
INSERT
  5
66F
  8
0
  2
STDGX5
 10
195.68833777469149
 20
3.7306298458354372
 30
0.0
  0
INSERT
  5
670
  8
0
  2
STDGX5
 10
195.68833777469149
 20
3.7306298458354372
 30
0.0
  0
INSERT
  5
671
  8
0
  2
STDGX5
 10
470.68833777469149
 20
3.7306298458354372
 30
0.0
  0
INSERT
  5
672
  8
0
  2
STDGX5
 10
470.68833777469149
 20
3.7306298458354372
 30
0.0
  0
INSERT
  5
6B8
  8
0
  2
STDGX5
 10
391.67160901878509
 20
10.702909943640631
 30
0.0
 41
0.25
 42
0.25
 43
0.25
  0
INSERT
  5
6B9
  8
0
  2
STDGX5
 10
391.67160901878509
 20
10.702909943640631
 30
0.0
 41
0.25
 42
0.25
 43
0.25
  0
INSERT
  5
6BA
  8
0
  2
STDGX5
 10
460.42160901878509
 20
10.702909943640631
 30
0.0
 41
0.25
 42
0.25
 43
0.25
  0
INSERT
  5
6BB
  8
0
  2
STDGX5
 10
460.42160901878509
 20
10.702909943640631
 30
0.0
 41
0.25
 42
0.25
 43
0.25
  0
INSERT
  5
6BC
  8
0
  2
STDGX5
 10
391.67160901878509
 20
10.702909943640631
 30
0.0
 41
0.5
 42
0.5
 43
0.5
  0
INSERT
  5
6BD
  8
0
  2
STDGX5
 10
391.67160901878509
 20
10.702909943640631
 30
0.0
 41
0.5
 42
0.5
 43
0.5
  0
INSERT
  5
6BE
  8
0
  2
STDGX5
 10
529.17160901878515
 20
10.702909943640631
 30
0.0
 41
0.5
 42
0.5
 43
0.5
  0
INSERT
  5
6BF
  8
0
  2
STDGX5
 10
529.17160901878515
 20
10.702909943640631
 30
0.0
 41
0.5
 42
0.5
 43
0.5
  0
INSERT
  5
6C1
  8
0
  2
STDGX5
 10
356.67160901878509
 20
-89.297090056359366
 30
0.0
 41
0.3333333333333333
 42
0.3333333333333333
 43
0.3333333333333333
  0
INSERT
  5
6C2
  8
0
  2
STDGX5
 10
356.67160901878509
 20
-89.297090056359366
 30
0.0
 41
0.3333333333333333
 42
0.3333333333333333
 43
0.3333333333333333
  0
INSERT
  5
6C3
  8
0
  2
STDGX5
 10
448.33827568545172
 20
-89.297090056359366
 30
0.0
 41
0.3333333333333333
 42
0.3333333333333333
 43
0.3333333333333333
  0
INSERT
  5
6C4
  8
0
  2
STDGX5
 10
448.33827568545172
 20
-89.297090056359366
 30
0.0
 41
0.3333333333333333
 42
0.3333333333333333
 43
0.3333333333333333
  0
INSERT
  5
6C6
  8
0
  2
STDGX5
 10
356.67160901878509
 20
-89.297090056359366
 30
0.0
 41
0.3333333333333333
 42
0.3333333333333333
 43
0.3333333333333333
  0
INSERT
  5
6C7
  8
0
  2
STDGX5
 10
356.67160901878509
 20
-89.297090056359366
 30
0.0
 41
0.3333333333333333
 42
0.3333333333333333
 43
0.3333333333333333
  0
INSERT
  5
6C8
  8
0
  2
STDGX5
 10
448.33827568545172
 20
-89.297090056359366
 30
0.0
 41
0.3333333333333333
 42
0.3333333333333333
 43
0.3333333333333333
  0
INSERT
  5
6C9
  8
0
  2
STDGX5
 10
448.33827568545172
 20
-89.297090056359366
 30
0.0
 41
0.3333333333333333
 42
0.3333333333333333
 43
0.3333333333333333
  0
INSERT
  5
6CA
  8
0
  2
STDGX5
 10
391.67160901878509
 20
10.702909943640631
 30
0.0
  0
INSERT
  5
6CB
  8
0
  2
STDGX5
 10
391.67160901878509
 20
10.702909943640631
 30
0.0
  0
INSERT
  5
6CC
  8
0
  2
STDGX5
 10
666.67160901878515
 20
10.702909943640631
 30
0.0
  0
INSERT
  5
6CD
  8
0
  2
STDGX5
 10
666.67160901878515
 20
10.702909943640631
 30
0.0
  0
CIRCLE
  5
6D8
  8
0
 10
77.717846999154673
 20
114.8635078998704
 30
0.0
 40
5.0
  0
CIRCLE
  5
6D9
  8
0
 10
77.717846999154673
 20
114.8635078998704
 30
0.0
 40
2.500000000000234
  0
CIRCLE
  5
6DA
  8
0
 10
77.717846999154673
 20
114.8635078998704
 30
0.0
 40
1.599999999999965
  0
CIRCLE
  5
6DB
  8
3
 10
77.717846999154673
 20
114.8635078998704
 30
0.0
 40
2.0670000000001698
  0
LINE
  5
6DD
  8
0
 10
290.71784699915469
 20
118.8635078998704
 30
0.0
 11
296.7178469991548
 21
118.8635078998704
 31
0.0
  0
LINE
  5
6DE
  8
0
 10
290.71784699915469
 20
110.8635078998704
 30
0.0
 11
296.7178469991548
 21
110.8635078998704
 31
0.0
  0
CIRCLE
  5
6DF
  8
0
 10
293.71784699915469
 20
114.8635078998704
 30
0.0
 40
5.0
  0
LINE
  5
6E1
  8
0
 10
77.717846999154673
 20
113.2635078998704
 30
0.0
 11
77.717846999154673
 21
116.46350789987029
 31
0.0
  0
LINE
  5
6E2
  8
1
 10
77.717846999154673
 20
104.8635078998704
 30
0.0
 11
77.717846999154673
 21
124.8635078998704
 31
0.0
  0
LINE
  5
6E3
  8
1
 10
67.717846999154673
 20
114.8635078998704
 30
0.0
 11
87.717846999154688
 21
114.8635078998704
 31
0.0
  0
LINE
  5
6E4
  8
1
 10
293.71784699915469
 20
104.8635078998704
 30
0.0
 11
293.71784699915469
 21
124.8635078998704
 31
0.0
  0
LINE
  5
6E5
  8
1
 10
283.7178469991548
 20
114.8635078998704
 30
0.0
 11
303.71784699915469
 21
114.8635078998704
 31
0.0
  0
TEXT
  5
7C9
  8
0
 62
     3
 10
0.0
 20
0.0
 30
0.0
 40
10.0
  1
KG-RR120
  7
STANDARD1
  0
ENDSEC
  0
EOF
