  0
SECTION
  2
HEADER
  9
$ACADVER
  1
AC1009
  9
$INSBASE
 10
0.0
 20
0.0
 30
0.0
  9
$EXTMIN
 10
0.0
 20
-2.960436562073669
 30
0.0
  9
$EXTMAX
 10
275.45184787282892
 20
263.07439840319591
 30
0.0
  9
$LIMMIN
 10
0.0
 20
0.0
  9
$LIMMAX
 10
375.0
 20
270.0
  9
$ORTHOMODE
 70
     1
  9
$REGENMODE
 70
     1
  9
$FILLMODE
 70
     1
  9
$QTEXTMODE
 70
     0
  9
$MIRRTEXT
 70
     0
  9
$DRAGMODE
 70
     2
  9
$LTSCALE
 40
5.0
  9
$OSMODE
 70
  3071
  9
$ATTMODE
 70
     1
  9
$TEXTSIZE
 40
0.2
  9
$TRACEWID
 40
0.05
  9
$TEXTSTYLE
  7
STANDARD
  9
$CLAYER
  8
0
  9
$CELTYPE
  6
BYLAYER
  9
$CECOLOR
 62
   256
  9
$DIMSCALE
 40
1.0
  9
$DIMASZ
 40
3.0
  9
$DIMEXO
 40
2.0
  9
$DIMDLI
 40
0.38
  9
$DIMRND
 40
0.0
  9
$DIMDLE
 40
0.0
  9
$DIMEXE
 40
2.0
  9
$DIMTP
 40
0.0
  9
$DIMTM
 40
0.0
  9
$DIMTXT
 40
3.2000000000000002
  9
$DIMCEN
 40
0.0
  9
$DIMTSZ
 40
0.0
  9
$DIMTOL
 70
     0
  9
$DIMLIM
 70
     0
  9
$DIMTIH
 70
     0
  9
$DIMTOH
 70
     0
  9
$DIMSE1
 70
     0
  9
$DIMSE2
 70
     0
  9
$DIMTAD
 70
     1
  9
$DIMZIN
 70
     0
  9
$DIMBLK
  1

  9
$DIMASO
 70
     1
  9
$DIMSHO
 70
     0
  9
$DIMPOST
  1

  9
$DIMAPOST
  1

  9
$DIMALT
 70
     0
  9
$DIMALTD
 70
     2
  9
$DIMALTF
 40
25.399999999999999
  9
$DIMLFAC
 40
1.0
  9
$DIMTOFL
 70
     0
  9
$DIMTVP
 40
1.6000000000000001
  9
$DIMTIX
 70
     1
  9
$DIMSOXD
 70
     0
  9
$DIMSAH
 70
     0
  9
$DIMBLK1
  1

  9
$DIMBLK2
  1

  9
$DIMSTYLE
  2
STANDARD
  9
$DIMCLRD
 70
     0
  9
$DIMCLRE
 70
     0
  9
$DIMCLRT
 70
     0
  9
$DIMTFAC
 40
1.0
  9
$DIMGAP
 40
0.09
  9
$LUNITS
 70
     2
  9
$LUPREC
 70
     4
  9
$SKETCHINC
 40
0.1
  9
$FILLETRAD
 40
5.0
  9
$AUNITS
 70
     0
  9
$AUPREC
 70
     0
  9
$MENU
  1
E:\r13\win\SUPPORT\ACAD
  9
$ELEVATION
 40
0.0
  9
$PELEVATION
 40
0.0
  9
$THICKNESS
 40
0.0
  9
$LIMCHECK
 70
     0
  9
$BLIPMODE
 70
     0
  9
$CHAMFERA
 40
0.0
  9
$CHAMFERB
 40
0.0
  9
$SKPOLY
 70
     0
  9
$TDCREATE
 40
2449840.613622685
  9
$TDUPDATE
 40
2456597.490103866
  9
$TDINDWG
 40
0.0157246181
  9
$TDUSRTIMER
 40
0.0157246181
  9
$USRTIMER
 70
     1
  9
$ANGBASE
 50
0.0
  9
$ANGDIR
 70
     0
  9
$PDMODE
 70
     0
  9
$PDSIZE
 40
0.0
  9
$PLINEWID
 40
0.0
  9
$COORDS
 70
     1
  9
$SPLFRAME
 70
     0
  9
$SPLINETYPE
 70
     6
  9
$SPLINESEGS
 70
     8
  9
$ATTDIA
 70
     0
  9
$ATTREQ
 70
     1
  9
$HANDLING
 70
     1
  9
$HANDSEED
  5
8DC
  9
$SURFTAB1
 70
     6
  9
$SURFTAB2
 70
     6
  9
$SURFTYPE
 70
     6
  9
$SURFU
 70
     6
  9
$SURFV
 70
     6
  9
$UCSNAME
  2

  9
$UCSORG
 10
0.0
 20
0.0
 30
0.0
  9
$UCSXDIR
 10
1.0
 20
0.0
 30
0.0
  9
$UCSYDIR
 10
0.0
 20
1.0
 30
0.0
  9
$PUCSNAME
  2

  9
$PUCSORG
 10
0.0
 20
0.0
 30
0.0
  9
$PUCSXDIR
 10
1.0
 20
0.0
 30
0.0
  9
$PUCSYDIR
 10
0.0
 20
1.0
 30
0.0
  9
$USERI1
 70
     0
  9
$USERI2
 70
     1
  9
$USERI3
 70
     1
  9
$USERI4
 70
     0
  9
$USERI5
 70
     0
  9
$USERR1
 40
0.0
  9
$USERR2
 40
0.0
  9
$USERR3
 40
0.0
  9
$USERR4
 40
0.0
  9
$USERR5
 40
0.0
  9
$WORLDVIEW
 70
     1
  9
$SHADEDGE
 70
     3
  9
$SHADEDIF
 70
    70
  9
$TILEMODE
 70
     1
  9
$MAXACTVP
 70
    16
  9
$PLIMCHECK
 70
     0
  9
$PEXTMIN
 10
1.0000000000000000E+020
 20
1.0000000000000000E+020
 30
1.0000000000000000E+020
  9
$PEXTMAX
 10
-1.0000000000000000E+020
 20
-1.0000000000000000E+020
 30
-1.0000000000000000E+020
  9
$PLIMMIN
 10
0.0
 20
0.0
  9
$PLIMMAX
 10
12.0
 20
9.0
  9
$UNITMODE
 70
     0
  9
$VISRETAIN
 70
     0
  9
$PLINEGEN
 70
     0
  9
$PSLTSCALE
 70
     0
  0
ENDSEC
  0
SECTION
  2
TABLES
  0
TABLE
  2
VPORT
 70
     1
  0
VPORT
  2
*ACTIVE
 70
     0
 10
0.0
 20
0.0
 11
1.0
 21
1.0
 12
187.49427839065231
 22
162.8616388594717
 13
0.0
 23
0.0
 14
10.0
 24
10.0
 15
10.0
 25
10.0
 16
0.0
 26
0.0
 36
1.0
 17
0.0
 27
0.0
 37
0.0
 40
334.81001162774987
 41
1.9089595375722539
 42
50.0
 43
0.0
 44
0.0
 50
0.0
 51
0.0
 71
     0
 72
   500
 73
     1
 74
     0
 75
     0
 76
     0
 77
     0
 78
     1
  0
ENDTAB
  0
TABLE
  2
LTYPE
 70
     3
  0
LTYPE
  2
CONTINUOUS
 70
     0
  3
Solid Line
 72
    65
 73
     0
 40
0.0
  0
LTYPE
  2
CENTER
 70
     0
  3
____ _ ____ _ ____ _ ____ _ ____ _ ____ _ ____
 72
    65
 73
     4
 40
2.0
 49
1.25
 49
-0.25
 49
0.25
 49
-0.25
  0
LTYPE
  2
PHANTOM2
 70
     0
  3
___ _ _ ___ _ _ ___ _ _ ___ _ _
 72
    65
 73
     6
 40
1.25
 49
0.625
 49
-0.125
 49
0.125
 49
-0.125
 49
0.125
 49
-0.125
  0
ENDTAB
  0
TABLE
  2
LAYER
 70
     4
  0
LAYER
  2
0
 70
     0
 62
     7
  6
CONTINUOUS
  0
LAYER
  2
1
 70
     0
 62
     1
  6
CENTER
  0
LAYER
  2
3
 70
     0
 62
     3
  6
CONTINUOUS
  0
LAYER
  2
4
 70
     0
 62
     4
  6
CONTINUOUS
  0
ENDTAB
  0
TABLE
  2
STYLE
 70
     2
  0
STYLE
  2
STANDARD
 70
     0
 40
0.0
 41
1.0
 50
0.0
 71
     0
 42
0.2
  3
TXT
  4
BIGFONT
  0
STYLE
  2
STANDARD1
 70
     0
 40
0.0
 41
1.0
 50
0.0
 71
     0
 42
3.0
  3
txt
  4

  0
ENDTAB
  0
TABLE
  2
VIEW
 70
     1
  0
VIEW
  2
ALL
 70
     0
 40
270.0
 10
220.99159663865549
 20
135.0
 41
0.0
 11
0.0
 21
0.0
 31
1.0
 12
0.0
 22
0.0
 32
0.0
 42
0.0
 43
0.0
 44
0.0
 50
0.0
 71
     0
  0
ENDTAB
  0
TABLE
  2
UCS
 70
     0
  0
ENDTAB
  0
TABLE
  2
APPID
 70
     3
  0
APPID
  2
ACAD
 70
     0
  0
APPID
  2
ACAD_MLEADERVER
 70
     0
  0
APPID
  2
ACAD_NAV_VCDISPLAY
 70
     0
  0
ENDTAB
  0
TABLE
  2
DIMSTYLE
 70
     1
  0
DIMSTYLE
  2
STANDARD
 70
     0
  3

  4

  5

  6

  7

 40
1.0
 41
0.18
 42
0.0625
 43
0.38
 44
0.18
 45
0.0
 46
0.0
 47
0.0
 48
0.0
140
0.18
141
0.09
142
0.0
143
25.399999999999999
144
1.0
145
0.0
146
1.0
147
0.09
 71
     0
 72
     0
 73
     1
 74
     1
 75
     0
 76
     0
 77
     0
 78
     0
170
     0
171
     2
172
     0
173
     0
174
     0
175
     0
176
     0
177
     0
178
     0
  0
ENDTAB
  0
ENDSEC
  0
SECTION
  2
BLOCKS
  0
BLOCK
  8
0
  2
$MODEL_SPACE
 70
     0
 10
0.0
 20
0.0
 30
0.0
  3
$MODEL_SPACE
  1

  0
ENDBLK
  5
169
  8
0
  0
BLOCK
 67
     1
  8
0
  2
$PAPER_SPACE
 70
     0
 10
0.0
 20
0.0
 30
0.0
  3
$PAPER_SPACE
  1

  0
ENDBLK
  5
167
 67
     1
  8
0
  0
BLOCK
  8
0
  2
KIPP-LOGO3
 70
     0
 10
0.0
 20
0.0
 30
0.0
  3
KIPP-LOGO3
  1

  0
POLYLINE
  5
1BF
  8
3
 66
     1
 10
0.0
 20
0.0
 30
0.0
 70
     1
  0
VERTEX
  5
1C0
  8
3
 10
3.0758528956400961
 20
2.197037782600062
 30
0.0
 42
1.0000000552842581
  0
VERTEX
  5
1C1
  8
3
 10
2.3225827987486691
 20
2.197037782600062
 30
0.0
 42
1.0000000552842581
  0
SEQEND
  5
1C2
  8
3
  0
LINE
  5
1C3
  8
3
 10
2.6161365865077921
 20
0.0184625023747742
 30
0.0
 11
3.2011684728116299
 21
0.3304795084035277
 31
0.0
  0
LINE
  5
1C4
  8
3
 10
3.2011684728116299
 20
0.3304795084035277
 30
0.0
 11
3.2011684728116299
 21
-0.5649525726686308
 31
0.0
  0
LINE
  5
1C5
  8
3
 10
3.2011684728116299
 20
-0.5649525726686308
 30
0.0
 11
3.7977367384943501
 21
-0.5649525726686308
 31
0.0
  0
LINE
  5
1C6
  8
3
 10
3.7977367384943501
 20
-0.5649525726686308
 30
0.0
 11
3.7977367384943501
 21
0.5021800645942847
 31
0.0
  0
LINE
  5
1C7
  8
3
 10
3.7977367384943501
 20
0.5021800645942847
 30
0.0
 11
3.9546680086801009
 21
0.5649525726686308
 31
0.0
  0
LINE
  5
1C8
  8
3
 10
3.9546680086801009
 20
0.5649525726686308
 30
0.0
 11
3.9546680086801009
 21
0.156931270185737
 31
0.0
  0
ARC
  5
1C9
  8
3
 10
4.111599278865838
 20
0.156931270185737
 30
0.0
 40
0.1569312701857254
 50
180.0
 51
298.07248693585808
  0
LINE
  5
1CA
  8
3
 10
4.1854492883650201
 20
0.0184625023747742
 30
0.0
 11
4.7704811746688591
 21
0.3304795084035277
 31
0.0
  0
LINE
  5
1CB
  8
3
 10
4.7704811746688591
 20
0.3304795084035561
 30
0.0
 11
4.7704811746688591
 21
-0.5649525726686308
 31
0.0
  0
LINE
  5
1CC
  8
3
 10
4.7704811746688591
 20
-0.5649525726686308
 30
0.0
 11
5.367049440351507
 21
-0.5649525726686308
 31
0.0
  0
LINE
  5
1CD
  8
3
 10
5.367049440351507
 20
-0.5649525726686308
 30
0.0
 11
5.367049440351507
 21
0.5021800645942847
 31
0.0
  0
LINE
  5
1CE
  8
3
 10
5.367049440351507
 20
0.5021800645942847
 30
0.0
 11
5.5239807105372591
 21
0.5649525726686308
 31
0.0
  0
LINE
  5
1CF
  8
3
 10
5.5239807105372591
 20
0.5649525726686308
 30
0.0
 11
5.5239807105372591
 21
0.156931270185737
 31
0.0
  0
ARC
  5
1D0
  8
3
 10
5.6809119807229811
 20
0.1569312701857655
 30
0.0
 40
0.1569312701857254
 50
180.00000000000651
 51
298.07248693585518
  0
LINE
  5
1D1
  8
3
 10
5.7547619902221641
 20
0.0184625023747742
 30
0.0
 11
6.3400233155029611
 21
0.3306018758579228
 31
0.0
  0
LINE
  5
1D2
  8
3
 10
6.3400233155029611
 20
0.3306018758579228
 30
0.0
 11
6.3400233155029611
 21
1.1072006771710501
 31
0.0
  0
ARC
  5
1D3
  8
3
 10
8.9531369709060584
 20
-3.9016692513080491
 30
0.0
 40
5.6495257266850381
 50
117.55092529523679
 51
119.7271455112872
  0
LINE
  5
1D4
  8
3
 10
6.1517057912801363
 20
1.0043601291885691
 30
0.0
 11
6.1517057912801363
 21
1.412381431671462
 31
0.0
  0
ARC
  5
1D5
  8
3
 10
5.9947745210943992
 20
1.412381431671462
 30
0.0
 40
0.1569312701857254
 50
0.0
 51
104.6488905276798
  0
ARC
  5
1D6
  8
3
 10
7.3838242690494118
 20
-3.9016692513089311
 30
0.0
 40
5.6495257266860834
 50
104.64889052767739
 51
110.9149203627637
  0
LINE
  5
1D7
  8
3
 10
5.367049440351507
 20
1.37561795205778
 30
0.0
 11
5.367049440351507
 21
1.5693127018571991
 31
0.0
  0
LINE
  5
1D8
  8
3
 10
5.367049440351507
 20
1.5693127018571991
 30
0.0
 11
4.7704811746688591
 21
1.5693127018571991
 31
0.0
  0
LINE
  5
1D9
  8
3
 10
4.7704811746688591
 20
1.5693127018571991
 30
0.0
 11
4.7704811746688591
 21
1.107080972803004
 31
0.0
  0
ARC
  5
1DA
  8
3
 10
7.3838242690502076
 20
-3.90166925131021
 30
0.0
 40
5.649525726687588
 50
117.55354984774431
 51
119.7271455112879
  0
LINE
  5
1DB
  8
3
 10
4.5823930894229363
 20
1.0043601291885691
 30
0.0
 11
4.5823930894229363
 21
1.412381431671462
 31
0.0
  0
ARC
  5
1DC
  8
3
 10
4.4254618192372126
 20
1.412381431671462
 30
0.0
 40
0.1569312701857254
 50
0.0
 51
104.6488905276679
  0
ARC
  5
1DD
  8
3
 10
5.8145115671922554
 20
-3.9016692513089022
 30
0.0
 40
5.6495257266860497
 50
104.6488905276782
 51
110.9149203627637
  0
LINE
  5
1DE
  8
3
 10
3.7977367384943501
 20
1.37561795205778
 30
0.0
 11
3.7977367384943501
 21
1.5693127018571991
 31
0.0
  0
LINE
  5
1DF
  8
3
 10
3.7977367384943501
 20
1.5693127018571991
 30
0.0
 11
3.2011684728116019
 21
1.5693127018571431
 31
0.0
  0
LINE
  5
1E0
  8
3
 10
3.2011684728116299
 20
1.5693127018571991
 30
0.0
 11
3.2011684728116019
 21
1.107080972803004
 31
0.0
  0
ARC
  5
1E1
  8
3
 10
5.8145115671930512
 20
-3.9016692513081628
 30
0.0
 40
5.6495257266858268
 50
117.5535498477545
 51
119.7271455112981
  0
LINE
  5
1E2
  8
3
 10
3.0130803875657932
 20
1.0043601291885691
 30
0.0
 11
3.0130803875657932
 21
1.5693127018571991
 31
0.0
  0
LINE
  5
1E3
  8
3
 10
3.0130803875657932
 20
1.5693127018571991
 30
0.0
 11
2.3853553068229161
 21
1.5693127018571991
 31
0.0
  0
LINE
  5
1E4
  8
3
 10
2.3853553068229161
 20
1.5693127018571991
 30
0.0
 11
2.3853553068229161
 21
1.090701043997313
 31
0.0
  0
ARC
  5
1E5
  8
3
 10
5.0298552162644654
 20
-3.9016692513081059
 30
0.0
 40
5.649525726685753
 50
117.9105394925511
 51
119.7271455112981
  0
LINE
  5
1E6
  8
3
 10
2.2284240366372212
 20
1.0043601291885691
 30
0.0
 11
2.2284240366372212
 21
1.443767685708621
 31
0.0
  0
ARC
  5
1E7
  8
3
 10
2.1028790204886709
 20
1.443767685708621
 30
0.0
 40
0.1255450161485537
 50
0.0
 51
90.0
  0
LINE
  5
1E8
  8
3
 10
2.1028790204886709
 20
1.5693127018571991
 30
0.0
 11
1.8097270704588191
 21
1.5693127018571991
 31
0.0
  0
LINE
  5
1E9
  8
3
 10
1.8097270704588191
 20
1.5693127018571991
 30
0.0
 11
2.5123801253116929
 21
3.6099653469931918
 31
0.0
  0
ARC
  5
1EA
  8
3
 10
2.660761556364704
 20
3.5588735229821959
 30
0.0
 40
0.1569312701857129
 50
89.999999999975572
 51
160.99999999997911
  0
LINE
  5
1EB
  8
3
 10
2.6607615563647609
 20
3.715804793167933
 30
0.0
 11
2.844375955124121
 21
3.715804793167933
 31
0.0
  0
LINE
  5
1EC
  8
3
 10
2.844375955124121
 20
3.715804793167933
 30
0.0
 11
2.844375955124121
 21
3.778577301242279
 31
0.0
  0
LINE
  5
1ED
  8
3
 10
2.844375955124121
 20
3.778577301242279
 30
0.0
 11
4.2492588619588361
 21
3.7113721105961011
 31
0.0
  0
ARC
  5
1EE
  8
3
 10
4.2567573867955844
 20
3.8681241303195288
 30
0.0
 40
0.1569312701856951
 50
267.26123748850301
 51
0.0000000000130276
  0
LINE
  5
1EF
  8
3
 10
4.4136886569812779
 20
3.8681241303195288
 30
0.0
 11
4.4136886569812779
 21
4.1912105367592281
 31
0.0
  0
ARC
  5
1F0
  8
3
 10
4.2567573867955844
 20
4.1912105367592849
 30
0.0
 40
0.1569312701856921
 50
359.99999999998698
 51
92.738762511496958
  0
LINE
  5
1F1
  8
3
 10
4.2492588619588361
 20
4.3479625564826838
 30
0.0
 11
2.844375955124121
 21
4.2807573658365641
 31
0.0
  0
LINE
  5
1F2
  8
3
 10
2.844375955124121
 20
4.2807573658365641
 30
0.0
 11
2.844375955124121
 21
4.3435298739108239
 31
0.0
  0
LINE
  5
1F3
  8
3
 10
2.844375955124121
 20
4.3435298739108239
 30
0.0
 11
2.3913370976348309
 21
4.3435298739108239
 31
0.0
  0
ARC
  5
1F4
  8
3
 10
2.391337097634803
 20
4.0296673335393791
 30
0.0
 40
0.3138625403714175
 50
89.999999999993491
 51
160.9999999999946
  0
LINE
  5
1F5
  8
3
 10
2.0945742355288242
 20
4.1318509815613416
 30
0.0
 11
1.255450161485768
 21
1.694857718005806
 31
0.0
  0
LINE
  5
1F6
  8
3
 10
1.255450161485768
 20
1.694857718005806
 30
0.0
 11
1.255450161485768
 21
2.9057599854969851
 31
0.0
  0
ARC
  5
1F7
  8
3
 10
1.5065401937828391
 20
2.9057599854969851
 30
0.0
 40
0.2510900322970742
 50
120.0000000000114
 51
180.00000000001461
  0
LINE
  5
1F8
  8
3
 10
1.3809951776342611
 20
3.123210332103326
 30
0.0
 11
-0.1255450161485498
 21
3.123210332103326
 31
0.0
  0
ARC
  5
1F9
  8
3
 10
-0.2510900322971139
 20
2.9057599854969558
 30
0.0
 40
0.2510900322971151
 50
359.99999999999682
 51
60.000000000000973
  0
LINE
  5
1FA
  8
3
 10
-0.0000000000000284
 20
2.9057599854969558
 30
0.0
 11
0.0
 21
0.0
 31
0.0
  0
LINE
  5
1FB
  8
3
 10
0.0
 20
0.0
 30
0.0
 11
1.255450161485768
 21
0.0
 31
0.0
  0
LINE
  5
1FC
  8
3
 10
1.255450161485768
 20
0.0
 30
0.0
 11
1.255450161485768
 21
0.7532700968914412
 31
0.0
  0
LINE
  5
1FD
  8
3
 10
1.255450161485768
 20
0.7532700968914412
 30
0.0
 11
1.412381431671462
 21
0.7532700968914412
 31
0.0
  0
LINE
  5
1FE
  8
3
 10
1.412381431671462
 20
0.7532700968914412
 30
0.0
 11
1.412381431671462
 21
0.156931270185737
 31
0.0
  0
ARC
  5
1FF
  8
3
 10
1.5693127018571851
 20
0.156931270185737
 30
0.0
 40
0.1569312701857254
 50
180.0
 51
298.07248693585808
  0
LINE
  5
200
  8
3
 10
1.6431627113563669
 20
0.0184625023747742
 30
0.0
 11
2.3853553068229161
 21
0.3578391601283499
 31
0.0
  0
LINE
  5
201
  8
3
 10
2.3853553068229161
 20
0.3578391601283499
 30
0.0
 11
2.3853553068229161
 21
0.156931270185737
 31
0.0
  0
ARC
  5
202
  8
3
 10
2.54228657700861
 20
0.156931270185737
 30
0.0
 40
0.1569312701856921
 50
180.0
 51
298.07248693585808
  0
ENDBLK
  5
203
  8
0
  0
ENDSEC
  0
SECTION
  2
ENTITIES
  0
LINE
  5
205
  8
0
 10
121.13916510926209
 20
169.81857737685041
 30
0.0
 11
121.1283549203725
 21
169.81857737685041
 31
0.0
  0
ARC
  5
206
  8
0
 10
177.8491580804687
 20
179.58524665176219
 30
0.0
 40
14.41288777721666
 50
358.58871587807897
 51
36.395336976891173
  0
POLYLINE
  5
207
  8
0
 10
270.11646683164821
 20
171.36589832888137
 30
0.0
 66
     1
 70
     8
  0
VERTEX
  8
0
  5
54E
 10
270.116
 20
171.366
 30
0.000000
  70
    32
  0
VERTEX
  8
0
  5
54F
 10
270.113
 20
171.378
 30
0.000000
  70
    32
  0
VERTEX
  8
0
  5
550
 10
270.108
 20
171.389
 30
0.000000
  70
    32
  0
VERTEX
  8
0
  5
551
 10
270.104
 20
171.401
 30
0.000000
  70
    32
  0
VERTEX
  8
0
  5
552
 10
270.100
 20
171.413
 30
0.000000
  70
    32
  0
VERTEX
  8
0
  5
553
 10
270.095
 20
171.425
 30
0.000000
  70
    32
  0
VERTEX
  8
0
  5
554
 10
270.090
 20
171.436
 30
0.000000
  70
    32
  0
VERTEX
  8
0
  5
555
 10
270.085
 20
171.448
 30
0.000000
  70
    32
  0
VERTEX
  8
0
  5
556
 10
270.079
 20
171.460
 30
0.000000
  70
    32
  0
VERTEX
  8
0
  5
557
 10
270.074
 20
171.472
 30
0.000000
  70
    32
  0
VERTEX
  8
0
  5
558
 10
270.068
 20
171.483
 30
0.000000
  70
    32
  0
VERTEX
  8
0
  5
559
 10
270.062
 20
171.495
 30
0.000000
  70
    32
  0
VERTEX
  8
0
  5
55A
 10
270.056
 20
171.507
 30
0.000000
  70
    32
  0
VERTEX
  8
0
  5
55B
 10
270.049
 20
171.518
 30
0.000000
  70
    32
  0
VERTEX
  8
0
  5
55C
 10
270.042
 20
171.530
 30
0.000000
  70
    32
  0
VERTEX
  8
0
  5
55D
 10
270.036
 20
171.542
 30
0.000000
  70
    32
  0
VERTEX
  8
0
  5
55E
 10
270.029
 20
171.553
 30
0.000000
  70
    32
  0
VERTEX
  8
0
  5
55F
 10
270.021
 20
171.565
 30
0.000000
  70
    32
  0
VERTEX
  8
0
  5
560
 10
270.014
 20
171.577
 30
0.000000
  70
    32
  0
VERTEX
  8
0
  5
561
 10
270.006
 20
171.588
 30
0.000000
  70
    32
  0
VERTEX
  8
0
  5
562
 10
269.998
 20
171.600
 30
0.000000
  70
    32
  0
VERTEX
  8
0
  5
563
 10
269.990
 20
171.611
 30
0.000000
  70
    32
  0
VERTEX
  8
0
  5
564
 10
269.982
 20
171.623
 30
0.000000
  70
    32
  0
VERTEX
  8
0
  5
565
 10
269.973
 20
171.635
 30
0.000000
  70
    32
  0
VERTEX
  8
0
  5
566
 10
269.964
 20
171.646
 30
0.000000
  70
    32
  0
VERTEX
  8
0
  5
567
 10
269.955
 20
171.658
 30
0.000000
  70
    32
  0
VERTEX
  8
0
  5
568
 10
269.946
 20
171.669
 30
0.000000
  70
    32
  0
VERTEX
  8
0
  5
569
 10
269.937
 20
171.681
 30
0.000000
  70
    32
  0
VERTEX
  8
0
  5
56A
 10
269.927
 20
171.692
 30
0.000000
  70
    32
  0
VERTEX
  8
0
  5
56B
 10
269.917
 20
171.704
 30
0.000000
  70
    32
  0
VERTEX
  8
0
  5
56C
 10
269.907
 20
171.715
 30
0.000000
  70
    32
  0
VERTEX
  8
0
  5
56D
 10
269.897
 20
171.727
 30
0.000000
  70
    32
  0
VERTEX
  8
0
  5
56E
 10
269.887
 20
171.738
 30
0.000000
  70
    32
  0
VERTEX
  8
0
  5
56F
 10
269.876
 20
171.750
 30
0.000000
  70
    32
  0
VERTEX
  8
0
  5
570
 10
269.865
 20
171.761
 30
0.000000
  70
    32
  0
VERTEX
  8
0
  5
571
 10
269.854
 20
171.772
 30
0.000000
  70
    32
  0
VERTEX
  8
0
  5
572
 10
269.843
 20
171.784
 30
0.000000
  70
    32
  0
VERTEX
  8
0
  5
573
 10
269.832
 20
171.795
 30
0.000000
  70
    32
  0
VERTEX
  8
0
  5
574
 10
269.820
 20
171.807
 30
0.000000
  70
    32
  0
VERTEX
  8
0
  5
575
 10
269.808
 20
171.818
 30
0.000000
  70
    32
  0
VERTEX
  8
0
  5
576
 10
269.796
 20
171.829
 30
0.000000
  70
    32
  0
VERTEX
  8
0
  5
577
 10
269.784
 20
171.841
 30
0.000000
  70
    32
  0
VERTEX
  8
0
  5
578
 10
269.771
 20
171.852
 30
0.000000
  70
    32
  0
VERTEX
  8
0
  5
579
 10
269.759
 20
171.863
 30
0.000000
  70
    32
  0
VERTEX
  8
0
  5
57A
 10
269.746
 20
171.874
 30
0.000000
  70
    32
  0
VERTEX
  8
0
  5
57B
 10
269.733
 20
171.886
 30
0.000000
  70
    32
  0
VERTEX
  8
0
  5
57C
 10
269.719
 20
171.897
 30
0.000000
  70
    32
  0
VERTEX
  8
0
  5
57D
 10
269.706
 20
171.908
 30
0.000000
  70
    32
  0
VERTEX
  8
0
  5
57E
 10
269.692
 20
171.919
 30
0.000000
  70
    32
  0
VERTEX
  8
0
  5
57F
 10
269.678
 20
171.930
 30
0.000000
  70
    32
  0
VERTEX
  8
0
  5
580
 10
269.664
 20
171.941
 30
0.000000
  70
    32
  0
VERTEX
  8
0
  5
581
 10
269.650
 20
171.953
 30
0.000000
  70
    32
  0
VERTEX
  8
0
  5
582
 10
269.636
 20
171.964
 30
0.000000
  70
    32
  0
VERTEX
  8
0
  5
583
 10
269.621
 20
171.975
 30
0.000000
  70
    32
  0
VERTEX
  8
0
  5
584
 10
269.606
 20
171.986
 30
0.000000
  70
    32
  0
VERTEX
  8
0
  5
585
 10
269.591
 20
171.997
 30
0.000000
  70
    32
  0
VERTEX
  8
0
  5
586
 10
269.576
 20
172.008
 30
0.000000
  70
    32
  0
VERTEX
  8
0
  5
587
 10
269.560
 20
172.019
 30
0.000000
  70
    32
  0
VERTEX
  8
0
  5
588
 10
269.545
 20
172.030
 30
0.000000
  70
    32
  0
VERTEX
  8
0
  5
589
 10
269.529
 20
172.041
 30
0.000000
  70
    32
  0
VERTEX
  8
0
  5
58A
 10
269.513
 20
172.052
 30
0.000000
  70
    32
  0
VERTEX
  8
0
  5
58B
 10
269.496
 20
172.062
 30
0.000000
  70
    32
  0
VERTEX
  8
0
  5
58C
 10
269.480
 20
172.073
 30
0.000000
  70
    32
  0
VERTEX
  8
0
  5
58D
 10
269.463
 20
172.084
 30
0.000000
  70
    32
  0
VERTEX
  8
0
  5
58E
 10
269.446
 20
172.095
 30
0.000000
  70
    32
  0
VERTEX
  8
0
  5
58F
 10
269.429
 20
172.106
 30
0.000000
  70
    32
  0
VERTEX
  8
0
  5
590
 10
269.412
 20
172.117
 30
0.000000
  70
    32
  0
VERTEX
  8
0
  5
591
 10
269.395
 20
172.127
 30
0.000000
  70
    32
  0
VERTEX
  8
0
  5
592
 10
269.377
 20
172.138
 30
0.000000
  70
    32
  0
VERTEX
  8
0
  5
593
 10
269.359
 20
172.149
 30
0.000000
  70
    32
  0
VERTEX
  8
0
  5
594
 10
269.341
 20
172.159
 30
0.000000
  70
    32
  0
VERTEX
  8
0
  5
595
 10
269.323
 20
172.170
 30
0.000000
  70
    32
  0
VERTEX
  8
0
  5
596
 10
269.305
 20
172.181
 30
0.000000
  70
    32
  0
VERTEX
  8
0
  5
597
 10
269.286
 20
172.191
 30
0.000000
  70
    32
  0
VERTEX
  8
0
  5
598
 10
269.267
 20
172.202
 30
0.000000
  70
    32
  0
VERTEX
  8
0
  5
599
 10
269.248
 20
172.212
 30
0.000000
  70
    32
  0
VERTEX
  8
0
  5
59A
 10
269.229
 20
172.223
 30
0.000000
  70
    32
  0
VERTEX
  8
0
  5
59B
 10
269.210
 20
172.233
 30
0.000000
  70
    32
  0
VERTEX
  8
0
  5
59C
 10
269.190
 20
172.244
 30
0.000000
  70
    32
  0
VERTEX
  8
0
  5
59D
 10
269.170
 20
172.254
 30
0.000000
  70
    32
  0
VERTEX
  8
0
  5
59E
 10
269.151
 20
172.265
 30
0.000000
  70
    32
  0
VERTEX
  8
0
  5
59F
 10
269.130
 20
172.275
 30
0.000000
  70
    32
  0
VERTEX
  8
0
  5
5A0
 10
269.110
 20
172.285
 30
0.000000
  70
    32
  0
VERTEX
  8
0
  5
5A1
 10
269.090
 20
172.296
 30
0.000000
  70
    32
  0
VERTEX
  8
0
  5
5A2
 10
269.069
 20
172.306
 30
0.000000
  70
    32
  0
VERTEX
  8
0
  5
5A3
 10
269.048
 20
172.316
 30
0.000000
  70
    32
  0
VERTEX
  8
0
  5
5A4
 10
269.027
 20
172.326
 30
0.000000
  70
    32
  0
VERTEX
  8
0
  5
5A5
 10
269.006
 20
172.337
 30
0.000000
  70
    32
  0
VERTEX
  8
0
  5
5A6
 10
268.985
 20
172.347
 30
0.000000
  70
    32
  0
VERTEX
  8
0
  5
5A7
 10
268.963
 20
172.357
 30
0.000000
  70
    32
  0
VERTEX
  8
0
  5
5A8
 10
268.941
 20
172.367
 30
0.000000
  70
    32
  0
VERTEX
  8
0
  5
5A9
 10
268.919
 20
172.377
 30
0.000000
  70
    32
  0
VERTEX
  8
0
  5
5AA
 10
268.897
 20
172.387
 30
0.000000
  70
    32
  0
VERTEX
  8
0
  5
5AB
 10
268.875
 20
172.397
 30
0.000000
  70
    32
  0
VERTEX
  8
0
  5
5AC
 10
268.852
 20
172.407
 30
0.000000
  70
    32
  0
VERTEX
  8
0
  5
5AD
 10
268.830
 20
172.417
 30
0.000000
  70
    32
  0
VERTEX
  8
0
  5
5AE
 10
268.807
 20
172.427
 30
0.000000
  70
    32
  0
VERTEX
  8
0
  5
5AF
 10
268.784
 20
172.437
 30
0.000000
  70
    32
  0
VERTEX
  8
0
  5
5B0
 10
268.761
 20
172.447
 30
0.000000
  70
    32
  0
VERTEX
  8
0
  5
5B1
 10
268.737
 20
172.456
 30
0.000000
  70
    32
  0
VERTEX
  8
0
  5
5B2
 10
268.714
 20
172.466
 30
0.000000
  70
    32
  0
VERTEX
  8
0
  5
5B3
 10
268.690
 20
172.476
 30
0.000000
  70
    32
  0
VERTEX
  8
0
  5
5B4
 10
268.666
 20
172.486
 30
0.000000
  70
    32
  0
VERTEX
  8
0
  5
5B5
 10
268.642
 20
172.495
 30
0.000000
  70
    32
  0
VERTEX
  8
0
  5
5B6
 10
268.618
 20
172.505
 30
0.000000
  70
    32
  0
VERTEX
  8
0
  5
5B7
 10
268.593
 20
172.514
 30
0.000000
  70
    32
  0
VERTEX
  8
0
  5
5B8
 10
268.569
 20
172.524
 30
0.000000
  70
    32
  0
VERTEX
  8
0
  5
5B9
 10
268.544
 20
172.534
 30
0.000000
  70
    32
  0
VERTEX
  8
0
  5
5BA
 10
268.519
 20
172.543
 30
0.000000
  70
    32
  0
VERTEX
  8
0
  5
5BB
 10
268.494
 20
172.552
 30
0.000000
  70
    32
  0
VERTEX
  8
0
  5
5BC
 10
268.469
 20
172.562
 30
0.000000
  70
    32
  0
VERTEX
  8
0
  5
5BD
 10
268.443
 20
172.571
 30
0.000000
  70
    32
  0
VERTEX
  8
0
  5
5BE
 10
268.418
 20
172.581
 30
0.000000
  70
    32
  0
VERTEX
  8
0
  5
5BF
 10
268.392
 20
172.590
 30
0.000000
  70
    32
  0
VERTEX
  8
0
  5
5C0
 10
268.366
 20
172.599
 30
0.000000
  70
    32
  0
VERTEX
  8
0
  5
5C1
 10
268.340
 20
172.608
 30
0.000000
  70
    32
  0
VERTEX
  8
0
  5
5C2
 10
268.313
 20
172.618
 30
0.000000
  70
    32
  0
VERTEX
  8
0
  5
5C3
 10
268.287
 20
172.627
 30
0.000000
  70
    32
  0
VERTEX
  8
0
  5
5C4
 10
268.260
 20
172.636
 30
0.000000
  70
    32
  0
VERTEX
  8
0
  5
5C5
 10
268.234
 20
172.645
 30
0.000000
  70
    32
  0
VERTEX
  8
0
  5
5C6
 10
268.207
 20
172.654
 30
0.000000
  70
    32
  0
VERTEX
  8
0
  5
5C7
 10
268.180
 20
172.663
 30
0.000000
  70
    32
  0
VERTEX
  8
0
  5
5C8
 10
268.152
 20
172.672
 30
0.000000
  70
    32
  0
VERTEX
  8
0
  5
5C9
 10
268.125
 20
172.681
 30
0.000000
  70
    32
  0
VERTEX
  8
0
  5
5CA
 10
268.097
 20
172.690
 30
0.000000
  70
    32
  0
VERTEX
  8
0
  5
5CB
 10
268.069
 20
172.699
 30
0.000000
  70
    32
  0
VERTEX
  8
0
  5
5CC
 10
268.042
 20
172.707
 30
0.000000
  70
    32
  0
VERTEX
  8
0
  5
5CD
 10
268.014
 20
172.716
 30
0.000000
  70
    32
  0
VERTEX
  8
0
  5
5CE
 10
267.985
 20
172.725
 30
0.000000
  70
    32
  0
SEQEND
  8
0
  5
5CF
  0
ARC
  5
208
  8
0
 10
247.4486808647053
 20
158.86906373332721
 30
0.0
 40
25.884346535150851
 50
9.845056586909342
 51
28.86811135944038
  0
LINE
  5
209
  8
0
 10
251.6718805820087
 20
146.81482927608749
 30
0.0
 11
251.2518478728289
 21
159.42049474251181
 31
0.0
  0
LINE
  5
20A
  8
0
 10
272.231815163649
 20
146.81482927608749
 30
0.0
 11
272.65184787282891
 21
159.42049474251181
 31
0.0
  0
LINE
  5
20B
  8
0
 10
250.95184787282881
 20
163.29488208788459
 30
0.0
 11
250.95184787282901
 21
159.72049474251179
 31
0.0
  0
LINE
  5
20C
  8
0
 10
272.95184787282892
 20
163.29488208788459
 30
0.0
 11
272.95184787282898
 21
159.72049474251179
 31
0.0
  0
LINE
  5
20D
  8
0
 10
251.2518478728289
 20
159.42049474251181
 30
0.0
 11
272.65184787282902
 21
159.42049474251181
 31
0.0
  0
ARC
  5
20E
  8
0
 10
250.95184787282901
 20
159.42049474251181
 30
0.0
 40
0.3
 50
0.0
 51
90.0
  0
LINE
  5
20F
  8
0
 10
250.95184787282901
 20
159.72049474251179
 30
0.0
 11
272.95184787282898
 21
159.72049474251179
 31
0.0
  0
ARC
  5
210
  8
0
 10
272.95184787282898
 20
159.42049474251181
 30
0.0
 40
0.3
 50
90.0
 51
180.0
  0
ARC
  5
211
  8
0
 10
276.45501488095232
 20
158.86906373332761
 30
0.0
 40
25.884346535150641
 50
151.1318886405611
 51
170.1549434130915
  0
POLYLINE
  5
212
  8
0
 10
255.91840223367711
 20
172.72491296062441
 30
0.0
 66
     1
 70
     8
  0
VERTEX
  8
0
  5
5D0
 10
255.918
 20
172.725
 30
0.000000
  70
    32
  0
VERTEX
  8
0
  5
5D1
 10
255.890
 20
172.716
 30
0.000000
  70
    32
  0
VERTEX
  8
0
  5
5D2
 10
255.862
 20
172.707
 30
0.000000
  70
    32
  0
VERTEX
  8
0
  5
5D3
 10
255.834
 20
172.699
 30
0.000000
  70
    32
  0
VERTEX
  8
0
  5
5D4
 10
255.806
 20
172.690
 30
0.000000
  70
    32
  0
VERTEX
  8
0
  5
5D5
 10
255.779
 20
172.681
 30
0.000000
  70
    32
  0
VERTEX
  8
0
  5
5D6
 10
255.751
 20
172.672
 30
0.000000
  70
    32
  0
VERTEX
  8
0
  5
5D7
 10
255.724
 20
172.663
 30
0.000000
  70
    32
  0
VERTEX
  8
0
  5
5D8
 10
255.697
 20
172.654
 30
0.000000
  70
    32
  0
VERTEX
  8
0
  5
5D9
 10
255.670
 20
172.645
 30
0.000000
  70
    32
  0
VERTEX
  8
0
  5
5DA
 10
255.643
 20
172.636
 30
0.000000
  70
    32
  0
VERTEX
  8
0
  5
5DB
 10
255.617
 20
172.627
 30
0.000000
  70
    32
  0
VERTEX
  8
0
  5
5DC
 10
255.590
 20
172.618
 30
0.000000
  70
    32
  0
VERTEX
  8
0
  5
5DD
 10
255.564
 20
172.608
 30
0.000000
  70
    32
  0
VERTEX
  8
0
  5
5DE
 10
255.538
 20
172.599
 30
0.000000
  70
    32
  0
VERTEX
  8
0
  5
5DF
 10
255.512
 20
172.590
 30
0.000000
  70
    32
  0
VERTEX
  8
0
  5
5E0
 10
255.486
 20
172.581
 30
0.000000
  70
    32
  0
VERTEX
  8
0
  5
5E1
 10
255.460
 20
172.571
 30
0.000000
  70
    32
  0
VERTEX
  8
0
  5
5E2
 10
255.435
 20
172.562
 30
0.000000
  70
    32
  0
VERTEX
  8
0
  5
5E3
 10
255.410
 20
172.552
 30
0.000000
  70
    32
  0
VERTEX
  8
0
  5
5E4
 10
255.385
 20
172.543
 30
0.000000
  70
    32
  0
VERTEX
  8
0
  5
5E5
 10
255.360
 20
172.534
 30
0.000000
  70
    32
  0
VERTEX
  8
0
  5
5E6
 10
255.335
 20
172.524
 30
0.000000
  70
    32
  0
VERTEX
  8
0
  5
5E7
 10
255.310
 20
172.514
 30
0.000000
  70
    32
  0
VERTEX
  8
0
  5
5E8
 10
255.286
 20
172.505
 30
0.000000
  70
    32
  0
VERTEX
  8
0
  5
5E9
 10
255.262
 20
172.495
 30
0.000000
  70
    32
  0
VERTEX
  8
0
  5
5EA
 10
255.238
 20
172.486
 30
0.000000
  70
    32
  0
VERTEX
  8
0
  5
5EB
 10
255.214
 20
172.476
 30
0.000000
  70
    32
  0
VERTEX
  8
0
  5
5EC
 10
255.190
 20
172.466
 30
0.000000
  70
    32
  0
VERTEX
  8
0
  5
5ED
 10
255.166
 20
172.456
 30
0.000000
  70
    32
  0
VERTEX
  8
0
  5
5EE
 10
255.143
 20
172.447
 30
0.000000
  70
    32
  0
VERTEX
  8
0
  5
5EF
 10
255.120
 20
172.437
 30
0.000000
  70
    32
  0
VERTEX
  8
0
  5
5F0
 10
255.097
 20
172.427
 30
0.000000
  70
    32
  0
VERTEX
  8
0
  5
5F1
 10
255.074
 20
172.417
 30
0.000000
  70
    32
  0
VERTEX
  8
0
  5
5F2
 10
255.051
 20
172.407
 30
0.000000
  70
    32
  0
VERTEX
  8
0
  5
5F3
 10
255.029
 20
172.397
 30
0.000000
  70
    32
  0
VERTEX
  8
0
  5
5F4
 10
255.007
 20
172.387
 30
0.000000
  70
    32
  0
VERTEX
  8
0
  5
5F5
 10
254.984
 20
172.377
 30
0.000000
  70
    32
  0
VERTEX
  8
0
  5
5F6
 10
254.962
 20
172.367
 30
0.000000
  70
    32
  0
VERTEX
  8
0
  5
5F7
 10
254.941
 20
172.357
 30
0.000000
  70
    32
  0
VERTEX
  8
0
  5
5F8
 10
254.919
 20
172.347
 30
0.000000
  70
    32
  0
VERTEX
  8
0
  5
5F9
 10
254.898
 20
172.337
 30
0.000000
  70
    32
  0
VERTEX
  8
0
  5
5FA
 10
254.877
 20
172.326
 30
0.000000
  70
    32
  0
VERTEX
  8
0
  5
5FB
 10
254.855
 20
172.316
 30
0.000000
  70
    32
  0
VERTEX
  8
0
  5
5FC
 10
254.835
 20
172.306
 30
0.000000
  70
    32
  0
VERTEX
  8
0
  5
5FD
 10
254.814
 20
172.296
 30
0.000000
  70
    32
  0
VERTEX
  8
0
  5
5FE
 10
254.794
 20
172.285
 30
0.000000
  70
    32
  0
VERTEX
  8
0
  5
5FF
 10
254.773
 20
172.275
 30
0.000000
  70
    32
  0
VERTEX
  8
0
  5
600
 10
254.753
 20
172.265
 30
0.000000
  70
    32
  0
VERTEX
  8
0
  5
601
 10
254.733
 20
172.254
 30
0.000000
  70
    32
  0
VERTEX
  8
0
  5
602
 10
254.713
 20
172.244
 30
0.000000
  70
    32
  0
VERTEX
  8
0
  5
603
 10
254.694
 20
172.233
 30
0.000000
  70
    32
  0
VERTEX
  8
0
  5
604
 10
254.675
 20
172.223
 30
0.000000
  70
    32
  0
VERTEX
  8
0
  5
605
 10
254.655
 20
172.212
 30
0.000000
  70
    32
  0
VERTEX
  8
0
  5
606
 10
254.636
 20
172.202
 30
0.000000
  70
    32
  0
VERTEX
  8
0
  5
607
 10
254.618
 20
172.191
 30
0.000000
  70
    32
  0
VERTEX
  8
0
  5
608
 10
254.599
 20
172.181
 30
0.000000
  70
    32
  0
VERTEX
  8
0
  5
609
 10
254.581
 20
172.170
 30
0.000000
  70
    32
  0
VERTEX
  8
0
  5
60A
 10
254.562
 20
172.159
 30
0.000000
  70
    32
  0
VERTEX
  8
0
  5
60B
 10
254.544
 20
172.149
 30
0.000000
  70
    32
  0
VERTEX
  8
0
  5
60C
 10
254.527
 20
172.138
 30
0.000000
  70
    32
  0
VERTEX
  8
0
  5
60D
 10
254.509
 20
172.127
 30
0.000000
  70
    32
  0
VERTEX
  8
0
  5
60E
 10
254.492
 20
172.117
 30
0.000000
  70
    32
  0
VERTEX
  8
0
  5
60F
 10
254.474
 20
172.106
 30
0.000000
  70
    32
  0
VERTEX
  8
0
  5
610
 10
254.457
 20
172.095
 30
0.000000
  70
    32
  0
VERTEX
  8
0
  5
611
 10
254.440
 20
172.084
 30
0.000000
  70
    32
  0
VERTEX
  8
0
  5
612
 10
254.424
 20
172.073
 30
0.000000
  70
    32
  0
VERTEX
  8
0
  5
613
 10
254.407
 20
172.062
 30
0.000000
  70
    32
  0
VERTEX
  8
0
  5
614
 10
254.391
 20
172.052
 30
0.000000
  70
    32
  0
VERTEX
  8
0
  5
615
 10
254.375
 20
172.041
 30
0.000000
  70
    32
  0
VERTEX
  8
0
  5
616
 10
254.359
 20
172.030
 30
0.000000
  70
    32
  0
VERTEX
  8
0
  5
617
 10
254.343
 20
172.019
 30
0.000000
  70
    32
  0
VERTEX
  8
0
  5
618
 10
254.328
 20
172.008
 30
0.000000
  70
    32
  0
VERTEX
  8
0
  5
619
 10
254.313
 20
171.997
 30
0.000000
  70
    32
  0
VERTEX
  8
0
  5
61A
 10
254.298
 20
171.986
 30
0.000000
  70
    32
  0
VERTEX
  8
0
  5
61B
 10
254.283
 20
171.975
 30
0.000000
  70
    32
  0
VERTEX
  8
0
  5
61C
 10
254.268
 20
171.964
 30
0.000000
  70
    32
  0
VERTEX
  8
0
  5
61D
 10
254.254
 20
171.953
 30
0.000000
  70
    32
  0
VERTEX
  8
0
  5
61E
 10
254.239
 20
171.941
 30
0.000000
  70
    32
  0
VERTEX
  8
0
  5
61F
 10
254.225
 20
171.930
 30
0.000000
  70
    32
  0
VERTEX
  8
0
  5
620
 10
254.211
 20
171.919
 30
0.000000
  70
    32
  0
VERTEX
  8
0
  5
621
 10
254.198
 20
171.908
 30
0.000000
  70
    32
  0
VERTEX
  8
0
  5
622
 10
254.184
 20
171.897
 30
0.000000
  70
    32
  0
VERTEX
  8
0
  5
623
 10
254.171
 20
171.886
 30
0.000000
  70
    32
  0
VERTEX
  8
0
  5
624
 10
254.158
 20
171.874
 30
0.000000
  70
    32
  0
VERTEX
  8
0
  5
625
 10
254.145
 20
171.863
 30
0.000000
  70
    32
  0
VERTEX
  8
0
  5
626
 10
254.132
 20
171.852
 30
0.000000
  70
    32
  0
VERTEX
  8
0
  5
627
 10
254.120
 20
171.841
 30
0.000000
  70
    32
  0
VERTEX
  8
0
  5
628
 10
254.108
 20
171.829
 30
0.000000
  70
    32
  0
VERTEX
  8
0
  5
629
 10
254.096
 20
171.818
 30
0.000000
  70
    32
  0
VERTEX
  8
0
  5
62A
 10
254.084
 20
171.807
 30
0.000000
  70
    32
  0
VERTEX
  8
0
  5
62B
 10
254.072
 20
171.795
 30
0.000000
  70
    32
  0
VERTEX
  8
0
  5
62C
 10
254.061
 20
171.784
 30
0.000000
  70
    32
  0
VERTEX
  8
0
  5
62D
 10
254.049
 20
171.772
 30
0.000000
  70
    32
  0
VERTEX
  8
0
  5
62E
 10
254.038
 20
171.761
 30
0.000000
  70
    32
  0
VERTEX
  8
0
  5
62F
 10
254.028
 20
171.750
 30
0.000000
  70
    32
  0
VERTEX
  8
0
  5
630
 10
254.017
 20
171.738
 30
0.000000
  70
    32
  0
VERTEX
  8
0
  5
631
 10
254.006
 20
171.727
 30
0.000000
  70
    32
  0
VERTEX
  8
0
  5
632
 10
253.996
 20
171.715
 30
0.000000
  70
    32
  0
VERTEX
  8
0
  5
633
 10
253.986
 20
171.704
 30
0.000000
  70
    32
  0
VERTEX
  8
0
  5
634
 10
253.976
 20
171.692
 30
0.000000
  70
    32
  0
VERTEX
  8
0
  5
635
 10
253.967
 20
171.681
 30
0.000000
  70
    32
  0
VERTEX
  8
0
  5
636
 10
253.958
 20
171.669
 30
0.000000
  70
    32
  0
VERTEX
  8
0
  5
637
 10
253.948
 20
171.658
 30
0.000000
  70
    32
  0
VERTEX
  8
0
  5
638
 10
253.939
 20
171.646
 30
0.000000
  70
    32
  0
VERTEX
  8
0
  5
639
 10
253.931
 20
171.635
 30
0.000000
  70
    32
  0
VERTEX
  8
0
  5
63A
 10
253.922
 20
171.623
 30
0.000000
  70
    32
  0
VERTEX
  8
0
  5
63B
 10
253.914
 20
171.611
 30
0.000000
  70
    32
  0
VERTEX
  8
0
  5
63C
 10
253.906
 20
171.600
 30
0.000000
  70
    32
  0
VERTEX
  8
0
  5
63D
 10
253.898
 20
171.588
 30
0.000000
  70
    32
  0
VERTEX
  8
0
  5
63E
 10
253.890
 20
171.577
 30
0.000000
  70
    32
  0
VERTEX
  8
0
  5
63F
 10
253.882
 20
171.565
 30
0.000000
  70
    32
  0
VERTEX
  8
0
  5
640
 10
253.875
 20
171.553
 30
0.000000
  70
    32
  0
VERTEX
  8
0
  5
641
 10
253.868
 20
171.542
 30
0.000000
  70
    32
  0
VERTEX
  8
0
  5
642
 10
253.861
 20
171.530
 30
0.000000
  70
    32
  0
VERTEX
  8
0
  5
643
 10
253.855
 20
171.518
 30
0.000000
  70
    32
  0
VERTEX
  8
0
  5
644
 10
253.848
 20
171.507
 30
0.000000
  70
    32
  0
VERTEX
  8
0
  5
645
 10
253.842
 20
171.495
 30
0.000000
  70
    32
  0
VERTEX
  8
0
  5
646
 10
253.836
 20
171.483
 30
0.000000
  70
    32
  0
VERTEX
  8
0
  5
647
 10
253.830
 20
171.472
 30
0.000000
  70
    32
  0
VERTEX
  8
0
  5
648
 10
253.824
 20
171.460
 30
0.000000
  70
    32
  0
VERTEX
  8
0
  5
649
 10
253.819
 20
171.448
 30
0.000000
  70
    32
  0
VERTEX
  8
0
  5
64A
 10
253.814
 20
171.436
 30
0.000000
  70
    32
  0
VERTEX
  8
0
  5
64B
 10
253.809
 20
171.425
 30
0.000000
  70
    32
  0
VERTEX
  8
0
  5
64C
 10
253.804
 20
171.413
 30
0.000000
  70
    32
  0
VERTEX
  8
0
  5
64D
 10
253.800
 20
171.401
 30
0.000000
  70
    32
  0
VERTEX
  8
0
  5
64E
 10
253.795
 20
171.389
 30
0.000000
  70
    32
  0
VERTEX
  8
0
  5
64F
 10
253.791
 20
171.378
 30
0.000000
  70
    32
  0
VERTEX
  8
0
  5
650
 10
253.787
 20
171.366
 30
0.000000
  70
    32
  0
SEQEND
  8
0
  5
651
  0
LINE
  5
213
  8
0
 10
136.40832221119271
 20
146.81482927608749
 30
0.0
 11
136.82835492037259
 21
159.42049474251181
 31
0.0
  0
ARC
  5
214
  8
0
 10
137.1283549203726
 20
159.42049474251181
 30
0.0
 40
0.3
 50
90.0
 51
180.0
  0
ARC
  5
215
  8
0
 10
134.8842009706818
 20
56.308556734579611
 30
0.0
 40
1.0
 50
223.14261812005529
 51
267.39170062408778
  0
ARC
  5
216
  8
0
 10
134.88420097068189
 20
39.896955966430077
 30
0.0
 40
1.0
 50
92.608299375908942
 51
136.85738187994701
  0
CIRCLE
  5
217
  8
0
 10
126.1283549203725
 20
48.102756350504819
 30
0.0
 40
11.0
  0
ARC
  5
218
  8
0
 10
134.8834955495519
 20
238.8678453775162
 30
0.0
 40
1.0
 50
92.609039145931689
 51
136.8524566078035
  0
ARC
  5
219
  8
0
 10
134.8834955495519
 20
255.2809514288756
 30
0.0
 40
1.0
 50
223.1475433921965
 51
267.39096085407152
  0
ARC
  5
21A
  8
0
 10
126.1283549203725
 20
247.07439840319589
 30
0.0
 40
11.0
 50
43.147543392194727
 51
316.85245660780521
  0
LINE
  5
21B
  8
0
 10
256.70879865731359
 20
179.12825339936731
 30
0.0
 11
254.82508114028431
 21
163.8674498439338
 31
0.0
  0
LINE
  5
21C
  8
0
 10
269.07861460537299
 20
163.86744984393519
 30
0.0
 11
267.19489708834419
 21
179.1282533993674
 31
0.0
  0
ARC
  5
21D
  8
0
 10
200.12770110747439
 20
247.07439840319589
 30
0.0
 40
10.677003014523789
 50
154.0626145461103
 51
205.93738545388919
  0
CIRCLE
  5
21E
  8
0
 10
197.6283549203726
 20
48.102756350504819
 30
0.0
 40
8.5
  0
ARC
  5
21F
  8
0
 10
58.524861967916301
 20
185.81857737685041
 30
0.0
 40
8.5
 50
308.08496248073737
 51
231.9150375192628
  0
CIRCLE
  5
220
  8
0
 10
261.95184787282892
 20
185.81857737685041
 30
0.0
 40
8.5
  0
ARC
  5
221
  8
0
 10
197.6283549203724
 20
185.81857737685041
 30
0.0
 40
8.5
 50
230.8136374348685
 51
164.1704154201021
  0
ARC
  5
222
  8
0
 10
197.62835492037229
 20
247.07439840319589
 30
0.0
 40
8.5
 50
213.3266669255795
 51
146.6733330744205
  0
CIRCLE
  5
223
  8
3
 10
126.1283549203725
 20
48.102756350504819
 30
0.0
 40
4.1879999999999988
  0
CIRCLE
  5
224
  8
0
 10
126.1283549203725
 20
48.102756350504819
 30
0.0
 40
5.0
  0
CIRCLE
  5
225
  8
0
 10
126.1283549203725
 20
48.102756350504819
 30
0.0
 40
10.279967290820251
  0
CIRCLE
  5
226
  8
0
 10
126.1283549203725
 20
48.102756350504819
 30
0.0
 40
9.7800000000000864
  0
CIRCLE
  5
227
  8
0
 10
126.1283549203725
 20
48.102756350504819
 30
0.0
 40
7.9999999999999432
  0
CIRCLE
  5
228
  8
0
 10
126.1283549203725
 20
48.102756350504819
 30
0.0
 40
7.5999999999804109
  0
CIRCLE
  5
229
  8
0
 10
126.1283549203725
 20
48.102756350504819
 30
0.0
 40
10.49999999999994
  0
LINE
  5
22A
  8
0
 10
269.17184787282878
 20
163.29488208788459
 30
0.0
 11
269.17184787282889
 21
159.72049474251179
 31
0.0
  0
LINE
  5
22B
  8
0
 10
254.73184787282889
 20
163.29488208788459
 30
0.0
 11
254.73184787282889
 21
159.72049474251179
 31
0.0
  0
LINE
  5
22C
  8
1
 10
197.6283549203726
 20
61.602756350504812
 30
0.0
 11
197.6283549203726
 21
34.602756350504819
 31
0.0
  0
LINE
  5
22D
  8
1
 10
211.1283549203726
 20
48.102756350504819
 30
0.0
 11
110.1283549203725
 21
48.102756350504819
 31
0.0
  0
LINE
  5
22E
  8
1
 10
126.1283549203725
 20
64.102756350504805
 30
0.0
 11
126.1283549203725
 21
32.102756350504819
 31
0.0
  0
LINE
  5
22F
  8
0
 10
134.83869328070799
 20
40.895919954846697
 30
0.0
 11
190.5261651172203
 21
43.432756350504803
 31
0.0
  0
LINE
  5
230
  8
0
 10
134.8386932807079
 20
55.309592746162991
 30
0.0
 11
190.5261651172203
 21
52.772756350504828
 31
0.0
  0
LINE
  5
231
  8
0
 10
53.854861967916349
 20
183.7707708822262
 30
0.0
 11
52.491416328769333
 21
172.72491296062589
 31
0.0
  0
LINE
  5
232
  8
0
 10
64.558307607063114
 20
172.724912960626
 30
0.0
 11
63.194861967916381
 21
183.7707708822262
 31
0.0
  0
POLYLINE
  5
233
  8
0
 10
254.78766443651654
 20
163.73847905752174
 30
0.0
 66
     1
 70
     8
  0
VERTEX
  8
0
  5
652
 10
254.788
 20
163.738
 30
0.000000
  70
    32
  0
VERTEX
  8
0
  5
653
 10
254.766
 20
163.644
 30
0.000000
  70
    32
  0
VERTEX
  8
0
  5
654
 10
254.750
 20
163.550
 30
0.000000
  70
    32
  0
VERTEX
  8
0
  5
655
 10
254.739
 20
163.456
 30
0.000000
  70
    32
  0
VERTEX
  8
0
  5
656
 10
254.733
 20
163.361
 30
0.000000
  70
    32
  0
VERTEX
  8
0
  5
657
 10
254.732
 20
163.266
 30
0.000000
  70
    32
  0
VERTEX
  8
0
  5
658
 10
254.736
 20
163.172
 30
0.000000
  70
    32
  0
VERTEX
  8
0
  5
659
 10
254.745
 20
163.077
 30
0.000000
  70
    32
  0
VERTEX
  8
0
  5
65A
 10
254.759
 20
162.983
 30
0.000000
  70
    32
  0
VERTEX
  8
0
  5
65B
 10
254.779
 20
162.888
 30
0.000000
  70
    32
  0
VERTEX
  8
0
  5
65C
 10
254.803
 20
162.794
 30
0.000000
  70
    32
  0
VERTEX
  8
0
  5
65D
 10
254.832
 20
162.701
 30
0.000000
  70
    32
  0
VERTEX
  8
0
  5
65E
 10
254.866
 20
162.608
 30
0.000000
  70
    32
  0
VERTEX
  8
0
  5
65F
 10
254.906
 20
162.515
 30
0.000000
  70
    32
  0
VERTEX
  8
0
  5
660
 10
254.950
 20
162.423
 30
0.000000
  70
    32
  0
VERTEX
  8
0
  5
661
 10
254.999
 20
162.332
 30
0.000000
  70
    32
  0
VERTEX
  8
0
  5
662
 10
255.053
 20
162.241
 30
0.000000
  70
    32
  0
VERTEX
  8
0
  5
663
 10
255.112
 20
162.151
 30
0.000000
  70
    32
  0
VERTEX
  8
0
  5
664
 10
255.175
 20
162.061
 30
0.000000
  70
    32
  0
VERTEX
  8
0
  5
665
 10
255.244
 20
161.973
 30
0.000000
  70
    32
  0
VERTEX
  8
0
  5
666
 10
255.317
 20
161.885
 30
0.000000
  70
    32
  0
VERTEX
  8
0
  5
667
 10
255.395
 20
161.799
 30
0.000000
  70
    32
  0
VERTEX
  8
0
  5
668
 10
255.477
 20
161.713
 30
0.000000
  70
    32
  0
VERTEX
  8
0
  5
669
 10
255.564
 20
161.629
 30
0.000000
  70
    32
  0
VERTEX
  8
0
  5
66A
 10
255.655
 20
161.546
 30
0.000000
  70
    32
  0
VERTEX
  8
0
  5
66B
 10
255.751
 20
161.464
 30
0.000000
  70
    32
  0
VERTEX
  8
0
  5
66C
 10
255.851
 20
161.383
 30
0.000000
  70
    32
  0
VERTEX
  8
0
  5
66D
 10
255.955
 20
161.304
 30
0.000000
  70
    32
  0
VERTEX
  8
0
  5
66E
 10
256.064
 20
161.226
 30
0.000000
  70
    32
  0
VERTEX
  8
0
  5
66F
 10
256.177
 20
161.150
 30
0.000000
  70
    32
  0
VERTEX
  8
0
  5
670
 10
256.294
 20
161.075
 30
0.000000
  70
    32
  0
VERTEX
  8
0
  5
671
 10
256.414
 20
161.001
 30
0.000000
  70
    32
  0
VERTEX
  8
0
  5
672
 10
256.539
 20
160.929
 30
0.000000
  70
    32
  0
VERTEX
  8
0
  5
673
 10
256.667
 20
160.859
 30
0.000000
  70
    32
  0
VERTEX
  8
0
  5
674
 10
256.800
 20
160.791
 30
0.000000
  70
    32
  0
VERTEX
  8
0
  5
675
 10
256.935
 20
160.724
 30
0.000000
  70
    32
  0
VERTEX
  8
0
  5
676
 10
257.075
 20
160.659
 30
0.000000
  70
    32
  0
VERTEX
  8
0
  5
677
 10
257.217
 20
160.596
 30
0.000000
  70
    32
  0
VERTEX
  8
0
  5
678
 10
257.363
 20
160.535
 30
0.000000
  70
    32
  0
VERTEX
  8
0
  5
679
 10
257.513
 20
160.476
 30
0.000000
  70
    32
  0
VERTEX
  8
0
  5
67A
 10
257.665
 20
160.419
 30
0.000000
  70
    32
  0
VERTEX
  8
0
  5
67B
 10
257.820
 20
160.364
 30
0.000000
  70
    32
  0
VERTEX
  8
0
  5
67C
 10
257.979
 20
160.310
 30
0.000000
  70
    32
  0
VERTEX
  8
0
  5
67D
 10
258.140
 20
160.259
 30
0.000000
  70
    32
  0
VERTEX
  8
0
  5
67E
 10
258.303
 20
160.210
 30
0.000000
  70
    32
  0
VERTEX
  8
0
  5
67F
 10
258.470
 20
160.164
 30
0.000000
  70
    32
  0
VERTEX
  8
0
  5
680
 10
258.638
 20
160.119
 30
0.000000
  70
    32
  0
VERTEX
  8
0
  5
681
 10
258.809
 20
160.077
 30
0.000000
  70
    32
  0
VERTEX
  8
0
  5
682
 10
258.983
 20
160.037
 30
0.000000
  70
    32
  0
VERTEX
  8
0
  5
683
 10
259.158
 20
159.999
 30
0.000000
  70
    32
  0
VERTEX
  8
0
  5
684
 10
259.335
 20
159.963
 30
0.000000
  70
    32
  0
VERTEX
  8
0
  5
685
 10
259.515
 20
159.930
 30
0.000000
  70
    32
  0
VERTEX
  8
0
  5
686
 10
259.695
 20
159.900
 30
0.000000
  70
    32
  0
VERTEX
  8
0
  5
687
 10
259.878
 20
159.871
 30
0.000000
  70
    32
  0
VERTEX
  8
0
  5
688
 10
260.062
 20
159.845
 30
0.000000
  70
    32
  0
VERTEX
  8
0
  5
689
 10
260.247
 20
159.822
 30
0.000000
  70
    32
  0
VERTEX
  8
0
  5
68A
 10
260.433
 20
159.800
 30
0.000000
  70
    32
  0
VERTEX
  8
0
  5
68B
 10
260.621
 20
159.782
 30
0.000000
  70
    32
  0
VERTEX
  8
0
  5
68C
 10
260.809
 20
159.766
 30
0.000000
  70
    32
  0
VERTEX
  8
0
  5
68D
 10
260.998
 20
159.752
 30
0.000000
  70
    32
  0
VERTEX
  8
0
  5
68E
 10
261.188
 20
159.741
 30
0.000000
  70
    32
  0
VERTEX
  8
0
  5
68F
 10
261.379
 20
159.732
 30
0.000000
  70
    32
  0
VERTEX
  8
0
  5
690
 10
261.570
 20
159.726
 30
0.000000
  70
    32
  0
VERTEX
  8
0
  5
691
 10
261.761
 20
159.722
 30
0.000000
  70
    32
  0
VERTEX
  8
0
  5
692
 10
261.952
 20
159.720
 30
0.000000
  70
    32
  0
VERTEX
  8
0
  5
693
 10
262.143
 20
159.722
 30
0.000000
  70
    32
  0
VERTEX
  8
0
  5
694
 10
262.334
 20
159.726
 30
0.000000
  70
    32
  0
VERTEX
  8
0
  5
695
 10
262.525
 20
159.732
 30
0.000000
  70
    32
  0
VERTEX
  8
0
  5
696
 10
262.715
 20
159.741
 30
0.000000
  70
    32
  0
VERTEX
  8
0
  5
697
 10
262.905
 20
159.752
 30
0.000000
  70
    32
  0
VERTEX
  8
0
  5
698
 10
263.094
 20
159.766
 30
0.000000
  70
    32
  0
VERTEX
  8
0
  5
699
 10
263.283
 20
159.782
 30
0.000000
  70
    32
  0
VERTEX
  8
0
  5
69A
 10
263.470
 20
159.800
 30
0.000000
  70
    32
  0
VERTEX
  8
0
  5
69B
 10
263.657
 20
159.822
 30
0.000000
  70
    32
  0
VERTEX
  8
0
  5
69C
 10
263.842
 20
159.845
 30
0.000000
  70
    32
  0
VERTEX
  8
0
  5
69D
 10
264.026
 20
159.871
 30
0.000000
  70
    32
  0
VERTEX
  8
0
  5
69E
 10
264.208
 20
159.900
 30
0.000000
  70
    32
  0
VERTEX
  8
0
  5
69F
 10
264.389
 20
159.930
 30
0.000000
  70
    32
  0
VERTEX
  8
0
  5
6A0
 10
264.568
 20
159.963
 30
0.000000
  70
    32
  0
VERTEX
  8
0
  5
6A1
 10
264.746
 20
159.999
 30
0.000000
  70
    32
  0
VERTEX
  8
0
  5
6A2
 10
264.921
 20
160.037
 30
0.000000
  70
    32
  0
VERTEX
  8
0
  5
6A3
 10
265.094
 20
160.077
 30
0.000000
  70
    32
  0
VERTEX
  8
0
  5
6A4
 10
265.265
 20
160.119
 30
0.000000
  70
    32
  0
VERTEX
  8
0
  5
6A5
 10
265.434
 20
160.164
 30
0.000000
  70
    32
  0
VERTEX
  8
0
  5
6A6
 10
265.600
 20
160.210
 30
0.000000
  70
    32
  0
VERTEX
  8
0
  5
6A7
 10
265.764
 20
160.259
 30
0.000000
  70
    32
  0
VERTEX
  8
0
  5
6A8
 10
265.925
 20
160.310
 30
0.000000
  70
    32
  0
VERTEX
  8
0
  5
6A9
 10
266.083
 20
160.364
 30
0.000000
  70
    32
  0
VERTEX
  8
0
  5
6AA
 10
266.239
 20
160.419
 30
0.000000
  70
    32
  0
VERTEX
  8
0
  5
6AB
 10
266.391
 20
160.476
 30
0.000000
  70
    32
  0
VERTEX
  8
0
  5
6AC
 10
266.540
 20
160.535
 30
0.000000
  70
    32
  0
VERTEX
  8
0
  5
6AD
 10
266.686
 20
160.596
 30
0.000000
  70
    32
  0
VERTEX
  8
0
  5
6AE
 10
266.829
 20
160.659
 30
0.000000
  70
    32
  0
VERTEX
  8
0
  5
6AF
 10
266.968
 20
160.724
 30
0.000000
  70
    32
  0
VERTEX
  8
0
  5
6B0
 10
267.104
 20
160.791
 30
0.000000
  70
    32
  0
VERTEX
  8
0
  5
6B1
 10
267.236
 20
160.859
 30
0.000000
  70
    32
  0
VERTEX
  8
0
  5
6B2
 10
267.365
 20
160.929
 30
0.000000
  70
    32
  0
VERTEX
  8
0
  5
6B3
 10
267.489
 20
161.001
 30
0.000000
  70
    32
  0
VERTEX
  8
0
  5
6B4
 10
267.610
 20
161.075
 30
0.000000
  70
    32
  0
VERTEX
  8
0
  5
6B5
 10
267.727
 20
161.150
 30
0.000000
  70
    32
  0
VERTEX
  8
0
  5
6B6
 10
267.840
 20
161.226
 30
0.000000
  70
    32
  0
VERTEX
  8
0
  5
6B7
 10
267.948
 20
161.304
 30
0.000000
  70
    32
  0
VERTEX
  8
0
  5
6B8
 10
268.053
 20
161.383
 30
0.000000
  70
    32
  0
VERTEX
  8
0
  5
6B9
 10
268.153
 20
161.464
 30
0.000000
  70
    32
  0
VERTEX
  8
0
  5
6BA
 10
268.249
 20
161.546
 30
0.000000
  70
    32
  0
VERTEX
  8
0
  5
6BB
 10
268.340
 20
161.629
 30
0.000000
  70
    32
  0
VERTEX
  8
0
  5
6BC
 10
268.427
 20
161.713
 30
0.000000
  70
    32
  0
VERTEX
  8
0
  5
6BD
 10
268.509
 20
161.799
 30
0.000000
  70
    32
  0
VERTEX
  8
0
  5
6BE
 10
268.587
 20
161.885
 30
0.000000
  70
    32
  0
VERTEX
  8
0
  5
6BF
 10
268.660
 20
161.973
 30
0.000000
  70
    32
  0
VERTEX
  8
0
  5
6C0
 10
268.728
 20
162.061
 30
0.000000
  70
    32
  0
VERTEX
  8
0
  5
6C1
 10
268.792
 20
162.151
 30
0.000000
  70
    32
  0
VERTEX
  8
0
  5
6C2
 10
268.851
 20
162.241
 30
0.000000
  70
    32
  0
VERTEX
  8
0
  5
6C3
 10
268.905
 20
162.332
 30
0.000000
  70
    32
  0
VERTEX
  8
0
  5
6C4
 10
268.954
 20
162.423
 30
0.000000
  70
    32
  0
VERTEX
  8
0
  5
6C5
 10
268.998
 20
162.515
 30
0.000000
  70
    32
  0
VERTEX
  8
0
  5
6C6
 10
269.037
 20
162.608
 30
0.000000
  70
    32
  0
VERTEX
  8
0
  5
6C7
 10
269.071
 20
162.701
 30
0.000000
  70
    32
  0
VERTEX
  8
0
  5
6C8
 10
269.101
 20
162.794
 30
0.000000
  70
    32
  0
VERTEX
  8
0
  5
6C9
 10
269.125
 20
162.888
 30
0.000000
  70
    32
  0
VERTEX
  8
0
  5
6CA
 10
269.144
 20
162.983
 30
0.000000
  70
    32
  0
VERTEX
  8
0
  5
6CB
 10
269.158
 20
163.077
 30
0.000000
  70
    32
  0
VERTEX
  8
0
  5
6CC
 10
269.168
 20
163.172
 30
0.000000
  70
    32
  0
VERTEX
  8
0
  5
6CD
 10
269.172
 20
163.266
 30
0.000000
  70
    32
  0
VERTEX
  8
0
  5
6CE
 10
269.171
 20
163.361
 30
0.000000
  70
    32
  0
VERTEX
  8
0
  5
6CF
 10
269.165
 20
163.456
 30
0.000000
  70
    32
  0
VERTEX
  8
0
  5
6D0
 10
269.153
 20
163.550
 30
0.000000
  70
    32
  0
VERTEX
  8
0
  5
6D1
 10
269.137
 20
163.644
 30
0.000000
  70
    32
  0
VERTEX
  8
0
  5
6D2
 10
269.116
 20
163.738
 30
0.000000
  70
    32
  0
SEQEND
  8
0
  5
6D3
  0
LINE
  5
234
  8
0
 10
252.17184787282881
 20
146.31857737685041
 30
0.0
 11
251.67184787282889
 21
146.81857737685041
 31
0.0
  0
LINE
  5
235
  8
0
 10
271.73184787282878
 20
146.31857737685041
 30
0.0
 11
272.23184787282889
 21
146.81857737685041
 31
0.0
  0
LINE
  5
236
  8
0
 10
271.73184787282878
 20
146.31857737685041
 30
0.0
 11
252.17184787282881
 21
146.31857737685041
 31
0.0
  0
LINE
  5
237
  8
1
 10
261.95184787282892
 20
91.318577376850385
 30
0.0
 11
261.95184787282892
 21
199.31857737685041
 31
0.0
  0
LINE
  5
238
  8
0
 10
272.23184787282889
 20
146.81857737685041
 30
0.0
 11
251.67184787282889
 21
146.81857737685041
 31
0.0
  0
LINE
  5
239
  8
1
 10
275.45184787282892
 20
185.81857737685041
 30
0.0
 11
248.45184787282889
 21
185.81857737685041
 31
0.0
  0
LINE
  5
23A
  8
0
 10
269.55184787280928
 20
136.31857737685041
 30
0.0
 11
254.35184787284851
 21
136.31857737685041
 31
0.0
  0
LINE
  5
23B
  8
0
 10
269.55184787280928
 20
136.31857737685041
 30
0.0
 11
269.95184787282892
 21
136.71857737684451
 31
0.0
  0
LINE
  5
23C
  8
0
 10
269.95184787282892
 20
136.71857737684451
 30
0.0
 11
269.95184787282892
 21
146.31857737685041
 31
0.0
  0
LINE
  5
23D
  8
0
 10
253.95184787282889
 20
136.71857737684451
 30
0.0
 11
253.95184787282889
 21
146.31857737685041
 31
0.0
  0
LINE
  5
23E
  8
0
 10
254.35184787284851
 20
136.31857737685041
 30
0.0
 11
253.95184787282889
 21
136.71857737684451
 31
0.0
  0
LINE
  5
23F
  8
0
 10
269.95184787282892
 20
136.71857737684451
 30
0.0
 11
253.95184787282889
 21
136.71857737684451
 31
0.0
  0
ARC
  5
24D
  8
0
 10
119.3933922806598
 20
247.07439840319589
 30
0.0
 40
14.93361167600747
 50
330.65627625883559
 51
29.343723741164361
  0
LINE
  5
24E
  8
0
 10
63.524861967916252
 20
173.15527420747239
 30
0.0
 11
53.524861967916252
 21
173.1552742074723
 31
0.0
  0
ARC
  5
24F
  8
0
 10
58.524861967916252
 20
160.0785773768504
 30
0.0
 40
14.0
 50
101.05948003620369
 51
110.9248324276368
  0
ARC
  5
250
  8
0
 10
58.524861967916252
 20
160.0785773768504
 30
0.0
 40
14.0
 50
69.075167572363185
 51
78.940519963796319
  0
LINE
  5
251
  8
0
 10
61.210453150505309
 20
173.81857737685041
 30
0.0
 11
55.839270785327237
 21
173.81857737685041
 31
0.0
  0
LINE
  5
252
  8
0
 10
53.524861967916252
 20
173.15527420747239
 30
0.0
 11
53.524861967916252
 21
170.8011949472116
 31
0.0
  0
LINE
  5
253
  8
0
 10
63.524861967916252
 20
173.15527420747239
 30
0.0
 11
63.524861967916252
 21
170.8011949472116
 31
0.0
  0
LINE
  5
254
  8
0
 10
131.1283549203724
 20
173.15527420747239
 30
0.0
 11
121.1283549203724
 21
173.1552742074723
 31
0.0
  0
ARC
  5
255
  8
0
 10
126.1283549203724
 20
160.0785773768504
 30
0.0
 40
14.0
 50
101.05948003620369
 51
110.9248324276368
  0
ARC
  5
256
  8
0
 10
126.1283549203724
 20
160.0785773768504
 30
0.0
 40
14.0
 50
69.075167572363185
 51
78.940519963796319
  0
LINE
  5
257
  8
0
 10
128.81394610296149
 20
173.81857737685041
 30
0.0
 11
123.44276373778349
 21
173.81857737685041
 31
0.0
  0
LINE
  5
258
  8
0
 10
121.1283549203724
 20
173.15527420747239
 30
0.0
 11
121.1283549203725
 21
169.81857737685041
 31
0.0
  0
LINE
  5
259
  8
0
 10
131.1283549203724
 20
173.15527420747239
 30
0.0
 11
131.1283549203726
 21
172.49730545847461
 31
0.0
  0
LINE
  5
25A
  8
0
 10
118.5283549203921
 20
136.31857737685041
 30
0.0
 11
118.1283549203725
 21
136.71857737684451
 31
0.0
  0
LINE
  5
25B
  8
0
 10
118.1283549203725
 20
136.71857737684451
 30
0.0
 11
118.1283549203725
 21
146.31857737685041
 31
0.0
  0
LINE
  5
25C
  8
0
 10
118.1283549203725
 20
136.71857737684451
 30
0.0
 11
134.12835492037249
 21
136.71857737684451
 31
0.0
  0
LINE
  5
25D
  8
0
 10
118.5283549203922
 20
136.31857737685041
 30
0.0
 11
133.72835492035301
 21
136.31857737685041
 31
0.0
  0
LINE
  5
25E
  8
0
 10
134.12835492037249
 20
136.71857737684451
 30
0.0
 11
134.12835492037249
 21
146.31857737685041
 31
0.0
  0
LINE
  5
25F
  8
0
 10
133.72835492035301
 20
136.31857737685041
 30
0.0
 11
134.12835492037249
 21
136.71857737684451
 31
0.0
  0
LINE
  5
27A
  8
0
 10
50.524861967916308
 20
136.71857737684451
 30
0.0
 11
66.524861967916308
 21
136.71857737684451
 31
0.0
  0
LINE
  5
27B
  8
0
 10
66.12486196789672
 20
136.31857737685041
 30
0.0
 11
66.524861967916308
 21
136.71857737684451
 31
0.0
  0
LINE
  5
27C
  8
0
 10
66.524861967916308
 20
136.71857737684451
 30
0.0
 11
66.524861967916308
 21
146.31857737685041
 31
0.0
  0
LINE
  5
27D
  8
0
 10
50.524861967916308
 20
136.71857737684451
 30
0.0
 11
50.524861967916308
 21
146.31857737685041
 31
0.0
  0
LINE
  5
27E
  8
0
 10
50.92486196793584
 20
136.31857737685041
 30
0.0
 11
50.524861967916308
 21
136.71857737684451
 31
0.0
  0
LINE
  5
27F
  8
0
 10
50.924861967935897
 20
136.31857737685041
 30
0.0
 11
66.12486196789672
 21
136.31857737685041
 31
0.0
  0
LINE
  5
280
  8
0
 10
127.51757182123841
 20
246.54939840319591
 30
0.0
 11
128.87835492037249
 21
246.54939840319591
 31
0.0
  0
LINE
  5
281
  8
0
 10
127.5175718212385
 20
247.59939840319589
 30
0.0
 11
128.87835492037249
 21
247.59939840319589
 31
0.0
  0
LINE
  5
282
  8
0
 10
123.3783549203725
 20
247.59939840319589
 30
0.0
 11
124.7391380195064
 21
247.59939840319589
 31
0.0
  0
LINE
  5
283
  8
0
 10
123.3783549203725
 20
246.54939840319591
 30
0.0
 11
124.7391380195065
 21
246.54939840319591
 31
0.0
  0
ARC
  5
284
  8
0
 10
127.9590168263844
 20
248.13133154742721
 30
0.0
 40
0.6912500000000011
 50
163.3417582272229
 51
256.65824177277869
  0
ARC
  5
285
  8
0
 10
127.7083549203725
 20
247.07439840319589
 30
0.0
 40
0.3950000000000004
 50
283.34175822722131
 51
76.658241772778723
  0
ARC
  5
286
  8
0
 10
127.9590168263844
 20
246.01746525896471
 30
0.0
 40
0.6912500000000003
 50
103.34175822722121
 51
196.65824177277699
  0
ARC
  5
287
  8
0
 10
126.91835492037239
 20
245.70607826521649
 30
0.0
 40
0.3949999999999998
 50
223.34175822722079
 51
16.658241772777039
  0
ARC
  5
288
  8
0
 10
126.1283549203725
 20
244.9605321147335
 30
0.0
 40
0.6912500000000003
 50
43.341758227220872
 51
136.65824177277511
  0
ARC
  5
289
  8
0
 10
125.3383549203725
 20
245.70607826521649
 30
0.0
 40
0.3950000000000001
 50
163.3417582272229
 51
316.65824177277909
  0
ARC
  5
28A
  8
0
 10
124.2976930143605
 20
246.01746525896471
 30
0.0
 40
0.691250000000001
 50
343.3417582272229
 51
76.658241772778723
  0
ARC
  5
28B
  8
0
 10
126.91835492037239
 20
248.4427185411754
 30
0.0
 40
0.3950000000000002
 50
343.3417582272229
 51
136.65824177277909
  0
ARC
  5
28C
  8
0
 10
126.1283549203725
 20
249.18826469165839
 30
0.0
 40
0.6912499999999989
 50
223.34175822722079
 51
316.65824177277909
  0
ARC
  5
28D
  8
0
 10
125.3383549203725
 20
248.4427185411754
 30
0.0
 40
0.3949999999999998
 50
43.341758227220872
 51
196.65824177277699
  0
ARC
  5
28E
  8
0
 10
124.2976930143605
 20
248.13133154742721
 30
0.0
 40
0.6912500000000005
 50
283.34175822722131
 51
16.658241772777039
  0
ARC
  5
28F
  8
0
 10
124.5483549203725
 20
247.07439840319589
 30
0.0
 40
0.3949999999999999
 50
103.34175822722121
 51
256.65824177277869
  0
CIRCLE
  5
290
  8
0
 10
126.1283549203725
 20
247.07439840319589
 30
0.0
 40
5.0
  0
ARC
  5
291
  8
0
 10
126.1283549203725
 20
247.07439840319589
 30
0.0
 40
2.6855911825890351
 50
11.27321412590867
 51
168.72678587409129
  0
LINE
  5
292
  8
0
 10
128.87835492037249
 20
247.59939840319589
 30
0.0
 11
128.8783549203724
 21
246.54939840319591
 31
0.0
  0
LINE
  5
293
  8
0
 10
123.3783549203725
 20
247.59939840319589
 30
0.0
 11
123.3783549203725
 21
246.54939840319591
 31
0.0
  0
ARC
  5
294
  8
0
 10
126.1283549203725
 20
247.07439840319589
 30
0.0
 40
2.6855911825890351
 50
191.27321412590859
 51
348.72678587409132
  0
LINE
  5
295
  8
1
 10
45.024861967916308
 20
185.81857737685041
 30
0.0
 11
72.024861967916308
 21
185.81857737685041
 31
0.0
  0
INSERT
  5
296
  8
4
  2
KIPP-LOGO3
 10
140.30835492037249
 20
245.62151841044749
 30
0.0
  0
ARC
  5
297
  8
0
 10
138.1883393678614
 20
161.5204947425118
 30
0.0
 40
1.8
 50
270.0
 51
290.00000000000011
  0
POLYLINE
  5
298
  8
0
 10
53.524861967915861
 20
171.50848497667658
 30
0.0
 66
     1
 70
     8
  0
VERTEX
  8
0
  5
6D4
 10
53.5249
 20
171.508
 30
0.000000
  70
    32
  0
VERTEX
  8
0
  5
6D5
 10
53.4747
 20
171.478
 30
0.000000
  70
    32
  0
VERTEX
  8
0
  5
6D6
 10
53.4290
 20
171.448
 30
0.000000
  70
    32
  0
VERTEX
  8
0
  5
6D7
 10
53.3878
 20
171.417
 30
0.000000
  70
    32
  0
VERTEX
  8
0
  5
6D8
 10
53.3512
 20
171.386
 30
0.000000
  70
    32
  0
VERTEX
  8
0
  5
6D9
 10
53.3192
 20
171.355
 30
0.000000
  70
    32
  0
VERTEX
  8
0
  5
6DA
 10
53.2918
 20
171.324
 30
0.000000
  70
    32
  0
VERTEX
  8
0
  5
6DB
 10
53.2691
 20
171.292
 30
0.000000
  70
    32
  0
VERTEX
  8
0
  5
6DC
 10
53.2511
 20
171.261
 30
0.000000
  70
    32
  0
VERTEX
  8
0
  5
6DD
 10
53.2377
 20
171.229
 30
0.000000
  70
    32
  0
VERTEX
  8
0
  5
6DE
 10
53.2291
 20
171.197
 30
0.000000
  70
    32
  0
VERTEX
  8
0
  5
6DF
 10
53.2251
 20
171.165
 30
0.000000
  70
    32
  0
VERTEX
  8
0
  5
6E0
 10
53.2259
 20
171.134
 30
0.000000
  70
    32
  0
VERTEX
  8
0
  5
6E1
 10
53.2314
 20
171.102
 30
0.000000
  70
    32
  0
VERTEX
  8
0
  5
6E2
 10
53.2416
 20
171.070
 30
0.000000
  70
    32
  0
VERTEX
  8
0
  5
6E3
 10
53.2565
 20
171.039
 30
0.000000
  70
    32
  0
VERTEX
  8
0
  5
6E4
 10
53.2761
 20
171.007
 30
0.000000
  70
    32
  0
VERTEX
  8
0
  5
6E5
 10
53.3003
 20
170.976
 30
0.000000
  70
    32
  0
VERTEX
  8
0
  5
6E6
 10
53.3292
 20
170.944
 30
0.000000
  70
    32
  0
VERTEX
  8
0
  5
6E7
 10
53.3628
 20
170.913
 30
0.000000
  70
    32
  0
VERTEX
  8
0
  5
6E8
 10
53.4009
 20
170.882
 30
0.000000
  70
    32
  0
VERTEX
  8
0
  5
6E9
 10
53.4436
 20
170.852
 30
0.000000
  70
    32
  0
VERTEX
  8
0
  5
6EA
 10
53.4908
 20
170.821
 30
0.000000
  70
    32
  0
VERTEX
  8
0
  5
6EB
 10
53.5424
 20
170.791
 30
0.000000
  70
    32
  0
VERTEX
  8
0
  5
6EC
 10
53.5985
 20
170.762
 30
0.000000
  70
    32
  0
VERTEX
  8
0
  5
6ED
 10
53.6590
 20
170.732
 30
0.000000
  70
    32
  0
VERTEX
  8
0
  5
6EE
 10
53.7238
 20
170.703
 30
0.000000
  70
    32
  0
VERTEX
  8
0
  5
6EF
 10
53.7929
 20
170.675
 30
0.000000
  70
    32
  0
VERTEX
  8
0
  5
6F0
 10
53.8662
 20
170.646
 30
0.000000
  70
    32
  0
VERTEX
  8
0
  5
6F1
 10
53.9437
 20
170.619
 30
0.000000
  70
    32
  0
VERTEX
  8
0
  5
6F2
 10
54.0252
 20
170.591
 30
0.000000
  70
    32
  0
VERTEX
  8
0
  5
6F3
 10
54.1107
 20
170.565
 30
0.000000
  70
    32
  0
VERTEX
  8
0
  5
6F4
 10
54.2001
 20
170.538
 30
0.000000
  70
    32
  0
VERTEX
  8
0
  5
6F5
 10
54.2934
 20
170.513
 30
0.000000
  70
    32
  0
VERTEX
  8
0
  5
6F6
 10
54.3905
 20
170.488
 30
0.000000
  70
    32
  0
VERTEX
  8
0
  5
6F7
 10
54.4912
 20
170.463
 30
0.000000
  70
    32
  0
VERTEX
  8
0
  5
6F8
 10
54.5955
 20
170.439
 30
0.000000
  70
    32
  0
VERTEX
  8
0
  5
6F9
 10
54.7033
 20
170.416
 30
0.000000
  70
    32
  0
VERTEX
  8
0
  5
6FA
 10
54.8146
 20
170.393
 30
0.000000
  70
    32
  0
VERTEX
  8
0
  5
6FB
 10
54.9291
 20
170.372
 30
0.000000
  70
    32
  0
VERTEX
  8
0
  5
6FC
 10
55.0468
 20
170.350
 30
0.000000
  70
    32
  0
VERTEX
  8
0
  5
6FD
 10
55.1676
 20
170.330
 30
0.000000
  70
    32
  0
VERTEX
  8
0
  5
6FE
 10
55.2914
 20
170.310
 30
0.000000
  70
    32
  0
VERTEX
  8
0
  5
6FF
 10
55.4181
 20
170.291
 30
0.000000
  70
    32
  0
VERTEX
  8
0
  5
700
 10
55.5475
 20
170.273
 30
0.000000
  70
    32
  0
VERTEX
  8
0
  5
701
 10
55.6796
 20
170.255
 30
0.000000
  70
    32
  0
VERTEX
  8
0
  5
702
 10
55.8142
 20
170.239
 30
0.000000
  70
    32
  0
VERTEX
  8
0
  5
703
 10
55.9512
 20
170.223
 30
0.000000
  70
    32
  0
VERTEX
  8
0
  5
704
 10
56.0905
 20
170.208
 30
0.000000
  70
    32
  0
VERTEX
  8
0
  5
705
 10
56.2320
 20
170.194
 30
0.000000
  70
    32
  0
VERTEX
  8
0
  5
706
 10
56.3755
 20
170.180
 30
0.000000
  70
    32
  0
VERTEX
  8
0
  5
707
 10
56.5210
 20
170.168
 30
0.000000
  70
    32
  0
VERTEX
  8
0
  5
708
 10
56.6682
 20
170.156
 30
0.000000
  70
    32
  0
VERTEX
  8
0
  5
709
 10
56.8170
 20
170.145
 30
0.000000
  70
    32
  0
VERTEX
  8
0
  5
70A
 10
56.9674
 20
170.136
 30
0.000000
  70
    32
  0
VERTEX
  8
0
  5
70B
 10
57.1192
 20
170.127
 30
0.000000
  70
    32
  0
VERTEX
  8
0
  5
70C
 10
57.2722
 20
170.119
 30
0.000000
  70
    32
  0
VERTEX
  8
0
  5
70D
 10
57.4263
 20
170.112
 30
0.000000
  70
    32
  0
VERTEX
  8
0
  5
70E
 10
57.5814
 20
170.106
 30
0.000000
  70
    32
  0
VERTEX
  8
0
  5
70F
 10
57.7374
 20
170.100
 30
0.000000
  70
    32
  0
VERTEX
  8
0
  5
710
 10
57.8940
 20
170.096
 30
0.000000
  70
    32
  0
VERTEX
  8
0
  5
711
 10
58.0513
 20
170.093
 30
0.000000
  70
    32
  0
VERTEX
  8
0
  5
712
 10
58.2089
 20
170.090
 30
0.000000
  70
    32
  0
VERTEX
  8
0
  5
713
 10
58.3668
 20
170.089
 30
0.000000
  70
    32
  0
VERTEX
  8
0
  5
714
 10
58.5249
 20
170.089
 30
0.000000
  70
    32
  0
VERTEX
  8
0
  5
715
 10
58.6829
 20
170.089
 30
0.000000
  70
    32
  0
VERTEX
  8
0
  5
716
 10
58.8408
 20
170.090
 30
0.000000
  70
    32
  0
VERTEX
  8
0
  5
717
 10
58.9985
 20
170.093
 30
0.000000
  70
    32
  0
VERTEX
  8
0
  5
718
 10
59.1557
 20
170.096
 30
0.000000
  70
    32
  0
VERTEX
  8
0
  5
719
 10
59.3123
 20
170.100
 30
0.000000
  70
    32
  0
VERTEX
  8
0
  5
71A
 10
59.4683
 20
170.106
 30
0.000000
  70
    32
  0
VERTEX
  8
0
  5
71B
 10
59.6234
 20
170.112
 30
0.000000
  70
    32
  0
VERTEX
  8
0
  5
71C
 10
59.7775
 20
170.119
 30
0.000000
  70
    32
  0
VERTEX
  8
0
  5
71D
 10
59.9305
 20
170.127
 30
0.000000
  70
    32
  0
VERTEX
  8
0
  5
71E
 10
60.0823
 20
170.136
 30
0.000000
  70
    32
  0
VERTEX
  8
0
  5
71F
 10
60.2327
 20
170.145
 30
0.000000
  70
    32
  0
VERTEX
  8
0
  5
720
 10
60.3816
 20
170.156
 30
0.000000
  70
    32
  0
VERTEX
  8
0
  5
721
 10
60.5288
 20
170.168
 30
0.000000
  70
    32
  0
VERTEX
  8
0
  5
722
 10
60.6742
 20
170.180
 30
0.000000
  70
    32
  0
VERTEX
  8
0
  5
723
 10
60.8177
 20
170.194
 30
0.000000
  70
    32
  0
VERTEX
  8
0
  5
724
 10
60.9592
 20
170.208
 30
0.000000
  70
    32
  0
VERTEX
  8
0
  5
725
 10
61.0985
 20
170.223
 30
0.000000
  70
    32
  0
VERTEX
  8
0
  5
726
 10
61.2355
 20
170.239
 30
0.000000
  70
    32
  0
VERTEX
  8
0
  5
727
 10
61.3701
 20
170.255
 30
0.000000
  70
    32
  0
VERTEX
  8
0
  5
728
 10
61.5022
 20
170.273
 30
0.000000
  70
    32
  0
VERTEX
  8
0
  5
729
 10
61.6317
 20
170.291
 30
0.000000
  70
    32
  0
VERTEX
  8
0
  5
72A
 10
61.7583
 20
170.310
 30
0.000000
  70
    32
  0
VERTEX
  8
0
  5
72B
 10
61.8821
 20
170.330
 30
0.000000
  70
    32
  0
VERTEX
  8
0
  5
72C
 10
62.0029
 20
170.350
 30
0.000000
  70
    32
  0
VERTEX
  8
0
  5
72D
 10
62.1206
 20
170.372
 30
0.000000
  70
    32
  0
VERTEX
  8
0
  5
72E
 10
62.2352
 20
170.393
 30
0.000000
  70
    32
  0
VERTEX
  8
0
  5
72F
 10
62.3464
 20
170.416
 30
0.000000
  70
    32
  0
VERTEX
  8
0
  5
730
 10
62.4542
 20
170.439
 30
0.000000
  70
    32
  0
VERTEX
  8
0
  5
731
 10
62.5585
 20
170.463
 30
0.000000
  70
    32
  0
VERTEX
  8
0
  5
732
 10
62.6592
 20
170.488
 30
0.000000
  70
    32
  0
VERTEX
  8
0
  5
733
 10
62.7563
 20
170.513
 30
0.000000
  70
    32
  0
VERTEX
  8
0
  5
734
 10
62.8496
 20
170.538
 30
0.000000
  70
    32
  0
VERTEX
  8
0
  5
735
 10
62.9390
 20
170.565
 30
0.000000
  70
    32
  0
VERTEX
  8
0
  5
736
 10
63.0246
 20
170.591
 30
0.000000
  70
    32
  0
VERTEX
  8
0
  5
737
 10
63.1061
 20
170.619
 30
0.000000
  70
    32
  0
VERTEX
  8
0
  5
738
 10
63.1835
 20
170.646
 30
0.000000
  70
    32
  0
VERTEX
  8
0
  5
739
 10
63.2568
 20
170.675
 30
0.000000
  70
    32
  0
VERTEX
  8
0
  5
73A
 10
63.3259
 20
170.703
 30
0.000000
  70
    32
  0
VERTEX
  8
0
  5
73B
 10
63.3907
 20
170.732
 30
0.000000
  70
    32
  0
VERTEX
  8
0
  5
73C
 10
63.4512
 20
170.762
 30
0.000000
  70
    32
  0
VERTEX
  8
0
  5
73D
 10
63.5073
 20
170.791
 30
0.000000
  70
    32
  0
VERTEX
  8
0
  5
73E
 10
63.5590
 20
170.821
 30
0.000000
  70
    32
  0
VERTEX
  8
0
  5
73F
 10
63.6062
 20
170.852
 30
0.000000
  70
    32
  0
VERTEX
  8
0
  5
740
 10
63.6488
 20
170.882
 30
0.000000
  70
    32
  0
VERTEX
  8
0
  5
741
 10
63.6870
 20
170.913
 30
0.000000
  70
    32
  0
VERTEX
  8
0
  5
742
 10
63.7205
 20
170.944
 30
0.000000
  70
    32
  0
VERTEX
  8
0
  5
743
 10
63.7494
 20
170.976
 30
0.000000
  70
    32
  0
VERTEX
  8
0
  5
744
 10
63.7736
 20
171.007
 30
0.000000
  70
    32
  0
VERTEX
  8
0
  5
745
 10
63.7932
 20
171.039
 30
0.000000
  70
    32
  0
VERTEX
  8
0
  5
746
 10
63.8081
 20
171.070
 30
0.000000
  70
    32
  0
VERTEX
  8
0
  5
747
 10
63.8183
 20
171.102
 30
0.000000
  70
    32
  0
VERTEX
  8
0
  5
748
 10
63.8238
 20
171.134
 30
0.000000
  70
    32
  0
VERTEX
  8
0
  5
749
 10
63.8246
 20
171.165
 30
0.000000
  70
    32
  0
VERTEX
  8
0
  5
74A
 10
63.8207
 20
171.197
 30
0.000000
  70
    32
  0
VERTEX
  8
0
  5
74B
 10
63.8120
 20
171.229
 30
0.000000
  70
    32
  0
VERTEX
  8
0
  5
74C
 10
63.7987
 20
171.261
 30
0.000000
  70
    32
  0
VERTEX
  8
0
  5
74D
 10
63.7806
 20
171.292
 30
0.000000
  70
    32
  0
VERTEX
  8
0
  5
74E
 10
63.7579
 20
171.324
 30
0.000000
  70
    32
  0
VERTEX
  8
0
  5
74F
 10
63.7305
 20
171.355
 30
0.000000
  70
    32
  0
VERTEX
  8
0
  5
750
 10
63.6985
 20
171.386
 30
0.000000
  70
    32
  0
VERTEX
  8
0
  5
751
 10
63.6619
 20
171.417
 30
0.000000
  70
    32
  0
VERTEX
  8
0
  5
752
 10
63.6208
 20
171.448
 30
0.000000
  70
    32
  0
VERTEX
  8
0
  5
753
 10
63.5751
 20
171.478
 30
0.000000
  70
    32
  0
VERTEX
  8
0
  5
754
 10
63.5249
 20
171.508
 30
0.000000
  70
    32
  0
SEQEND
  8
0
  5
755
  0
POLYLINE
  5
299
  8
0
 10
63.194861967916353
 20
183.7707708822262
 30
0.0
 66
     1
 70
     8
  0
VERTEX
  8
0
  5
756
 10
63.1949
 20
183.771
 30
0.000000
  70
    32
  0
VERTEX
  8
0
  5
757
 10
63.1935
 20
183.880
 30
0.000000
  70
    32
  0
VERTEX
  8
0
  5
758
 10
63.1892
 20
183.989
 30
0.000000
  70
    32
  0
VERTEX
  8
0
  5
759
 10
63.1822
 20
184.097
 30
0.000000
  70
    32
  0
VERTEX
  8
0
  5
75A
 10
63.1724
 20
184.206
 30
0.000000
  70
    32
  0
VERTEX
  8
0
  5
75B
 10
63.1597
 20
184.314
 30
0.000000
  70
    32
  0
VERTEX
  8
0
  5
75C
 10
63.1443
 20
184.422
 30
0.000000
  70
    32
  0
VERTEX
  8
0
  5
75D
 10
63.1261
 20
184.530
 30
0.000000
  70
    32
  0
VERTEX
  8
0
  5
75E
 10
63.1051
 20
184.637
 30
0.000000
  70
    32
  0
VERTEX
  8
0
  5
75F
 10
63.0814
 20
184.744
 30
0.000000
  70
    32
  0
VERTEX
  8
0
  5
760
 10
63.0549
 20
184.850
 30
0.000000
  70
    32
  0
VERTEX
  8
0
  5
761
 10
63.0257
 20
184.955
 30
0.000000
  70
    32
  0
VERTEX
  8
0
  5
762
 10
62.9938
 20
185.060
 30
0.000000
  70
    32
  0
VERTEX
  8
0
  5
763
 10
62.9592
 20
185.164
 30
0.000000
  70
    32
  0
VERTEX
  8
0
  5
764
 10
62.9219
 20
185.267
 30
0.000000
  70
    32
  0
VERTEX
  8
0
  5
765
 10
62.8819
 20
185.369
 30
0.000000
  70
    32
  0
VERTEX
  8
0
  5
766
 10
62.8394
 20
185.470
 30
0.000000
  70
    32
  0
VERTEX
  8
0
  5
767
 10
62.7942
 20
185.571
 30
0.000000
  70
    32
  0
VERTEX
  8
0
  5
768
 10
62.7465
 20
185.670
 30
0.000000
  70
    32
  0
VERTEX
  8
0
  5
769
 10
62.6962
 20
185.768
 30
0.000000
  70
    32
  0
VERTEX
  8
0
  5
76A
 10
62.6434
 20
185.864
 30
0.000000
  70
    32
  0
VERTEX
  8
0
  5
76B
 10
62.5882
 20
185.960
 30
0.000000
  70
    32
  0
VERTEX
  8
0
  5
76C
 10
62.5305
 20
186.054
 30
0.000000
  70
    32
  0
VERTEX
  8
0
  5
76D
 10
62.4703
 20
186.147
 30
0.000000
  70
    32
  0
VERTEX
  8
0
  5
76E
 10
62.4078
 20
186.238
 30
0.000000
  70
    32
  0
VERTEX
  8
0
  5
76F
 10
62.3430
 20
186.328
 30
0.000000
  70
    32
  0
VERTEX
  8
0
  5
770
 10
62.2758
 20
186.416
 30
0.000000
  70
    32
  0
VERTEX
  8
0
  5
771
 10
62.2064
 20
186.503
 30
0.000000
  70
    32
  0
VERTEX
  8
0
  5
772
 10
62.1348
 20
186.588
 30
0.000000
  70
    32
  0
VERTEX
  8
0
  5
773
 10
62.0610
 20
186.672
 30
0.000000
  70
    32
  0
VERTEX
  8
0
  5
774
 10
61.9851
 20
186.753
 30
0.000000
  70
    32
  0
VERTEX
  8
0
  5
775
 10
61.9071
 20
186.833
 30
0.000000
  70
    32
  0
VERTEX
  8
0
  5
776
 10
61.8271
 20
186.911
 30
0.000000
  70
    32
  0
VERTEX
  8
0
  5
777
 10
61.7450
 20
186.987
 30
0.000000
  70
    32
  0
VERTEX
  8
0
  5
778
 10
61.6610
 20
187.062
 30
0.000000
  70
    32
  0
VERTEX
  8
0
  5
779
 10
61.5752
 20
187.134
 30
0.000000
  70
    32
  0
VERTEX
  8
0
  5
77A
 10
61.4875
 20
187.204
 30
0.000000
  70
    32
  0
VERTEX
  8
0
  5
77B
 10
61.3980
 20
187.272
 30
0.000000
  70
    32
  0
VERTEX
  8
0
  5
77C
 10
61.3068
 20
187.338
 30
0.000000
  70
    32
  0
VERTEX
  8
0
  5
77D
 10
61.2139
 20
187.402
 30
0.000000
  70
    32
  0
VERTEX
  8
0
  5
77E
 10
61.1194
 20
187.464
 30
0.000000
  70
    32
  0
VERTEX
  8
0
  5
77F
 10
61.0233
 20
187.523
 30
0.000000
  70
    32
  0
VERTEX
  8
0
  5
780
 10
60.9257
 20
187.580
 30
0.000000
  70
    32
  0
VERTEX
  8
0
  5
781
 10
60.8267
 20
187.635
 30
0.000000
  70
    32
  0
VERTEX
  8
0
  5
782
 10
60.7263
 20
187.688
 30
0.000000
  70
    32
  0
VERTEX
  8
0
  5
783
 10
60.6245
 20
187.738
 30
0.000000
  70
    32
  0
VERTEX
  8
0
  5
784
 10
60.5215
 20
187.786
 30
0.000000
  70
    32
  0
VERTEX
  8
0
  5
785
 10
60.4173
 20
187.831
 30
0.000000
  70
    32
  0
VERTEX
  8
0
  5
786
 10
60.3120
 20
187.874
 30
0.000000
  70
    32
  0
VERTEX
  8
0
  5
787
 10
60.2056
 20
187.915
 30
0.000000
  70
    32
  0
VERTEX
  8
0
  5
788
 10
60.0981
 20
187.952
 30
0.000000
  70
    32
  0
VERTEX
  8
0
  5
789
 10
59.9898
 20
187.988
 30
0.000000
  70
    32
  0
VERTEX
  8
0
  5
78A
 10
59.8805
 20
188.021
 30
0.000000
  70
    32
  0
VERTEX
  8
0
  5
78B
 10
59.7704
 20
188.051
 30
0.000000
  70
    32
  0
VERTEX
  8
0
  5
78C
 10
59.6596
 20
188.079
 30
0.000000
  70
    32
  0
VERTEX
  8
0
  5
78D
 10
59.5481
 20
188.104
 30
0.000000
  70
    32
  0
VERTEX
  8
0
  5
78E
 10
59.4359
 20
188.127
 30
0.000000
  70
    32
  0
VERTEX
  8
0
  5
78F
 10
59.3233
 20
188.147
 30
0.000000
  70
    32
  0
VERTEX
  8
0
  5
790
 10
59.2101
 20
188.164
 30
0.000000
  70
    32
  0
VERTEX
  8
0
  5
791
 10
59.0965
 20
188.179
 30
0.000000
  70
    32
  0
VERTEX
  8
0
  5
792
 10
58.9826
 20
188.191
 30
0.000000
  70
    32
  0
VERTEX
  8
0
  5
793
 10
58.8684
 20
188.200
 30
0.000000
  70
    32
  0
VERTEX
  8
0
  5
794
 10
58.7540
 20
188.207
 30
0.000000
  70
    32
  0
VERTEX
  8
0
  5
795
 10
58.6395
 20
188.211
 30
0.000000
  70
    32
  0
VERTEX
  8
0
  5
796
 10
58.5249
 20
188.212
 30
0.000000
  70
    32
  0
VERTEX
  8
0
  5
797
 10
58.4103
 20
188.211
 30
0.000000
  70
    32
  0
VERTEX
  8
0
  5
798
 10
58.2957
 20
188.207
 30
0.000000
  70
    32
  0
VERTEX
  8
0
  5
799
 10
58.1813
 20
188.200
 30
0.000000
  70
    32
  0
VERTEX
  8
0
  5
79A
 10
58.0671
 20
188.191
 30
0.000000
  70
    32
  0
VERTEX
  8
0
  5
79B
 10
57.9532
 20
188.179
 30
0.000000
  70
    32
  0
VERTEX
  8
0
  5
79C
 10
57.8396
 20
188.164
 30
0.000000
  70
    32
  0
VERTEX
  8
0
  5
79D
 10
57.7265
 20
188.147
 30
0.000000
  70
    32
  0
VERTEX
  8
0
  5
79E
 10
57.6138
 20
188.127
 30
0.000000
  70
    32
  0
VERTEX
  8
0
  5
79F
 10
57.5017
 20
188.104
 30
0.000000
  70
    32
  0
VERTEX
  8
0
  5
7A0
 10
57.3901
 20
188.079
 30
0.000000
  70
    32
  0
VERTEX
  8
0
  5
7A1
 10
57.2793
 20
188.051
 30
0.000000
  70
    32
  0
VERTEX
  8
0
  5
7A2
 10
57.1692
 20
188.021
 30
0.000000
  70
    32
  0
VERTEX
  8
0
  5
7A3
 10
57.0600
 20
187.988
 30
0.000000
  70
    32
  0
VERTEX
  8
0
  5
7A4
 10
56.9516
 20
187.952
 30
0.000000
  70
    32
  0
VERTEX
  8
0
  5
7A5
 10
56.8442
 20
187.915
 30
0.000000
  70
    32
  0
VERTEX
  8
0
  5
7A6
 10
56.7377
 20
187.874
 30
0.000000
  70
    32
  0
VERTEX
  8
0
  5
7A7
 10
56.6324
 20
187.831
 30
0.000000
  70
    32
  0
VERTEX
  8
0
  5
7A8
 10
56.5282
 20
187.786
 30
0.000000
  70
    32
  0
VERTEX
  8
0
  5
7A9
 10
56.4252
 20
187.738
 30
0.000000
  70
    32
  0
VERTEX
  8
0
  5
7AA
 10
56.3234
 20
187.688
 30
0.000000
  70
    32
  0
VERTEX
  8
0
  5
7AB
 10
56.2230
 20
187.635
 30
0.000000
  70
    32
  0
VERTEX
  8
0
  5
7AC
 10
56.1240
 20
187.580
 30
0.000000
  70
    32
  0
VERTEX
  8
0
  5
7AD
 10
56.0264
 20
187.523
 30
0.000000
  70
    32
  0
VERTEX
  8
0
  5
7AE
 10
55.9303
 20
187.464
 30
0.000000
  70
    32
  0
VERTEX
  8
0
  5
7AF
 10
55.8358
 20
187.402
 30
0.000000
  70
    32
  0
VERTEX
  8
0
  5
7B0
 10
55.7429
 20
187.338
 30
0.000000
  70
    32
  0
VERTEX
  8
0
  5
7B1
 10
55.6517
 20
187.272
 30
0.000000
  70
    32
  0
VERTEX
  8
0
  5
7B2
 10
55.5622
 20
187.204
 30
0.000000
  70
    32
  0
VERTEX
  8
0
  5
7B3
 10
55.4745
 20
187.134
 30
0.000000
  70
    32
  0
VERTEX
  8
0
  5
7B4
 10
55.3887
 20
187.062
 30
0.000000
  70
    32
  0
VERTEX
  8
0
  5
7B5
 10
55.3047
 20
186.987
 30
0.000000
  70
    32
  0
VERTEX
  8
0
  5
7B6
 10
55.2227
 20
186.911
 30
0.000000
  70
    32
  0
VERTEX
  8
0
  5
7B7
 10
55.1426
 20
186.833
 30
0.000000
  70
    32
  0
VERTEX
  8
0
  5
7B8
 10
55.0646
 20
186.753
 30
0.000000
  70
    32
  0
VERTEX
  8
0
  5
7B9
 10
54.9887
 20
186.672
 30
0.000000
  70
    32
  0
VERTEX
  8
0
  5
7BA
 10
54.9149
 20
186.588
 30
0.000000
  70
    32
  0
VERTEX
  8
0
  5
7BB
 10
54.8433
 20
186.503
 30
0.000000
  70
    32
  0
VERTEX
  8
0
  5
7BC
 10
54.7739
 20
186.416
 30
0.000000
  70
    32
  0
VERTEX
  8
0
  5
7BD
 10
54.7067
 20
186.328
 30
0.000000
  70
    32
  0
VERTEX
  8
0
  5
7BE
 10
54.6419
 20
186.238
 30
0.000000
  70
    32
  0
VERTEX
  8
0
  5
7BF
 10
54.5794
 20
186.147
 30
0.000000
  70
    32
  0
VERTEX
  8
0
  5
7C0
 10
54.5193
 20
186.054
 30
0.000000
  70
    32
  0
VERTEX
  8
0
  5
7C1
 10
54.4616
 20
185.960
 30
0.000000
  70
    32
  0
VERTEX
  8
0
  5
7C2
 10
54.4063
 20
185.864
 30
0.000000
  70
    32
  0
VERTEX
  8
0
  5
7C3
 10
54.3535
 20
185.768
 30
0.000000
  70
    32
  0
VERTEX
  8
0
  5
7C4
 10
54.3032
 20
185.670
 30
0.000000
  70
    32
  0
VERTEX
  8
0
  5
7C5
 10
54.2555
 20
185.571
 30
0.000000
  70
    32
  0
VERTEX
  8
0
  5
7C6
 10
54.2103
 20
185.470
 30
0.000000
  70
    32
  0
VERTEX
  8
0
  5
7C7
 10
54.1678
 20
185.369
 30
0.000000
  70
    32
  0
VERTEX
  8
0
  5
7C8
 10
54.1279
 20
185.267
 30
0.000000
  70
    32
  0
VERTEX
  8
0
  5
7C9
 10
54.0906
 20
185.164
 30
0.000000
  70
    32
  0
VERTEX
  8
0
  5
7CA
 10
54.0560
 20
185.060
 30
0.000000
  70
    32
  0
VERTEX
  8
0
  5
7CB
 10
54.0240
 20
184.955
 30
0.000000
  70
    32
  0
VERTEX
  8
0
  5
7CC
 10
53.9948
 20
184.850
 30
0.000000
  70
    32
  0
VERTEX
  8
0
  5
7CD
 10
53.9683
 20
184.744
 30
0.000000
  70
    32
  0
VERTEX
  8
0
  5
7CE
 10
53.9446
 20
184.637
 30
0.000000
  70
    32
  0
VERTEX
  8
0
  5
7CF
 10
53.9236
 20
184.530
 30
0.000000
  70
    32
  0
VERTEX
  8
0
  5
7D0
 10
53.9054
 20
184.422
 30
0.000000
  70
    32
  0
VERTEX
  8
0
  5
7D1
 10
53.8900
 20
184.314
 30
0.000000
  70
    32
  0
VERTEX
  8
0
  5
7D2
 10
53.8773
 20
184.206
 30
0.000000
  70
    32
  0
VERTEX
  8
0
  5
7D3
 10
53.8675
 20
184.097
 30
0.000000
  70
    32
  0
VERTEX
  8
0
  5
7D4
 10
53.8605
 20
183.989
 30
0.000000
  70
    32
  0
VERTEX
  8
0
  5
7D5
 10
53.8563
 20
183.880
 30
0.000000
  70
    32
  0
VERTEX
  8
0
  5
7D6
 10
53.8549
 20
183.771
 30
0.000000
  70
    32
  0
SEQEND
  8
0
  5
7D7
  0
ARC
  5
29A
  8
0
 10
44.02169495979274
 20
158.86906373332721
 30
0.0
 40
25.884346535150851
 50
9.845056586909342
 51
28.86811135944038
  0
POLYLINE
  5
29B
  8
0
 10
53.524861967916259
 20
172.99258017552935
 30
0.0
 66
     1
 70
     8
  0
VERTEX
  8
0
  5
7D8
 10
53.5249
 20
172.993
 30
0.000000
  70
    32
  0
VERTEX
  8
0
  5
7D9
 10
53.2763
 20
172.936
 30
0.000000
  70
    32
  0
VERTEX
  8
0
  5
7DA
 10
53.0357
 20
172.877
 30
0.000000
  70
    32
  0
VERTEX
  8
0
  5
7DB
 10
52.8034
 20
172.816
 30
0.000000
  70
    32
  0
VERTEX
  8
0
  5
7DC
 10
52.5797
 20
172.752
 30
0.000000
  70
    32
  0
VERTEX
  8
0
  5
7DD
 10
52.3650
 20
172.685
 30
0.000000
  70
    32
  0
VERTEX
  8
0
  5
7DE
 10
52.1595
 20
172.616
 30
0.000000
  70
    32
  0
VERTEX
  8
0
  5
7DF
 10
51.9637
 20
172.545
 30
0.000000
  70
    32
  0
VERTEX
  8
0
  5
7E0
 10
51.7777
 20
172.472
 30
0.000000
  70
    32
  0
VERTEX
  8
0
  5
7E1
 10
51.6020
 20
172.397
 30
0.000000
  70
    32
  0
VERTEX
  8
0
  5
7E2
 10
51.4366
 20
172.320
 30
0.000000
  70
    32
  0
VERTEX
  8
0
  5
7E3
 10
51.2820
 20
172.241
 30
0.000000
  70
    32
  0
VERTEX
  8
0
  5
7E4
 10
51.1383
 20
172.161
 30
0.000000
  70
    32
  0
VERTEX
  8
0
  5
7E5
 10
51.0057
 20
172.079
 30
0.000000
  70
    32
  0
VERTEX
  8
0
  5
7E6
 10
50.8845
 20
171.996
 30
0.000000
  70
    32
  0
VERTEX
  8
0
  5
7E7
 10
50.7748
 20
171.911
 30
0.000000
  70
    32
  0
VERTEX
  8
0
  5
7E8
 10
50.6768
 20
171.826
 30
0.000000
  70
    32
  0
VERTEX
  8
0
  5
7E9
 10
50.5906
 20
171.739
 30
0.000000
  70
    32
  0
VERTEX
  8
0
  5
7EA
 10
50.5164
 20
171.651
 30
0.000000
  70
    32
  0
VERTEX
  8
0
  5
7EB
 10
50.4543
 20
171.563
 30
0.000000
  70
    32
  0
VERTEX
  8
0
  5
7EC
 10
50.4043
 20
171.474
 30
0.000000
  70
    32
  0
VERTEX
  8
0
  5
7ED
 10
50.3666
 20
171.385
 30
0.000000
  70
    32
  0
VERTEX
  8
0
  5
7EE
 10
50.3412
 20
171.295
 30
0.000000
  70
    32
  0
VERTEX
  8
0
  5
7EF
 10
50.3281
 20
171.205
 30
0.000000
  70
    32
  0
VERTEX
  8
0
  5
7F0
 10
50.3274
 20
171.115
 30
0.000000
  70
    32
  0
VERTEX
  8
0
  5
7F1
 10
50.3391
 20
171.025
 30
0.000000
  70
    32
  0
VERTEX
  8
0
  5
7F2
 10
50.3631
 20
170.935
 30
0.000000
  70
    32
  0
VERTEX
  8
0
  5
7F3
 10
50.3994
 20
170.846
 30
0.000000
  70
    32
  0
VERTEX
  8
0
  5
7F4
 10
50.4480
 20
170.757
 30
0.000000
  70
    32
  0
VERTEX
  8
0
  5
7F5
 10
50.5088
 20
170.668
 30
0.000000
  70
    32
  0
VERTEX
  8
0
  5
7F6
 10
50.5816
 20
170.581
 30
0.000000
  70
    32
  0
VERTEX
  8
0
  5
7F7
 10
50.6665
 20
170.494
 30
0.000000
  70
    32
  0
VERTEX
  8
0
  5
7F8
 10
50.7631
 20
170.408
 30
0.000000
  70
    32
  0
VERTEX
  8
0
  5
7F9
 10
50.8715
 20
170.323
 30
0.000000
  70
    32
  0
VERTEX
  8
0
  5
7FA
 10
50.9915
 20
170.240
 30
0.000000
  70
    32
  0
VERTEX
  8
0
  5
7FB
 10
51.1228
 20
170.158
 30
0.000000
  70
    32
  0
VERTEX
  8
0
  5
7FC
 10
51.2652
 20
170.077
 30
0.000000
  70
    32
  0
VERTEX
  8
0
  5
7FD
 10
51.4186
 20
169.998
 30
0.000000
  70
    32
  0
VERTEX
  8
0
  5
7FE
 10
51.5828
 20
169.921
 30
0.000000
  70
    32
  0
VERTEX
  8
0
  5
7FF
 10
51.7574
 20
169.846
 30
0.000000
  70
    32
  0
VERTEX
  8
0
  5
800
 10
51.9422
 20
169.773
 30
0.000000
  70
    32
  0
VERTEX
  8
0
  5
801
 10
52.1369
 20
169.701
 30
0.000000
  70
    32
  0
VERTEX
  8
0
  5
802
 10
52.3413
 20
169.632
 30
0.000000
  70
    32
  0
VERTEX
  8
0
  5
803
 10
52.5550
 20
169.565
 30
0.000000
  70
    32
  0
VERTEX
  8
0
  5
804
 10
52.7777
 20
169.501
 30
0.000000
  70
    32
  0
VERTEX
  8
0
  5
805
 10
53.0091
 20
169.439
 30
0.000000
  70
    32
  0
VERTEX
  8
0
  5
806
 10
53.2488
 20
169.380
 30
0.000000
  70
    32
  0
VERTEX
  8
0
  5
807
 10
53.4964
 20
169.323
 30
0.000000
  70
    32
  0
VERTEX
  8
0
  5
808
 10
53.7516
 20
169.269
 30
0.000000
  70
    32
  0
VERTEX
  8
0
  5
809
 10
54.0141
 20
169.218
 30
0.000000
  70
    32
  0
VERTEX
  8
0
  5
80A
 10
54.2833
 20
169.170
 30
0.000000
  70
    32
  0
VERTEX
  8
0
  5
80B
 10
54.5589
 20
169.125
 30
0.000000
  70
    32
  0
VERTEX
  8
0
  5
80C
 10
54.8406
 20
169.083
 30
0.000000
  70
    32
  0
VERTEX
  8
0
  5
80D
 10
55.1277
 20
169.044
 30
0.000000
  70
    32
  0
VERTEX
  8
0
  5
80E
 10
55.4200
 20
169.009
 30
0.000000
  70
    32
  0
VERTEX
  8
0
  5
80F
 10
55.7170
 20
168.976
 30
0.000000
  70
    32
  0
VERTEX
  8
0
  5
810
 10
56.0182
 20
168.947
 30
0.000000
  70
    32
  0
VERTEX
  8
0
  5
811
 10
56.3232
 20
168.921
 30
0.000000
  70
    32
  0
VERTEX
  8
0
  5
812
 10
56.6315
 20
168.899
 30
0.000000
  70
    32
  0
VERTEX
  8
0
  5
813
 10
56.9427
 20
168.880
 30
0.000000
  70
    32
  0
VERTEX
  8
0
  5
814
 10
57.2563
 20
168.864
 30
0.000000
  70
    32
  0
VERTEX
  8
0
  5
815
 10
57.5717
 20
168.852
 30
0.000000
  70
    32
  0
VERTEX
  8
0
  5
816
 10
57.8886
 20
168.843
 30
0.000000
  70
    32
  0
VERTEX
  8
0
  5
817
 10
58.2065
 20
168.838
 30
0.000000
  70
    32
  0
VERTEX
  8
0
  5
818
 10
58.5249
 20
168.836
 30
0.000000
  70
    32
  0
VERTEX
  8
0
  5
819
 10
58.8432
 20
168.838
 30
0.000000
  70
    32
  0
VERTEX
  8
0
  5
81A
 10
59.1611
 20
168.843
 30
0.000000
  70
    32
  0
VERTEX
  8
0
  5
81B
 10
59.4780
 20
168.852
 30
0.000000
  70
    32
  0
VERTEX
  8
0
  5
81C
 10
59.7935
 20
168.864
 30
0.000000
  70
    32
  0
VERTEX
  8
0
  5
81D
 10
60.1070
 20
168.880
 30
0.000000
  70
    32
  0
VERTEX
  8
0
  5
81E
 10
60.4182
 20
168.899
 30
0.000000
  70
    32
  0
VERTEX
  8
0
  5
81F
 10
60.7265
 20
168.921
 30
0.000000
  70
    32
  0
VERTEX
  8
0
  5
820
 10
61.0315
 20
168.947
 30
0.000000
  70
    32
  0
VERTEX
  8
0
  5
821
 10
61.3327
 20
168.976
 30
0.000000
  70
    32
  0
VERTEX
  8
0
  5
822
 10
61.6297
 20
169.009
 30
0.000000
  70
    32
  0
VERTEX
  8
0
  5
823
 10
61.9220
 20
169.044
 30
0.000000
  70
    32
  0
VERTEX
  8
0
  5
824
 10
62.2092
 20
169.083
 30
0.000000
  70
    32
  0
VERTEX
  8
0
  5
825
 10
62.4908
 20
169.125
 30
0.000000
  70
    32
  0
VERTEX
  8
0
  5
826
 10
62.7664
 20
169.170
 30
0.000000
  70
    32
  0
VERTEX
  8
0
  5
827
 10
63.0357
 20
169.218
 30
0.000000
  70
    32
  0
VERTEX
  8
0
  5
828
 10
63.2981
 20
169.269
 30
0.000000
  70
    32
  0
VERTEX
  8
0
  5
829
 10
63.5533
 20
169.323
 30
0.000000
  70
    32
  0
VERTEX
  8
0
  5
82A
 10
63.8010
 20
169.380
 30
0.000000
  70
    32
  0
VERTEX
  8
0
  5
82B
 10
64.0407
 20
169.439
 30
0.000000
  70
    32
  0
VERTEX
  8
0
  5
82C
 10
64.2720
 20
169.501
 30
0.000000
  70
    32
  0
VERTEX
  8
0
  5
82D
 10
64.4947
 20
169.565
 30
0.000000
  70
    32
  0
VERTEX
  8
0
  5
82E
 10
64.7084
 20
169.632
 30
0.000000
  70
    32
  0
VERTEX
  8
0
  5
82F
 10
64.9128
 20
169.701
 30
0.000000
  70
    32
  0
VERTEX
  8
0
  5
830
 10
65.1075
 20
169.773
 30
0.000000
  70
    32
  0
VERTEX
  8
0
  5
831
 10
65.2924
 20
169.846
 30
0.000000
  70
    32
  0
VERTEX
  8
0
  5
832
 10
65.4670
 20
169.921
 30
0.000000
  70
    32
  0
VERTEX
  8
0
  5
833
 10
65.6311
 20
169.998
 30
0.000000
  70
    32
  0
VERTEX
  8
0
  5
834
 10
65.7845
 20
170.077
 30
0.000000
  70
    32
  0
VERTEX
  8
0
  5
835
 10
65.9270
 20
170.158
 30
0.000000
  70
    32
  0
VERTEX
  8
0
  5
836
 10
66.0583
 20
170.240
 30
0.000000
  70
    32
  0
VERTEX
  8
0
  5
837
 10
66.1782
 20
170.323
 30
0.000000
  70
    32
  0
VERTEX
  8
0
  5
838
 10
66.2866
 20
170.408
 30
0.000000
  70
    32
  0
VERTEX
  8
0
  5
839
 10
66.3833
 20
170.494
 30
0.000000
  70
    32
  0
VERTEX
  8
0
  5
83A
 10
66.4681
 20
170.581
 30
0.000000
  70
    32
  0
VERTEX
  8
0
  5
83B
 10
66.5410
 20
170.668
 30
0.000000
  70
    32
  0
VERTEX
  8
0
  5
83C
 10
66.6017
 20
170.757
 30
0.000000
  70
    32
  0
VERTEX
  8
0
  5
83D
 10
66.6503
 20
170.846
 30
0.000000
  70
    32
  0
VERTEX
  8
0
  5
83E
 10
66.6866
 20
170.935
 30
0.000000
  70
    32
  0
VERTEX
  8
0
  5
83F
 10
66.7106
 20
171.025
 30
0.000000
  70
    32
  0
VERTEX
  8
0
  5
840
 10
66.7223
 20
171.115
 30
0.000000
  70
    32
  0
VERTEX
  8
0
  5
841
 10
66.7216
 20
171.205
 30
0.000000
  70
    32
  0
VERTEX
  8
0
  5
842
 10
66.7085
 20
171.295
 30
0.000000
  70
    32
  0
VERTEX
  8
0
  5
843
 10
66.6831
 20
171.385
 30
0.000000
  70
    32
  0
VERTEX
  8
0
  5
844
 10
66.6454
 20
171.474
 30
0.000000
  70
    32
  0
VERTEX
  8
0
  5
845
 10
66.5955
 20
171.563
 30
0.000000
  70
    32
  0
VERTEX
  8
0
  5
846
 10
66.5333
 20
171.651
 30
0.000000
  70
    32
  0
VERTEX
  8
0
  5
847
 10
66.4591
 20
171.739
 30
0.000000
  70
    32
  0
VERTEX
  8
0
  5
848
 10
66.3729
 20
171.826
 30
0.000000
  70
    32
  0
VERTEX
  8
0
  5
849
 10
66.2749
 20
171.911
 30
0.000000
  70
    32
  0
VERTEX
  8
0
  5
84A
 10
66.1652
 20
171.996
 30
0.000000
  70
    32
  0
VERTEX
  8
0
  5
84B
 10
66.0440
 20
172.079
 30
0.000000
  70
    32
  0
VERTEX
  8
0
  5
84C
 10
65.9114
 20
172.161
 30
0.000000
  70
    32
  0
VERTEX
  8
0
  5
84D
 10
65.7677
 20
172.241
 30
0.000000
  70
    32
  0
VERTEX
  8
0
  5
84E
 10
65.6131
 20
172.320
 30
0.000000
  70
    32
  0
VERTEX
  8
0
  5
84F
 10
65.4478
 20
172.397
 30
0.000000
  70
    32
  0
VERTEX
  8
0
  5
850
 10
65.2720
 20
172.472
 30
0.000000
  70
    32
  0
VERTEX
  8
0
  5
851
 10
65.0860
 20
172.545
 30
0.000000
  70
    32
  0
VERTEX
  8
0
  5
852
 10
64.8902
 20
172.616
 30
0.000000
  70
    32
  0
VERTEX
  8
0
  5
853
 10
64.6848
 20
172.685
 30
0.000000
  70
    32
  0
VERTEX
  8
0
  5
854
 10
64.4700
 20
172.752
 30
0.000000
  70
    32
  0
VERTEX
  8
0
  5
855
 10
64.2463
 20
172.816
 30
0.000000
  70
    32
  0
VERTEX
  8
0
  5
856
 10
64.0140
 20
172.877
 30
0.000000
  70
    32
  0
VERTEX
  8
0
  5
857
 10
63.7734
 20
172.936
 30
0.000000
  70
    32
  0
VERTEX
  8
0
  5
858
 10
63.5249
 20
172.993
 30
0.000000
  70
    32
  0
SEQEND
  8
0
  5
859
  0
CIRCLE
  5
29C
  8
0
 10
126.1283549203725
 20
247.07439840319589
 30
0.0
 40
8.1986490362947393
  0
ARC
  5
29D
  8
0
 10
73.028028976039707
 20
158.86906373332761
 30
0.0
 40
25.884346535150641
 50
151.1318886405611
 51
170.1549434130915
  0
ARC
  5
29E
  8
0
 10
134.88606258353181
 20
173.0873501856716
 30
0.0
 40
0.4
 50
351.04741627041989
 51
104.9999999999944
  0
ARC
  5
29F
  8
0
 10
149.96461886485301
 20
167.1404558185445
 30
0.0
 40
15.0
 50
184.00615354851979
 51
209.64760128835161
  0
ARC
  5
2A0
  8
0
 10
164.91571345375851
 20
168.35659246493611
 30
0.0
 40
30.0
 50
171.0474162704183
 51
184.32821027205691
  0
LINE
  5
2A1
  8
0
 10
132.4109552646797
 20
239.7562147728911
 30
0.0
 11
190.52616511721999
 21
242.4043984031959
 31
0.0
  0
LINE
  5
2A2
  8
0
 10
132.4109552646797
 20
254.3925820335007
 30
0.0
 11
190.52616511721999
 21
251.7443984031959
 31
0.0
  0
LINE
  5
2A3
  8
1
 10
126.1283549203725
 20
231.07439840319589
 30
0.0
 11
126.1283549203725
 21
263.07439840319591
 31
0.0
  0
LINE
  5
2A4
  8
1
 10
211.12835492037229
 20
247.07439840319589
 30
0.0
 11
110.1283549203725
 21
247.07439840319589
 31
0.0
  0
LINE
  5
2A5
  8
1
 10
197.62835492037229
 20
233.57439840319589
 30
0.0
 11
197.62835492037229
 21
260.57439840319591
 31
0.0
  0
LINE
  5
2A6
  8
0
 10
47.524861967916308
 20
163.29488208788459
 30
0.0
 11
47.524861967916422
 21
159.72049474251179
 31
0.0
  0
LINE
  5
2A7
  8
0
 10
69.524861967916308
 20
163.29488208788459
 30
0.0
 11
69.524861967916422
 21
159.72049474251179
 31
0.0
  0
POLYLINE
  5
2A8
  8
0
 10
47.524861967916301
 20
163.29488208788459
 30
0.0
 66
     1
 70
     8
  0
VERTEX
  8
0
  5
85A
 10
47.5249
 20
163.295
 30
0.000000
  70
    32
  0
VERTEX
  8
0
  5
85B
 10
47.5282
 20
163.211
 30
0.000000
  70
    32
  0
VERTEX
  8
0
  5
85C
 10
47.5381
 20
163.128
 30
0.000000
  70
    32
  0
VERTEX
  8
0
  5
85D
 10
47.5547
 20
163.044
 30
0.000000
  70
    32
  0
VERTEX
  8
0
  5
85E
 10
47.5778
 20
162.961
 30
0.000000
  70
    32
  0
VERTEX
  8
0
  5
85F
 10
47.6076
 20
162.878
 30
0.000000
  70
    32
  0
VERTEX
  8
0
  5
860
 10
47.6439
 20
162.795
 30
0.000000
  70
    32
  0
VERTEX
  8
0
  5
861
 10
47.6868
 20
162.713
 30
0.000000
  70
    32
  0
VERTEX
  8
0
  5
862
 10
47.7362
 20
162.631
 30
0.000000
  70
    32
  0
VERTEX
  8
0
  5
863
 10
47.7921
 20
162.549
 30
0.000000
  70
    32
  0
VERTEX
  8
0
  5
864
 10
47.8545
 20
162.467
 30
0.000000
  70
    32
  0
VERTEX
  8
0
  5
865
 10
47.9233
 20
162.387
 30
0.000000
  70
    32
  0
VERTEX
  8
0
  5
866
 10
47.9985
 20
162.306
 30
0.000000
  70
    32
  0
VERTEX
  8
0
  5
867
 10
48.0801
 20
162.227
 30
0.000000
  70
    32
  0
VERTEX
  8
0
  5
868
 10
48.1679
 20
162.148
 30
0.000000
  70
    32
  0
VERTEX
  8
0
  5
869
 10
48.2619
 20
162.069
 30
0.000000
  70
    32
  0
VERTEX
  8
0
  5
86A
 10
48.3622
 20
161.992
 30
0.000000
  70
    32
  0
VERTEX
  8
0
  5
86B
 10
48.4686
 20
161.915
 30
0.000000
  70
    32
  0
VERTEX
  8
0
  5
86C
 10
48.5810
 20
161.839
 30
0.000000
  70
    32
  0
VERTEX
  8
0
  5
86D
 10
48.6994
 20
161.764
 30
0.000000
  70
    32
  0
VERTEX
  8
0
  5
86E
 10
48.8237
 20
161.690
 30
0.000000
  70
    32
  0
VERTEX
  8
0
  5
86F
 10
48.9539
 20
161.616
 30
0.000000
  70
    32
  0
VERTEX
  8
0
  5
870
 10
49.0898
 20
161.544
 30
0.000000
  70
    32
  0
VERTEX
  8
0
  5
871
 10
49.2315
 20
161.473
 30
0.000000
  70
    32
  0
VERTEX
  8
0
  5
872
 10
49.3787
 20
161.403
 30
0.000000
  70
    32
  0
VERTEX
  8
0
  5
873
 10
49.5314
 20
161.334
 30
0.000000
  70
    32
  0
VERTEX
  8
0
  5
874
 10
49.6896
 20
161.266
 30
0.000000
  70
    32
  0
VERTEX
  8
0
  5
875
 10
49.8531
 20
161.200
 30
0.000000
  70
    32
  0
VERTEX
  8
0
  5
876
 10
50.0217
 20
161.135
 30
0.000000
  70
    32
  0
VERTEX
  8
0
  5
877
 10
50.1956
 20
161.071
 30
0.000000
  70
    32
  0
VERTEX
  8
0
  5
878
 10
50.3744
 20
161.008
 30
0.000000
  70
    32
  0
VERTEX
  8
0
  5
879
 10
50.5581
 20
160.947
 30
0.000000
  70
    32
  0
VERTEX
  8
0
  5
87A
 10
50.7467
 20
160.887
 30
0.000000
  70
    32
  0
VERTEX
  8
0
  5
87B
 10
50.9399
 20
160.829
 30
0.000000
  70
    32
  0
VERTEX
  8
0
  5
87C
 10
51.1377
 20
160.772
 30
0.000000
  70
    32
  0
VERTEX
  8
0
  5
87D
 10
51.3400
 20
160.716
 30
0.000000
  70
    32
  0
VERTEX
  8
0
  5
87E
 10
51.5465
 20
160.663
 30
0.000000
  70
    32
  0
VERTEX
  8
0
  5
87F
 10
51.7573
 20
160.610
 30
0.000000
  70
    32
  0
VERTEX
  8
0
  5
880
 10
51.9722
 20
160.560
 30
0.000000
  70
    32
  0
VERTEX
  8
0
  5
881
 10
52.1910
 20
160.511
 30
0.000000
  70
    32
  0
VERTEX
  8
0
  5
882
 10
52.4136
 20
160.464
 30
0.000000
  70
    32
  0
VERTEX
  8
0
  5
883
 10
52.6399
 20
160.418
 30
0.000000
  70
    32
  0
VERTEX
  8
0
  5
884
 10
52.8697
 20
160.374
 30
0.000000
  70
    32
  0
VERTEX
  8
0
  5
885
 10
53.1030
 20
160.332
 30
0.000000
  70
    32
  0
VERTEX
  8
0
  5
886
 10
53.3395
 20
160.292
 30
0.000000
  70
    32
  0
VERTEX
  8
0
  5
887
 10
53.5791
 20
160.253
 30
0.000000
  70
    32
  0
VERTEX
  8
0
  5
888
 10
53.8218
 20
160.217
 30
0.000000
  70
    32
  0
VERTEX
  8
0
  5
889
 10
54.0672
 20
160.182
 30
0.000000
  70
    32
  0
VERTEX
  8
0
  5
88A
 10
54.3153
 20
160.149
 30
0.000000
  70
    32
  0
VERTEX
  8
0
  5
88B
 10
54.5660
 20
160.118
 30
0.000000
  70
    32
  0
VERTEX
  8
0
  5
88C
 10
54.8191
 20
160.089
 30
0.000000
  70
    32
  0
VERTEX
  8
0
  5
88D
 10
55.0744
 20
160.062
 30
0.000000
  70
    32
  0
VERTEX
  8
0
  5
88E
 10
55.3317
 20
160.036
 30
0.000000
  70
    32
  0
VERTEX
  8
0
  5
88F
 10
55.5910
 20
160.013
 30
0.000000
  70
    32
  0
VERTEX
  8
0
  5
890
 10
55.8521
 20
159.992
 30
0.000000
  70
    32
  0
VERTEX
  8
0
  5
891
 10
56.1147
 20
159.972
 30
0.000000
  70
    32
  0
VERTEX
  8
0
  5
892
 10
56.3789
 20
159.955
 30
0.000000
  70
    32
  0
VERTEX
  8
0
  5
893
 10
56.6443
 20
159.940
 30
0.000000
  70
    32
  0
VERTEX
  8
0
  5
894
 10
56.9108
 20
159.927
 30
0.000000
  70
    32
  0
VERTEX
  8
0
  5
895
 10
57.1783
 20
159.915
 30
0.000000
  70
    32
  0
VERTEX
  8
0
  5
896
 10
57.4467
 20
159.906
 30
0.000000
  70
    32
  0
VERTEX
  8
0
  5
897
 10
57.7157
 20
159.899
 30
0.000000
  70
    32
  0
VERTEX
  8
0
  5
898
 10
57.9851
 20
159.894
 30
0.000000
  70
    32
  0
VERTEX
  8
0
  5
899
 10
58.2549
 20
159.891
 30
0.000000
  70
    32
  0
VERTEX
  8
0
  5
89A
 10
58.5249
 20
159.890
 30
0.000000
  70
    32
  0
VERTEX
  8
0
  5
89B
 10
58.7948
 20
159.891
 30
0.000000
  70
    32
  0
VERTEX
  8
0
  5
89C
 10
59.0646
 20
159.894
 30
0.000000
  70
    32
  0
VERTEX
  8
0
  5
89D
 10
59.3341
 20
159.899
 30
0.000000
  70
    32
  0
VERTEX
  8
0
  5
89E
 10
59.6031
 20
159.906
 30
0.000000
  70
    32
  0
VERTEX
  8
0
  5
89F
 10
59.8714
 20
159.915
 30
0.000000
  70
    32
  0
VERTEX
  8
0
  5
8A0
 10
60.1389
 20
159.927
 30
0.000000
  70
    32
  0
VERTEX
  8
0
  5
8A1
 10
60.4054
 20
159.940
 30
0.000000
  70
    32
  0
VERTEX
  8
0
  5
8A2
 10
60.6709
 20
159.955
 30
0.000000
  70
    32
  0
VERTEX
  8
0
  5
8A3
 10
60.9350
 20
159.972
 30
0.000000
  70
    32
  0
VERTEX
  8
0
  5
8A4
 10
61.1976
 20
159.992
 30
0.000000
  70
    32
  0
VERTEX
  8
0
  5
8A5
 10
61.4587
 20
160.013
 30
0.000000
  70
    32
  0
VERTEX
  8
0
  5
8A6
 10
61.7180
 20
160.036
 30
0.000000
  70
    32
  0
VERTEX
  8
0
  5
8A7
 10
61.9754
 20
160.062
 30
0.000000
  70
    32
  0
VERTEX
  8
0
  5
8A8
 10
62.2307
 20
160.089
 30
0.000000
  70
    32
  0
VERTEX
  8
0
  5
8A9
 10
62.4837
 20
160.118
 30
0.000000
  70
    32
  0
VERTEX
  8
0
  5
8AA
 10
62.7344
 20
160.149
 30
0.000000
  70
    32
  0
VERTEX
  8
0
  5
8AB
 10
62.9825
 20
160.182
 30
0.000000
  70
    32
  0
VERTEX
  8
0
  5
8AC
 10
63.2280
 20
160.217
 30
0.000000
  70
    32
  0
VERTEX
  8
0
  5
8AD
 10
63.4706
 20
160.253
 30
0.000000
  70
    32
  0
VERTEX
  8
0
  5
8AE
 10
63.7102
 20
160.292
 30
0.000000
  70
    32
  0
VERTEX
  8
0
  5
8AF
 10
63.9467
 20
160.332
 30
0.000000
  70
    32
  0
VERTEX
  8
0
  5
8B0
 10
64.1800
 20
160.374
 30
0.000000
  70
    32
  0
VERTEX
  8
0
  5
8B1
 10
64.4098
 20
160.418
 30
0.000000
  70
    32
  0
VERTEX
  8
0
  5
8B2
 10
64.6361
 20
160.464
 30
0.000000
  70
    32
  0
VERTEX
  8
0
  5
8B3
 10
64.8588
 20
160.511
 30
0.000000
  70
    32
  0
VERTEX
  8
0
  5
8B4
 10
65.0776
 20
160.560
 30
0.000000
  70
    32
  0
VERTEX
  8
0
  5
8B5
 10
65.2924
 20
160.610
 30
0.000000
  70
    32
  0
VERTEX
  8
0
  5
8B6
 10
65.5032
 20
160.663
 30
0.000000
  70
    32
  0
VERTEX
  8
0
  5
8B7
 10
65.7098
 20
160.716
 30
0.000000
  70
    32
  0
VERTEX
  8
0
  5
8B8
 10
65.9120
 20
160.772
 30
0.000000
  70
    32
  0
VERTEX
  8
0
  5
8B9
 10
66.1098
 20
160.829
 30
0.000000
  70
    32
  0
VERTEX
  8
0
  5
8BA
 10
66.3030
 20
160.887
 30
0.000000
  70
    32
  0
VERTEX
  8
0
  5
8BB
 10
66.4916
 20
160.947
 30
0.000000
  70
    32
  0
VERTEX
  8
0
  5
8BC
 10
66.6753
 20
161.008
 30
0.000000
  70
    32
  0
VERTEX
  8
0
  5
8BD
 10
66.8542
 20
161.071
 30
0.000000
  70
    32
  0
VERTEX
  8
0
  5
8BE
 10
67.0280
 20
161.135
 30
0.000000
  70
    32
  0
VERTEX
  8
0
  5
8BF
 10
67.1967
 20
161.200
 30
0.000000
  70
    32
  0
VERTEX
  8
0
  5
8C0
 10
67.3601
 20
161.266
 30
0.000000
  70
    32
  0
VERTEX
  8
0
  5
8C1
 10
67.5183
 20
161.334
 30
0.000000
  70
    32
  0
VERTEX
  8
0
  5
8C2
 10
67.6710
 20
161.403
 30
0.000000
  70
    32
  0
VERTEX
  8
0
  5
8C3
 10
67.8183
 20
161.473
 30
0.000000
  70
    32
  0
VERTEX
  8
0
  5
8C4
 10
67.9599
 20
161.544
 30
0.000000
  70
    32
  0
VERTEX
  8
0
  5
8C5
 10
68.0958
 20
161.616
 30
0.000000
  70
    32
  0
VERTEX
  8
0
  5
8C6
 10
68.2260
 20
161.690
 30
0.000000
  70
    32
  0
VERTEX
  8
0
  5
8C7
 10
68.3503
 20
161.764
 30
0.000000
  70
    32
  0
VERTEX
  8
0
  5
8C8
 10
68.4687
 20
161.839
 30
0.000000
  70
    32
  0
VERTEX
  8
0
  5
8C9
 10
68.5812
 20
161.915
 30
0.000000
  70
    32
  0
VERTEX
  8
0
  5
8CA
 10
68.6875
 20
161.992
 30
0.000000
  70
    32
  0
VERTEX
  8
0
  5
8CB
 10
68.7878
 20
162.069
 30
0.000000
  70
    32
  0
VERTEX
  8
0
  5
8CC
 10
68.8818
 20
162.148
 30
0.000000
  70
    32
  0
VERTEX
  8
0
  5
8CD
 10
68.9697
 20
162.227
 30
0.000000
  70
    32
  0
VERTEX
  8
0
  5
8CE
 10
69.0512
 20
162.306
 30
0.000000
  70
    32
  0
VERTEX
  8
0
  5
8CF
 10
69.1264
 20
162.387
 30
0.000000
  70
    32
  0
VERTEX
  8
0
  5
8D0
 10
69.1952
 20
162.467
 30
0.000000
  70
    32
  0
VERTEX
  8
0
  5
8D1
 10
69.2576
 20
162.549
 30
0.000000
  70
    32
  0
VERTEX
  8
0
  5
8D2
 10
69.3135
 20
162.631
 30
0.000000
  70
    32
  0
VERTEX
  8
0
  5
8D3
 10
69.3629
 20
162.713
 30
0.000000
  70
    32
  0
VERTEX
  8
0
  5
8D4
 10
69.4058
 20
162.795
 30
0.000000
  70
    32
  0
VERTEX
  8
0
  5
8D5
 10
69.4421
 20
162.878
 30
0.000000
  70
    32
  0
VERTEX
  8
0
  5
8D6
 10
69.4719
 20
162.961
 30
0.000000
  70
    32
  0
VERTEX
  8
0
  5
8D7
 10
69.4951
 20
163.044
 30
0.000000
  70
    32
  0
VERTEX
  8
0
  5
8D8
 10
69.5116
 20
163.128
 30
0.000000
  70
    32
  0
VERTEX
  8
0
  5
8D9
 10
69.5215
 20
163.211
 30
0.000000
  70
    32
  0
VERTEX
  8
0
  5
8DA
 10
69.5249
 20
163.295
 30
0.000000
  70
    32
  0
SEQEND
  8
0
  5
8DB
  0
LINE
  5
2A9
  8
0
 10
48.244861967916329
 20
146.81857737685041
 30
0.0
 11
68.804861967916324
 21
146.81857737685041
 31
0.0
  0
LINE
  5
2AA
  8
1
 10
58.524861967916301
 20
91.318577376850385
 30
0.0
 11
58.524861967916301
 21
199.31857737685041
 31
0.0
  0
LINE
  5
2AB
  8
0
 10
48.24489467709617
 20
146.81482927608749
 30
0.0
 11
47.82486196791637
 21
159.42049474251181
 31
0.0
  0
LINE
  5
2AC
  8
0
 10
47.82486196791637
 20
159.42049474251181
 30
0.0
 11
69.224861967916411
 21
159.42049474251181
 31
0.0
  0
LINE
  5
2AD
  8
0
 10
48.744861967916329
 20
146.31857737685041
 30
0.0
 11
68.304861967916338
 21
146.31857737685041
 31
0.0
  0
LINE
  5
2AE
  8
0
 10
48.744861967916329
 20
146.31857737685041
 30
0.0
 11
48.244861967916329
 21
146.81857737685041
 31
0.0
  0
LINE
  5
2AF
  8
0
 10
68.304861967916338
 20
146.31857737685041
 30
0.0
 11
68.804861967916324
 21
146.81857737685041
 31
0.0
  0
LINE
  5
2B0
  8
0
 10
68.804829258736504
 20
146.81482927608749
 30
0.0
 11
69.224861967916354
 21
159.42049474251181
 31
0.0
  0
ARC
  5
2B1
  8
0
 10
47.524861967916422
 20
159.42049474251181
 30
0.0
 40
0.3
 50
0.0
 51
90.0
  0
LINE
  5
2B2
  8
0
 10
47.524861967916422
 20
159.72049474251179
 30
0.0
 11
69.524861967916422
 21
159.72049474251179
 31
0.0
  0
ARC
  5
2B3
  8
0
 10
69.524861967916422
 20
159.42049474251181
 30
0.0
 40
0.3
 50
90.0
 51
180.0
  0
ARC
  5
2B4
  8
0
 10
118.7013505969297
 20
167.9224487348032
 30
0.0
 40
1.1999999999999991
 50
105.0000000000028
 51
155.03735006939661
  0
ARC
  5
2B5
  8
0
 10
140.78123453874579
 20
157.05534422140951
 30
0.0
 40
25.808981987995541
 50
153.8526371598154
 51
173.69513078973591
  0
LINE
  5
2B6
  8
0
 10
115.1283549203724
 20
159.88965516799161
 30
0.0
 11
115.1283549203725
 21
159.72049474251179
 31
0.0
  0
LINE
  5
2B7
  8
0
 10
192.25767383207159
 20
179.23027071673141
 30
0.0
 11
138.80397562584761
 21
159.82904802509711
 31
0.0
  0
LINE
  5
2B8
  8
0
 10
189.4506980929506
 20
188.1371823050176
 30
0.0
 11
118.3907677428066
 21
169.08155972635009
 31
0.0
  0
LINE
  5
2B9
  8
1
 10
126.1283549203724
 20
163.3480714159418
 30
0.0
 11
210.5042086782359
 21
189.875964467838
 31
0.0
  0
LINE
  5
2BA
  8
1
 10
201.68788321368001
 20
172.9433985417493
 30
0.0
 11
193.56882662706479
 21
198.69375621195141
 31
0.0
  0
LINE
  5
2BB
  8
0
 10
115.1283549203725
 20
159.72049474251179
 30
0.0
 11
138.1883393678614
 21
159.72049474251179
 31
0.0
  0
ARC
  5
2BC
  8
0
 10
115.1283549203725
 20
159.42049474251181
 30
0.0
 40
0.3
 50
0.0
 51
90.0
  0
LINE
  5
2BD
  8
0
 10
135.9083549203726
 20
146.31857737685041
 30
0.0
 11
136.40835492037249
 21
146.81857737685041
 31
0.0
  0
LINE
  5
2BE
  8
0
 10
116.3483549203725
 20
146.31857737685041
 30
0.0
 11
115.8483549203725
 21
146.81857737685041
 31
0.0
  0
LINE
  5
2BF
  8
0
 10
116.3483549203725
 20
146.31857737685041
 30
0.0
 11
135.9083549203726
 21
146.31857737685041
 31
0.0
  0
LINE
  5
2C0
  8
0
 10
115.4283549203724
 20
159.42049474251181
 30
0.0
 11
136.82835492037259
 21
159.42049474251181
 31
0.0
  0
LINE
  5
2C1
  8
0
 10
115.84838762955241
 20
146.81482927608749
 30
0.0
 11
115.4283549203724
 21
159.42049474251181
 31
0.0
  0
LINE
  5
2C2
  8
1
 10
126.1283549203726
 20
91.318577376850385
 30
0.0
 11
126.1283549203724
 21
178.81857737685041
 31
0.0
  0
LINE
  5
2C3
  8
0
 10
115.8483549203725
 20
146.81857737685041
 30
0.0
 11
136.40835492037249
 21
146.81857737685041
 31
0.0
  0
LINE
  5
3D7
  8
0
 10
62.024861967916358
 20
96.318577376850385
 30
0.0
 11
63.524861967916372
 21
97.818577376850385
 31
0.0
  0
LINE
  5
3D8
  8
0
 10
63.524861967916372
 20
97.818577376850385
 30
0.0
 11
63.524861967916372
 21
135.91857737685041
 31
0.0
  0
ARC
  5
3D9
  8
0
 10
63.924861967916343
 20
135.91857737685041
 30
0.0
 40
0.4
 50
90.0
 51
180.0
  0
LINE
  5
3DA
  8
3
 10
63.524861967916372
 20
135.91857737681261
 30
0.0
 11
62.712861967916353
 21
134.51215212106669
 31
0.0
  0
LINE
  5
3DB
  8
3
 10
62.712861967916353
 20
134.51215212106669
 30
0.0
 11
62.712861967916353
 21
97.006577376850373
 31
0.0
  0
LINE
  5
3DC
  8
3
 10
54.33686196791637
 20
134.51215212106669
 30
0.0
 11
54.33686196791637
 21
97.006577376850373
 31
0.0
  0
LINE
  5
3DD
  8
3
 10
53.524861967916372
 20
135.91857737681261
 30
0.0
 11
54.33686196791637
 21
134.51215212106669
 31
0.0
  0
ARC
  5
3DE
  8
0
 10
53.124861967916381
 20
135.91857737685041
 30
0.0
 40
0.4
 50
0.0
 51
90.0
  0
LINE
  5
3DF
  8
0
 10
53.524861967916372
 20
97.818577376850385
 30
0.0
 11
53.524861967916372
 21
135.91857737685041
 31
0.0
  0
LINE
  5
3E0
  8
0
 10
55.024861967916358
 20
96.318577376850385
 30
0.0
 11
53.524861967916372
 21
97.818577376850385
 31
0.0
  0
LINE
  5
3E1
  8
0
 10
53.524861967916372
 20
134.51215212106891
 30
0.0
 11
63.524861967916372
 21
134.51215212106891
 31
0.0
  0
LINE
  5
3E2
  8
0
 10
53.524861967916372
 20
97.818577376850385
 30
0.0
 11
63.524861967916372
 21
97.818577376850385
 31
0.0
  0
LINE
  5
3E3
  8
0
 10
55.024861967916358
 20
96.318577376850385
 30
0.0
 11
62.024861967916358
 21
96.318577376850385
 31
0.0
  0
LINE
  5
3E5
  8
0
 10
122.6283549203726
 20
96.318577376850556
 30
0.0
 11
129.6283549203726
 21
96.318577376850556
 31
0.0
  0
LINE
  5
3E6
  8
0
 10
121.1283549203726
 20
97.818577376850556
 30
0.0
 11
131.1283549203726
 21
97.818577376850556
 31
0.0
  0
LINE
  5
3E7
  8
0
 10
121.1283549203726
 20
134.51215212106899
 30
0.0
 11
131.1283549203726
 21
134.51215212106899
 31
0.0
  0
LINE
  5
3E8
  8
0
 10
122.6283549203726
 20
96.318577376850556
 30
0.0
 11
121.1283549203726
 21
97.818577376850556
 31
0.0
  0
LINE
  5
3E9
  8
0
 10
121.1283549203726
 20
97.818577376850556
 30
0.0
 11
121.1283549203726
 21
135.91857737685061
 31
0.0
  0
ARC
  5
3EA
  8
0
 10
120.7283549203726
 20
135.91857737685061
 30
0.0
 40
0.4
 50
0.0
 51
90.0
  0
LINE
  5
3EB
  8
3
 10
121.1283549203726
 20
135.91857737681281
 30
0.0
 11
121.9403549203726
 21
134.51215212106689
 31
0.0
  0
LINE
  5
3EC
  8
3
 10
121.9403549203726
 20
134.51215212106689
 30
0.0
 11
121.9403549203726
 21
97.006577376850544
 31
0.0
  0
LINE
  5
3ED
  8
3
 10
130.31635492037259
 20
134.51215212106689
 30
0.0
 11
130.31635492037259
 21
97.006577376850544
 31
0.0
  0
LINE
  5
3EE
  8
3
 10
131.1283549203726
 20
135.91857737681281
 30
0.0
 11
130.31635492037259
 21
134.51215212106689
 31
0.0
  0
ARC
  5
3EF
  8
0
 10
131.52835492037261
 20
135.91857737685061
 30
0.0
 40
0.4
 50
90.0
 51
180.0
  0
LINE
  5
3F0
  8
0
 10
131.1283549203726
 20
97.818577376850556
 30
0.0
 11
131.1283549203726
 21
135.91857737685061
 31
0.0
  0
LINE
  5
3F1
  8
0
 10
129.6283549203726
 20
96.318577376850556
 30
0.0
 11
131.1283549203726
 21
97.818577376850556
 31
0.0
  0
LINE
  5
3F2
  8
0
 10
265.45184787282881
 20
96.318577376850556
 30
0.0
 11
266.95184787282892
 21
97.818577376850556
 31
0.0
  0
LINE
  5
3F3
  8
0
 10
266.95184787282892
 20
97.818577376850556
 30
0.0
 11
266.95184787282892
 21
135.91857737685061
 31
0.0
  0
ARC
  5
3F4
  8
0
 10
267.3518478728289
 20
135.91857737685061
 30
0.0
 40
0.4
 50
90.0
 51
180.0
  0
LINE
  5
3F5
  8
3
 10
266.95184787282892
 20
135.91857737681281
 30
0.0
 11
266.13984787282891
 21
134.51215212106689
 31
0.0
  0
LINE
  5
3F6
  8
3
 10
266.13984787282891
 20
134.51215212106689
 30
0.0
 11
266.13984787282891
 21
97.006577376850544
 31
0.0
  0
LINE
  5
3F7
  8
3
 10
257.76384787282888
 20
134.51215212106689
 30
0.0
 11
257.76384787282888
 21
97.006577376850544
 31
0.0
  0
LINE
  5
3F8
  8
3
 10
256.95184787282881
 20
135.91857737681281
 30
0.0
 11
257.76384787282888
 21
134.51215212106689
 31
0.0
  0
ARC
  5
3F9
  8
0
 10
256.55184787282889
 20
135.91857737685061
 30
0.0
 40
0.4
 50
0.0
 51
90.0
  0
LINE
  5
3FA
  8
0
 10
256.95184787282881
 20
97.818577376850556
 30
0.0
 11
256.95184787282881
 21
135.91857737685061
 31
0.0
  0
LINE
  5
3FB
  8
0
 10
258.45184787282892
 20
96.318577376850556
 30
0.0
 11
256.95184787282881
 21
97.818577376850556
 31
0.0
  0
LINE
  5
3FC
  8
0
 10
256.95184787282881
 20
134.51215212106899
 30
0.0
 11
266.95184787282892
 21
134.51215212106899
 31
0.0
  0
LINE
  5
3FD
  8
0
 10
256.95184787282881
 20
97.818577376850556
 30
0.0
 11
266.95184787282892
 21
97.818577376850556
 31
0.0
  0
LINE
  5
3FE
  8
0
 10
258.45184787282892
 20
96.318577376850556
 30
0.0
 11
265.45184787282881
 21
96.318577376850556
 31
0.0
  0
TEXT
  5
4B7
  8
0
 62
     3
 10
0.0
 20
0.0
 30
0.0
 40
10.0
  1
KR10X40
  7
STANDARD1
  0
ENDSEC
  0
EOF
