  0
SECTION
  2
HEADER
  9
$ACADVER
  1
AC1009
  9
$INSBASE
 10
0.0
 20
0.0
 30
0.0
  9
$EXTMIN
 10
0.0
 20
-2.960436562073669
 30
0.0
  9
$EXTMAX
 10
311.70565375783031
 20
294.48433401506071
 30
0.0
  9
$LIMMIN
 10
0.0
 20
0.0
  9
$LIMMAX
 10
375.0
 20
270.0
  9
$ORTHOMODE
 70
     1
  9
$REGENMODE
 70
     1
  9
$FILLMODE
 70
     1
  9
$QTEXTMODE
 70
     0
  9
$MIRRTEXT
 70
     0
  9
$DRAGMODE
 70
     2
  9
$LTSCALE
 40
5.0
  9
$OSMODE
 70
  3071
  9
$ATTMODE
 70
     1
  9
$TEXTSIZE
 40
0.2
  9
$TRACEWID
 40
0.05
  9
$TEXTSTYLE
  7
STANDARD
  9
$CLAYER
  8
0
  9
$CELTYPE
  6
BYLAYER
  9
$CECOLOR
 62
   256
  9
$DIMSCALE
 40
1.0
  9
$DIMASZ
 40
3.0
  9
$DIMEXO
 40
2.0
  9
$DIMDLI
 40
0.38
  9
$DIMRND
 40
0.0
  9
$DIMDLE
 40
0.0
  9
$DIMEXE
 40
2.0
  9
$DIMTP
 40
0.0
  9
$DIMTM
 40
0.0
  9
$DIMTXT
 40
3.2000000000000002
  9
$DIMCEN
 40
0.0
  9
$DIMTSZ
 40
0.0
  9
$DIMTOL
 70
     0
  9
$DIMLIM
 70
     0
  9
$DIMTIH
 70
     0
  9
$DIMTOH
 70
     0
  9
$DIMSE1
 70
     0
  9
$DIMSE2
 70
     0
  9
$DIMTAD
 70
     1
  9
$DIMZIN
 70
     0
  9
$DIMBLK
  1

  9
$DIMASO
 70
     1
  9
$DIMSHO
 70
     0
  9
$DIMPOST
  1

  9
$DIMAPOST
  1

  9
$DIMALT
 70
     0
  9
$DIMALTD
 70
     2
  9
$DIMALTF
 40
25.399999999999999
  9
$DIMLFAC
 40
1.0
  9
$DIMTOFL
 70
     0
  9
$DIMTVP
 40
1.6000000000000001
  9
$DIMTIX
 70
     1
  9
$DIMSOXD
 70
     0
  9
$DIMSAH
 70
     0
  9
$DIMBLK1
  1

  9
$DIMBLK2
  1

  9
$DIMSTYLE
  2
STANDARD
  9
$DIMCLRD
 70
     0
  9
$DIMCLRE
 70
     0
  9
$DIMCLRT
 70
     0
  9
$DIMTFAC
 40
1.0
  9
$DIMGAP
 40
0.09
  9
$LUNITS
 70
     2
  9
$LUPREC
 70
     4
  9
$SKETCHINC
 40
0.1
  9
$FILLETRAD
 40
0.0
  9
$AUNITS
 70
     0
  9
$AUPREC
 70
     4
  9
$MENU
  1
E:\r13\win\SUPPORT\ACAD
  9
$ELEVATION
 40
0.0
  9
$PELEVATION
 40
0.0
  9
$THICKNESS
 40
0.0
  9
$LIMCHECK
 70
     0
  9
$BLIPMODE
 70
     0
  9
$CHAMFERA
 40
0.0
  9
$CHAMFERB
 40
0.0
  9
$SKPOLY
 70
     0
  9
$TDCREATE
 40
2449840.6136458339
  9
$TDUPDATE
 40
2456597.4902168871
  9
$TDINDWG
 40
0.0196570833
  9
$TDUSRTIMER
 40
0.0196570833
  9
$USRTIMER
 70
     1
  9
$ANGBASE
 50
0.0
  9
$ANGDIR
 70
     0
  9
$PDMODE
 70
     0
  9
$PDSIZE
 40
0.0
  9
$PLINEWID
 40
0.0
  9
$COORDS
 70
     1
  9
$SPLFRAME
 70
     0
  9
$SPLINETYPE
 70
     6
  9
$SPLINESEGS
 70
     8
  9
$ATTDIA
 70
     0
  9
$ATTREQ
 70
     1
  9
$HANDLING
 70
     1
  9
$HANDSEED
  5
5E1
  9
$SURFTAB1
 70
     6
  9
$SURFTAB2
 70
     6
  9
$SURFTYPE
 70
     6
  9
$SURFU
 70
     6
  9
$SURFV
 70
     6
  9
$UCSNAME
  2

  9
$UCSORG
 10
0.0
 20
0.0
 30
0.0
  9
$UCSXDIR
 10
1.0
 20
0.0
 30
0.0
  9
$UCSYDIR
 10
0.0
 20
1.0
 30
0.0
  9
$PUCSNAME
  2

  9
$PUCSORG
 10
0.0
 20
0.0
 30
0.0
  9
$PUCSXDIR
 10
1.0
 20
0.0
 30
0.0
  9
$PUCSYDIR
 10
0.0
 20
1.0
 30
0.0
  9
$USERI1
 70
     0
  9
$USERI2
 70
     1
  9
$USERI3
 70
     1
  9
$USERI4
 70
     0
  9
$USERI5
 70
     0
  9
$USERR1
 40
0.0
  9
$USERR2
 40
0.0
  9
$USERR3
 40
0.0
  9
$USERR4
 40
0.0
  9
$USERR5
 40
0.0
  9
$WORLDVIEW
 70
     1
  9
$SHADEDGE
 70
     3
  9
$SHADEDIF
 70
    70
  9
$TILEMODE
 70
     1
  9
$MAXACTVP
 70
    16
  9
$PLIMCHECK
 70
     0
  9
$PEXTMIN
 10
1.0000000000000000E+020
 20
1.0000000000000000E+020
 30
1.0000000000000000E+020
  9
$PEXTMAX
 10
-1.0000000000000000E+020
 20
-1.0000000000000000E+020
 30
-1.0000000000000000E+020
  9
$PLIMMIN
 10
0.0
 20
0.0
  9
$PLIMMAX
 10
12.0
 20
9.0
  9
$UNITMODE
 70
     0
  9
$VISRETAIN
 70
     0
  9
$PLINEGEN
 70
     0
  9
$PSLTSCALE
 70
     0
  0
ENDSEC
  0
SECTION
  2
TABLES
  0
TABLE
  2
VPORT
 70
     1
  0
VPORT
  2
*ACTIVE
 70
     0
 10
0.0
 20
0.0
 11
1.0
 21
1.0
 12
187.49427839065231
 22
177.7416523702031
 13
0.0
 23
0.0
 14
10.0
 24
10.0
 15
10.0
 25
10.0
 16
0.0
 26
0.0
 36
1.0
 17
0.0
 27
0.0
 37
0.0
 40
364.85183582052417
 41
1.9089595375722539
 42
50.0
 43
0.0
 44
0.0
 50
0.0
 51
0.0
 71
     0
 72
   500
 73
     1
 74
     0
 75
     0
 76
     0
 77
     0
 78
     1
  0
ENDTAB
  0
TABLE
  2
LTYPE
 70
     3
  0
LTYPE
  2
CONTINUOUS
 70
     0
  3
Solid Line
 72
    65
 73
     0
 40
0.0
  0
LTYPE
  2
CENTER
 70
     0
  3
____ _ ____ _ ____ _ ____ _ ____ _ ____ _ ____
 72
    65
 73
     4
 40
2.0
 49
1.25
 49
-0.25
 49
0.25
 49
-0.25
  0
LTYPE
  2
PHANTOM2
 70
     0
  3
___ _ _ ___ _ _ ___ _ _ ___ _ _
 72
    65
 73
     6
 40
1.25
 49
0.625
 49
-0.125
 49
0.125
 49
-0.125
 49
0.125
 49
-0.125
  0
ENDTAB
  0
TABLE
  2
LAYER
 70
     4
  0
LAYER
  2
0
 70
     0
 62
     7
  6
CONTINUOUS
  0
LAYER
  2
1
 70
     0
 62
     1
  6
CENTER
  0
LAYER
  2
3
 70
     0
 62
     3
  6
CONTINUOUS
  0
LAYER
  2
4
 70
     0
 62
     4
  6
CONTINUOUS
  0
ENDTAB
  0
TABLE
  2
STYLE
 70
     2
  0
STYLE
  2
STANDARD
 70
     0
 40
0.0
 41
1.0
 50
0.0
 71
     0
 42
0.2
  3
TXT
  4
BIGFONT
  0
STYLE
  2
STANDARD1
 70
     0
 40
0.0
 41
1.0
 50
0.0
 71
     0
 42
3.0
  3
txt
  4

  0
ENDTAB
  0
TABLE
  2
VIEW
 70
     1
  0
VIEW
  2
ALL
 70
     0
 40
270.0
 10
220.99159663865549
 20
135.0
 41
0.0
 11
0.0
 21
0.0
 31
1.0
 12
0.0
 22
0.0
 32
0.0
 42
0.0
 43
0.0
 44
0.0
 50
0.0
 71
     0
  0
ENDTAB
  0
TABLE
  2
UCS
 70
     0
  0
ENDTAB
  0
TABLE
  2
APPID
 70
     3
  0
APPID
  2
ACAD
 70
     0
  0
APPID
  2
ACAD_MLEADERVER
 70
     0
  0
APPID
  2
ACAD_NAV_VCDISPLAY
 70
     0
  0
ENDTAB
  0
TABLE
  2
DIMSTYLE
 70
     1
  0
DIMSTYLE
  2
STANDARD
 70
     0
  3

  4

  5

  6

  7

 40
1.0
 41
0.18
 42
0.0625
 43
0.38
 44
0.18
 45
0.0
 46
0.0
 47
0.0
 48
0.0
140
0.18
141
0.09
142
0.0
143
25.399999999999999
144
1.0
145
0.0
146
1.0
147
0.09
 71
     0
 72
     0
 73
     1
 74
     1
 75
     0
 76
     0
 77
     0
 78
     0
170
     0
171
     2
172
     0
173
     0
174
     0
175
     0
176
     0
177
     0
178
     0
  0
ENDTAB
  0
ENDSEC
  0
SECTION
  2
BLOCKS
  0
BLOCK
  8
0
  2
$MODEL_SPACE
 70
     0
 10
0.0
 20
0.0
 30
0.0
  3
$MODEL_SPACE
  1

  0
ENDBLK
  5
167
  8
0
  0
BLOCK
 67
     1
  8
0
  2
$PAPER_SPACE
 70
     0
 10
0.0
 20
0.0
 30
0.0
  3
$PAPER_SPACE
  1

  0
ENDBLK
  5
165
 67
     1
  8
0
  0
BLOCK
  8
0
  2
KIPP-LOGO3
 70
     0
 10
0.0
 20
0.0
 30
0.0
  3
KIPP-LOGO3
  1

  0
POLYLINE
  5
1BD
  8
3
 66
     1
 10
0.0
 20
0.0
 30
0.0
 70
     1
  0
VERTEX
  5
1BE
  8
3
 10
3.0758528956400961
 20
2.197037782600062
 30
0.0
 42
1.0000000552842581
  0
VERTEX
  5
1BF
  8
3
 10
2.3225827987486691
 20
2.197037782600062
 30
0.0
 42
1.0000000552842581
  0
SEQEND
  5
1C0
  8
3
  0
LINE
  5
1C1
  8
3
 10
2.6161365865077921
 20
0.0184625023747742
 30
0.0
 11
3.2011684728116299
 21
0.3304795084035277
 31
0.0
  0
LINE
  5
1C2
  8
3
 10
3.2011684728116299
 20
0.3304795084035277
 30
0.0
 11
3.2011684728116299
 21
-0.5649525726686308
 31
0.0
  0
LINE
  5
1C3
  8
3
 10
3.2011684728116299
 20
-0.5649525726686308
 30
0.0
 11
3.7977367384943501
 21
-0.5649525726686308
 31
0.0
  0
LINE
  5
1C4
  8
3
 10
3.7977367384943501
 20
-0.5649525726686308
 30
0.0
 11
3.7977367384943501
 21
0.5021800645942847
 31
0.0
  0
LINE
  5
1C5
  8
3
 10
3.7977367384943501
 20
0.5021800645942847
 30
0.0
 11
3.9546680086801009
 21
0.5649525726686308
 31
0.0
  0
LINE
  5
1C6
  8
3
 10
3.9546680086801009
 20
0.5649525726686308
 30
0.0
 11
3.9546680086801009
 21
0.156931270185737
 31
0.0
  0
ARC
  5
1C7
  8
3
 10
4.111599278865838
 20
0.156931270185737
 30
0.0
 40
0.1569312701857254
 50
180.0
 51
298.07248693585808
  0
LINE
  5
1C8
  8
3
 10
4.1854492883650201
 20
0.0184625023747742
 30
0.0
 11
4.7704811746688591
 21
0.3304795084035277
 31
0.0
  0
LINE
  5
1C9
  8
3
 10
4.7704811746688591
 20
0.3304795084035561
 30
0.0
 11
4.7704811746688591
 21
-0.5649525726686308
 31
0.0
  0
LINE
  5
1CA
  8
3
 10
4.7704811746688591
 20
-0.5649525726686308
 30
0.0
 11
5.367049440351507
 21
-0.5649525726686308
 31
0.0
  0
LINE
  5
1CB
  8
3
 10
5.367049440351507
 20
-0.5649525726686308
 30
0.0
 11
5.367049440351507
 21
0.5021800645942847
 31
0.0
  0
LINE
  5
1CC
  8
3
 10
5.367049440351507
 20
0.5021800645942847
 30
0.0
 11
5.5239807105372591
 21
0.5649525726686308
 31
0.0
  0
LINE
  5
1CD
  8
3
 10
5.5239807105372591
 20
0.5649525726686308
 30
0.0
 11
5.5239807105372591
 21
0.156931270185737
 31
0.0
  0
ARC
  5
1CE
  8
3
 10
5.6809119807229811
 20
0.1569312701857655
 30
0.0
 40
0.1569312701857254
 50
180.00000000000651
 51
298.07248693585518
  0
LINE
  5
1CF
  8
3
 10
5.7547619902221641
 20
0.0184625023747742
 30
0.0
 11
6.3400233155029611
 21
0.3306018758579228
 31
0.0
  0
LINE
  5
1D0
  8
3
 10
6.3400233155029611
 20
0.3306018758579228
 30
0.0
 11
6.3400233155029611
 21
1.1072006771710501
 31
0.0
  0
ARC
  5
1D1
  8
3
 10
8.9531369709060584
 20
-3.9016692513080491
 30
0.0
 40
5.6495257266850381
 50
117.55092529523679
 51
119.7271455112872
  0
LINE
  5
1D2
  8
3
 10
6.1517057912801363
 20
1.0043601291885691
 30
0.0
 11
6.1517057912801363
 21
1.412381431671462
 31
0.0
  0
ARC
  5
1D3
  8
3
 10
5.9947745210943992
 20
1.412381431671462
 30
0.0
 40
0.1569312701857254
 50
0.0
 51
104.6488905276798
  0
ARC
  5
1D4
  8
3
 10
7.3838242690494118
 20
-3.9016692513089311
 30
0.0
 40
5.6495257266860834
 50
104.64889052767739
 51
110.9149203627637
  0
LINE
  5
1D5
  8
3
 10
5.367049440351507
 20
1.37561795205778
 30
0.0
 11
5.367049440351507
 21
1.5693127018571991
 31
0.0
  0
LINE
  5
1D6
  8
3
 10
5.367049440351507
 20
1.5693127018571991
 30
0.0
 11
4.7704811746688591
 21
1.5693127018571991
 31
0.0
  0
LINE
  5
1D7
  8
3
 10
4.7704811746688591
 20
1.5693127018571991
 30
0.0
 11
4.7704811746688591
 21
1.107080972803004
 31
0.0
  0
ARC
  5
1D8
  8
3
 10
7.3838242690502076
 20
-3.90166925131021
 30
0.0
 40
5.649525726687588
 50
117.55354984774431
 51
119.7271455112879
  0
LINE
  5
1D9
  8
3
 10
4.5823930894229363
 20
1.0043601291885691
 30
0.0
 11
4.5823930894229363
 21
1.412381431671462
 31
0.0
  0
ARC
  5
1DA
  8
3
 10
4.4254618192372126
 20
1.412381431671462
 30
0.0
 40
0.1569312701857254
 50
0.0
 51
104.6488905276679
  0
ARC
  5
1DB
  8
3
 10
5.8145115671922554
 20
-3.9016692513089022
 30
0.0
 40
5.6495257266860497
 50
104.6488905276782
 51
110.9149203627637
  0
LINE
  5
1DC
  8
3
 10
3.7977367384943501
 20
1.37561795205778
 30
0.0
 11
3.7977367384943501
 21
1.5693127018571991
 31
0.0
  0
LINE
  5
1DD
  8
3
 10
3.7977367384943501
 20
1.5693127018571991
 30
0.0
 11
3.2011684728116019
 21
1.5693127018571431
 31
0.0
  0
LINE
  5
1DE
  8
3
 10
3.2011684728116299
 20
1.5693127018571991
 30
0.0
 11
3.2011684728116019
 21
1.107080972803004
 31
0.0
  0
ARC
  5
1DF
  8
3
 10
5.8145115671930512
 20
-3.9016692513081628
 30
0.0
 40
5.6495257266858268
 50
117.5535498477545
 51
119.7271455112981
  0
LINE
  5
1E0
  8
3
 10
3.0130803875657932
 20
1.0043601291885691
 30
0.0
 11
3.0130803875657932
 21
1.5693127018571991
 31
0.0
  0
LINE
  5
1E1
  8
3
 10
3.0130803875657932
 20
1.5693127018571991
 30
0.0
 11
2.3853553068229161
 21
1.5693127018571991
 31
0.0
  0
LINE
  5
1E2
  8
3
 10
2.3853553068229161
 20
1.5693127018571991
 30
0.0
 11
2.3853553068229161
 21
1.090701043997313
 31
0.0
  0
ARC
  5
1E3
  8
3
 10
5.0298552162644654
 20
-3.9016692513081059
 30
0.0
 40
5.649525726685753
 50
117.9105394925511
 51
119.7271455112981
  0
LINE
  5
1E4
  8
3
 10
2.2284240366372212
 20
1.0043601291885691
 30
0.0
 11
2.2284240366372212
 21
1.443767685708621
 31
0.0
  0
ARC
  5
1E5
  8
3
 10
2.1028790204886709
 20
1.443767685708621
 30
0.0
 40
0.1255450161485537
 50
0.0
 51
90.0
  0
LINE
  5
1E6
  8
3
 10
2.1028790204886709
 20
1.5693127018571991
 30
0.0
 11
1.8097270704588191
 21
1.5693127018571991
 31
0.0
  0
LINE
  5
1E7
  8
3
 10
1.8097270704588191
 20
1.5693127018571991
 30
0.0
 11
2.5123801253116929
 21
3.6099653469931918
 31
0.0
  0
ARC
  5
1E8
  8
3
 10
2.660761556364704
 20
3.5588735229821959
 30
0.0
 40
0.1569312701857129
 50
89.999999999975572
 51
160.99999999997911
  0
LINE
  5
1E9
  8
3
 10
2.6607615563647609
 20
3.715804793167933
 30
0.0
 11
2.844375955124121
 21
3.715804793167933
 31
0.0
  0
LINE
  5
1EA
  8
3
 10
2.844375955124121
 20
3.715804793167933
 30
0.0
 11
2.844375955124121
 21
3.778577301242279
 31
0.0
  0
LINE
  5
1EB
  8
3
 10
2.844375955124121
 20
3.778577301242279
 30
0.0
 11
4.2492588619588361
 21
3.7113721105961011
 31
0.0
  0
ARC
  5
1EC
  8
3
 10
4.2567573867955844
 20
3.8681241303195288
 30
0.0
 40
0.1569312701856951
 50
267.26123748850301
 51
0.0000000000130276
  0
LINE
  5
1ED
  8
3
 10
4.4136886569812779
 20
3.8681241303195288
 30
0.0
 11
4.4136886569812779
 21
4.1912105367592281
 31
0.0
  0
ARC
  5
1EE
  8
3
 10
4.2567573867955844
 20
4.1912105367592849
 30
0.0
 40
0.1569312701856921
 50
359.99999999998698
 51
92.738762511496958
  0
LINE
  5
1EF
  8
3
 10
4.2492588619588361
 20
4.3479625564826838
 30
0.0
 11
2.844375955124121
 21
4.2807573658365641
 31
0.0
  0
LINE
  5
1F0
  8
3
 10
2.844375955124121
 20
4.2807573658365641
 30
0.0
 11
2.844375955124121
 21
4.3435298739108239
 31
0.0
  0
LINE
  5
1F1
  8
3
 10
2.844375955124121
 20
4.3435298739108239
 30
0.0
 11
2.3913370976348309
 21
4.3435298739108239
 31
0.0
  0
ARC
  5
1F2
  8
3
 10
2.391337097634803
 20
4.0296673335393791
 30
0.0
 40
0.3138625403714175
 50
89.999999999993491
 51
160.9999999999946
  0
LINE
  5
1F3
  8
3
 10
2.0945742355288242
 20
4.1318509815613416
 30
0.0
 11
1.255450161485768
 21
1.694857718005806
 31
0.0
  0
LINE
  5
1F4
  8
3
 10
1.255450161485768
 20
1.694857718005806
 30
0.0
 11
1.255450161485768
 21
2.9057599854969851
 31
0.0
  0
ARC
  5
1F5
  8
3
 10
1.5065401937828391
 20
2.9057599854969851
 30
0.0
 40
0.2510900322970742
 50
120.0000000000114
 51
180.00000000001461
  0
LINE
  5
1F6
  8
3
 10
1.3809951776342611
 20
3.123210332103326
 30
0.0
 11
-0.1255450161485498
 21
3.123210332103326
 31
0.0
  0
ARC
  5
1F7
  8
3
 10
-0.2510900322971139
 20
2.9057599854969558
 30
0.0
 40
0.2510900322971151
 50
359.99999999999682
 51
60.000000000000973
  0
LINE
  5
1F8
  8
3
 10
-0.0000000000000284
 20
2.9057599854969558
 30
0.0
 11
0.0
 21
0.0
 31
0.0
  0
LINE
  5
1F9
  8
3
 10
0.0
 20
0.0
 30
0.0
 11
1.255450161485768
 21
0.0
 31
0.0
  0
LINE
  5
1FA
  8
3
 10
1.255450161485768
 20
0.0
 30
0.0
 11
1.255450161485768
 21
0.7532700968914412
 31
0.0
  0
LINE
  5
1FB
  8
3
 10
1.255450161485768
 20
0.7532700968914412
 30
0.0
 11
1.412381431671462
 21
0.7532700968914412
 31
0.0
  0
LINE
  5
1FC
  8
3
 10
1.412381431671462
 20
0.7532700968914412
 30
0.0
 11
1.412381431671462
 21
0.156931270185737
 31
0.0
  0
ARC
  5
1FD
  8
3
 10
1.5693127018571851
 20
0.156931270185737
 30
0.0
 40
0.1569312701857254
 50
180.0
 51
298.07248693585808
  0
LINE
  5
1FE
  8
3
 10
1.6431627113563669
 20
0.0184625023747742
 30
0.0
 11
2.3853553068229161
 21
0.3578391601283499
 31
0.0
  0
LINE
  5
1FF
  8
3
 10
2.3853553068229161
 20
0.3578391601283499
 30
0.0
 11
2.3853553068229161
 21
0.156931270185737
 31
0.0
  0
ARC
  5
200
  8
3
 10
2.54228657700861
 20
0.156931270185737
 30
0.0
 40
0.1569312701856921
 50
180.0
 51
298.07248693585808
  0
ENDBLK
  5
201
  8
0
  0
ENDSEC
  0
SECTION
  2
ENTITIES
  0
LINE
  5
203
  8
0
 10
148.72268232351391
 20
180.6238723843652
 30
0.0
 11
148.72268232351391
 21
181.6238723843652
 31
0.0
  0
POLYLINE
  5
204
  8
0
 10
42.847295637068541
 20
194.37470313912377
 30
0.0
 66
     1
 70
     8
  0
VERTEX
  8
0
  5
55F
 10
42.8473
 20
194.375
 30
0.000000
  70
    32
  0
VERTEX
  8
0
  5
560
 10
42.8104
 20
194.324
 30
0.000000
  70
    32
  0
VERTEX
  8
0
  5
561
 10
42.7787
 20
194.272
 30
0.000000
  70
    32
  0
VERTEX
  8
0
  5
562
 10
42.7524
 20
194.220
 30
0.000000
  70
    32
  0
VERTEX
  8
0
  5
563
 10
42.7312
 20
194.169
 30
0.000000
  70
    32
  0
VERTEX
  8
0
  5
564
 10
42.7154
 20
194.117
 30
0.000000
  70
    32
  0
VERTEX
  8
0
  5
565
 10
42.7050
 20
194.065
 30
0.000000
  70
    32
  0
VERTEX
  8
0
  5
566
 10
42.6998
 20
194.012
 30
0.000000
  70
    32
  0
VERTEX
  8
0
  5
567
 10
42.6999
 20
193.960
 30
0.000000
  70
    32
  0
VERTEX
  8
0
  5
568
 10
42.7054
 20
193.908
 30
0.000000
  70
    32
  0
VERTEX
  8
0
  5
569
 10
42.7162
 20
193.856
 30
0.000000
  70
    32
  0
VERTEX
  8
0
  5
56A
 10
42.7323
 20
193.804
 30
0.000000
  70
    32
  0
VERTEX
  8
0
  5
56B
 10
42.7538
 20
193.752
 30
0.000000
  70
    32
  0
VERTEX
  8
0
  5
56C
 10
42.7805
 20
193.701
 30
0.000000
  70
    32
  0
VERTEX
  8
0
  5
56D
 10
42.8124
 20
193.649
 30
0.000000
  70
    32
  0
VERTEX
  8
0
  5
56E
 10
42.8496
 20
193.598
 30
0.000000
  70
    32
  0
VERTEX
  8
0
  5
56F
 10
42.8920
 20
193.547
 30
0.000000
  70
    32
  0
VERTEX
  8
0
  5
570
 10
42.9396
 20
193.497
 30
0.000000
  70
    32
  0
VERTEX
  8
0
  5
571
 10
42.9923
 20
193.446
 30
0.000000
  70
    32
  0
VERTEX
  8
0
  5
572
 10
43.0502
 20
193.397
 30
0.000000
  70
    32
  0
VERTEX
  8
0
  5
573
 10
43.1131
 20
193.347
 30
0.000000
  70
    32
  0
VERTEX
  8
0
  5
574
 10
43.1809
 20
193.299
 30
0.000000
  70
    32
  0
VERTEX
  8
0
  5
575
 10
43.2538
 20
193.250
 30
0.000000
  70
    32
  0
VERTEX
  8
0
  5
576
 10
43.3315
 20
193.203
 30
0.000000
  70
    32
  0
VERTEX
  8
0
  5
577
 10
43.4141
 20
193.156
 30
0.000000
  70
    32
  0
VERTEX
  8
0
  5
578
 10
43.5015
 20
193.109
 30
0.000000
  70
    32
  0
VERTEX
  8
0
  5
579
 10
43.5935
 20
193.063
 30
0.000000
  70
    32
  0
VERTEX
  8
0
  5
57A
 10
43.6902
 20
193.018
 30
0.000000
  70
    32
  0
VERTEX
  8
0
  5
57B
 10
43.7915
 20
192.974
 30
0.000000
  70
    32
  0
VERTEX
  8
0
  5
57C
 10
43.8972
 20
192.931
 30
0.000000
  70
    32
  0
VERTEX
  8
0
  5
57D
 10
44.0073
 20
192.888
 30
0.000000
  70
    32
  0
VERTEX
  8
0
  5
57E
 10
44.1218
 20
192.846
 30
0.000000
  70
    32
  0
VERTEX
  8
0
  5
57F
 10
44.2405
 20
192.805
 30
0.000000
  70
    32
  0
VERTEX
  8
0
  5
580
 10
44.3633
 20
192.765
 30
0.000000
  70
    32
  0
VERTEX
  8
0
  5
581
 10
44.4902
 20
192.726
 30
0.000000
  70
    32
  0
VERTEX
  8
0
  5
582
 10
44.6210
 20
192.688
 30
0.000000
  70
    32
  0
VERTEX
  8
0
  5
583
 10
44.7556
 20
192.651
 30
0.000000
  70
    32
  0
VERTEX
  8
0
  5
584
 10
44.8940
 20
192.615
 30
0.000000
  70
    32
  0
VERTEX
  8
0
  5
585
 10
45.0360
 20
192.580
 30
0.000000
  70
    32
  0
VERTEX
  8
0
  5
586
 10
45.1815
 20
192.546
 30
0.000000
  70
    32
  0
VERTEX
  8
0
  5
587
 10
45.3305
 20
192.513
 30
0.000000
  70
    32
  0
VERTEX
  8
0
  5
588
 10
45.4827
 20
192.481
 30
0.000000
  70
    32
  0
VERTEX
  8
0
  5
589
 10
45.6381
 20
192.451
 30
0.000000
  70
    32
  0
VERTEX
  8
0
  5
58A
 10
45.7966
 20
192.421
 30
0.000000
  70
    32
  0
VERTEX
  8
0
  5
58B
 10
45.9580
 20
192.393
 30
0.000000
  70
    32
  0
VERTEX
  8
0
  5
58C
 10
46.1222
 20
192.366
 30
0.000000
  70
    32
  0
VERTEX
  8
0
  5
58D
 10
46.2891
 20
192.341
 30
0.000000
  70
    32
  0
VERTEX
  8
0
  5
58E
 10
46.4586
 20
192.316
 30
0.000000
  70
    32
  0
VERTEX
  8
0
  5
58F
 10
46.6305
 20
192.293
 30
0.000000
  70
    32
  0
VERTEX
  8
0
  5
590
 10
46.8046
 20
192.271
 30
0.000000
  70
    32
  0
VERTEX
  8
0
  5
591
 10
46.9810
 20
192.251
 30
0.000000
  70
    32
  0
VERTEX
  8
0
  5
592
 10
47.1593
 20
192.232
 30
0.000000
  70
    32
  0
VERTEX
  8
0
  5
593
 10
47.3395
 20
192.214
 30
0.000000
  70
    32
  0
VERTEX
  8
0
  5
594
 10
47.5215
 20
192.198
 30
0.000000
  70
    32
  0
VERTEX
  8
0
  5
595
 10
47.7051
 20
192.183
 30
0.000000
  70
    32
  0
VERTEX
  8
0
  5
596
 10
47.8901
 20
192.169
 30
0.000000
  70
    32
  0
VERTEX
  8
0
  5
597
 10
48.0765
 20
192.157
 30
0.000000
  70
    32
  0
VERTEX
  8
0
  5
598
 10
48.2640
 20
192.146
 30
0.000000
  70
    32
  0
VERTEX
  8
0
  5
599
 10
48.4525
 20
192.137
 30
0.000000
  70
    32
  0
VERTEX
  8
0
  5
59A
 10
48.6420
 20
192.129
 30
0.000000
  70
    32
  0
VERTEX
  8
0
  5
59B
 10
48.8322
 20
192.122
 30
0.000000
  70
    32
  0
VERTEX
  8
0
  5
59C
 10
49.0229
 20
192.117
 30
0.000000
  70
    32
  0
VERTEX
  8
0
  5
59D
 10
49.2141
 20
192.114
 30
0.000000
  70
    32
  0
VERTEX
  8
0
  5
59E
 10
49.4056
 20
192.111
 30
0.000000
  70
    32
  0
VERTEX
  8
0
  5
59F
 10
49.5973
 20
192.111
 30
0.000000
  70
    32
  0
VERTEX
  8
0
  5
5A0
 10
49.7890
 20
192.111
 30
0.000000
  70
    32
  0
VERTEX
  8
0
  5
5A1
 10
49.9805
 20
192.114
 30
0.000000
  70
    32
  0
VERTEX
  8
0
  5
5A2
 10
50.1717
 20
192.117
 30
0.000000
  70
    32
  0
VERTEX
  8
0
  5
5A3
 10
50.3624
 20
192.122
 30
0.000000
  70
    32
  0
VERTEX
  8
0
  5
5A4
 10
50.5526
 20
192.129
 30
0.000000
  70
    32
  0
VERTEX
  8
0
  5
5A5
 10
50.7421
 20
192.137
 30
0.000000
  70
    32
  0
VERTEX
  8
0
  5
5A6
 10
50.9306
 20
192.146
 30
0.000000
  70
    32
  0
VERTEX
  8
0
  5
5A7
 10
51.1181
 20
192.157
 30
0.000000
  70
    32
  0
VERTEX
  8
0
  5
5A8
 10
51.3045
 20
192.169
 30
0.000000
  70
    32
  0
VERTEX
  8
0
  5
5A9
 10
51.4895
 20
192.183
 30
0.000000
  70
    32
  0
VERTEX
  8
0
  5
5AA
 10
51.6731
 20
192.198
 30
0.000000
  70
    32
  0
VERTEX
  8
0
  5
5AB
 10
51.8551
 20
192.214
 30
0.000000
  70
    32
  0
VERTEX
  8
0
  5
5AC
 10
52.0353
 20
192.232
 30
0.000000
  70
    32
  0
VERTEX
  8
0
  5
5AD
 10
52.2136
 20
192.251
 30
0.000000
  70
    32
  0
VERTEX
  8
0
  5
5AE
 10
52.3900
 20
192.271
 30
0.000000
  70
    32
  0
VERTEX
  8
0
  5
5AF
 10
52.5641
 20
192.293
 30
0.000000
  70
    32
  0
VERTEX
  8
0
  5
5B0
 10
52.7360
 20
192.316
 30
0.000000
  70
    32
  0
VERTEX
  8
0
  5
5B1
 10
52.9055
 20
192.341
 30
0.000000
  70
    32
  0
VERTEX
  8
0
  5
5B2
 10
53.0724
 20
192.366
 30
0.000000
  70
    32
  0
VERTEX
  8
0
  5
5B3
 10
53.2366
 20
192.393
 30
0.000000
  70
    32
  0
VERTEX
  8
0
  5
5B4
 10
53.3980
 20
192.421
 30
0.000000
  70
    32
  0
VERTEX
  8
0
  5
5B5
 10
53.5565
 20
192.451
 30
0.000000
  70
    32
  0
VERTEX
  8
0
  5
5B6
 10
53.7119
 20
192.481
 30
0.000000
  70
    32
  0
VERTEX
  8
0
  5
5B7
 10
53.8641
 20
192.513
 30
0.000000
  70
    32
  0
VERTEX
  8
0
  5
5B8
 10
54.0131
 20
192.546
 30
0.000000
  70
    32
  0
VERTEX
  8
0
  5
5B9
 10
54.1586
 20
192.580
 30
0.000000
  70
    32
  0
VERTEX
  8
0
  5
5BA
 10
54.3006
 20
192.615
 30
0.000000
  70
    32
  0
VERTEX
  8
0
  5
5BB
 10
54.4390
 20
192.651
 30
0.000000
  70
    32
  0
VERTEX
  8
0
  5
5BC
 10
54.5736
 20
192.688
 30
0.000000
  70
    32
  0
VERTEX
  8
0
  5
5BD
 10
54.7044
 20
192.726
 30
0.000000
  70
    32
  0
VERTEX
  8
0
  5
5BE
 10
54.8313
 20
192.765
 30
0.000000
  70
    32
  0
VERTEX
  8
0
  5
5BF
 10
54.9541
 20
192.805
 30
0.000000
  70
    32
  0
VERTEX
  8
0
  5
5C0
 10
55.0728
 20
192.846
 30
0.000000
  70
    32
  0
VERTEX
  8
0
  5
5C1
 10
55.1873
 20
192.888
 30
0.000000
  70
    32
  0
VERTEX
  8
0
  5
5C2
 10
55.2974
 20
192.931
 30
0.000000
  70
    32
  0
VERTEX
  8
0
  5
5C3
 10
55.4031
 20
192.974
 30
0.000000
  70
    32
  0
VERTEX
  8
0
  5
5C4
 10
55.5044
 20
193.018
 30
0.000000
  70
    32
  0
VERTEX
  8
0
  5
5C5
 10
55.6011
 20
193.063
 30
0.000000
  70
    32
  0
VERTEX
  8
0
  5
5C6
 10
55.6931
 20
193.109
 30
0.000000
  70
    32
  0
VERTEX
  8
0
  5
5C7
 10
55.7805
 20
193.156
 30
0.000000
  70
    32
  0
VERTEX
  8
0
  5
5C8
 10
55.8631
 20
193.203
 30
0.000000
  70
    32
  0
VERTEX
  8
0
  5
5C9
 10
55.9408
 20
193.250
 30
0.000000
  70
    32
  0
VERTEX
  8
0
  5
5CA
 10
56.0136
 20
193.299
 30
0.000000
  70
    32
  0
VERTEX
  8
0
  5
5CB
 10
56.0815
 20
193.347
 30
0.000000
  70
    32
  0
VERTEX
  8
0
  5
5CC
 10
56.1444
 20
193.397
 30
0.000000
  70
    32
  0
VERTEX
  8
0
  5
5CD
 10
56.2022
 20
193.446
 30
0.000000
  70
    32
  0
VERTEX
  8
0
  5
5CE
 10
56.2550
 20
193.497
 30
0.000000
  70
    32
  0
VERTEX
  8
0
  5
5CF
 10
56.3026
 20
193.547
 30
0.000000
  70
    32
  0
VERTEX
  8
0
  5
5D0
 10
56.3450
 20
193.598
 30
0.000000
  70
    32
  0
VERTEX
  8
0
  5
5D1
 10
56.3822
 20
193.649
 30
0.000000
  70
    32
  0
VERTEX
  8
0
  5
5D2
 10
56.4141
 20
193.701
 30
0.000000
  70
    32
  0
VERTEX
  8
0
  5
5D3
 10
56.4408
 20
193.752
 30
0.000000
  70
    32
  0
VERTEX
  8
0
  5
5D4
 10
56.4623
 20
193.804
 30
0.000000
  70
    32
  0
VERTEX
  8
0
  5
5D5
 10
56.4784
 20
193.856
 30
0.000000
  70
    32
  0
VERTEX
  8
0
  5
5D6
 10
56.4892
 20
193.908
 30
0.000000
  70
    32
  0
VERTEX
  8
0
  5
5D7
 10
56.4947
 20
193.960
 30
0.000000
  70
    32
  0
VERTEX
  8
0
  5
5D8
 10
56.4948
 20
194.012
 30
0.000000
  70
    32
  0
VERTEX
  8
0
  5
5D9
 10
56.4896
 20
194.065
 30
0.000000
  70
    32
  0
VERTEX
  8
0
  5
5DA
 10
56.4791
 20
194.117
 30
0.000000
  70
    32
  0
VERTEX
  8
0
  5
5DB
 10
56.4633
 20
194.169
 30
0.000000
  70
    32
  0
VERTEX
  8
0
  5
5DC
 10
56.4422
 20
194.220
 30
0.000000
  70
    32
  0
VERTEX
  8
0
  5
5DD
 10
56.4158
 20
194.272
 30
0.000000
  70
    32
  0
VERTEX
  8
0
  5
5DE
 10
56.3842
 20
194.324
 30
0.000000
  70
    32
  0
VERTEX
  8
0
  5
5DF
 10
56.3473
 20
194.375
 30
0.000000
  70
    32
  0
SEQEND
  8
0
  5
5E0
  0
LINE
  5
205
  8
0
 10
56.347295637068747
 20
195.98143980085729
 30
0.0
 11
56.347295637068832
 21
193.64748120393139
 31
0.0
  0
ARC
  5
206
  8
0
 10
49.597295637068576
 20
186.05987238436509
 30
0.0
 40
12.0
 50
109.4670447595973
 51
124.2288663278127
  0
LINE
  5
207
  8
0
 10
42.847295637068576
 20
195.98143980085729
 30
0.0
 11
42.847295637068513
 21
193.64748120393139
 31
0.0
  0
LINE
  5
208
  8
0
 10
56.269618219974653
 20
195.9814398008574
 30
0.0
 11
42.847295637068576
 21
195.98143980085729
 31
0.0
  0
ARC
  5
209
  8
0
 10
49.597295637068576
 20
186.05987238436509
 30
0.0
 40
12.0
 50
55.903074224609412
 51
70.532955240402714
  0
LINE
  5
20A
  8
0
 10
53.596471052076062
 20
197.3738723843652
 30
0.0
 11
45.598120222061233
 21
197.3738723843652
 31
0.0
  0
LINE
  5
20B
  8
0
 10
128.97268232351379
 20
195.98143980085729
 30
0.0
 11
128.97268232351371
 21
192.18152377292219
 31
0.0
  0
LINE
  5
20C
  8
0
 10
139.72185773852129
 20
197.3738723843652
 30
0.0
 11
131.72350690850641
 21
197.3738723843652
 31
0.0
  0
ARC
  5
20D
  8
0
 10
135.72268232351379
 20
186.05987238436509
 30
0.0
 40
12.0
 50
55.903074224609412
 51
70.532955240402714
  0
ARC
  5
20E
  8
0
 10
135.72268232351379
 20
186.05987238436509
 30
0.0
 40
12.0
 50
109.4670447595973
 51
124.2288663278127
  0
LINE
  5
20F
  8
0
 10
142.3950049064199
 20
195.9814398008574
 30
0.0
 11
128.97268232351379
 21
195.98143980085729
 31
0.0
  0
ARC
  5
210
  8
0
 10
133.68268232351389
 20
276.48433401506071
 30
0.0
 40
0.5099999999999998
 50
103.34175822722121
 51
256.65824177277881
  0
ARC
  5
211
  8
0
 10
133.35904290056189
 20
277.8489818721693
 30
0.0
 40
0.8925000000000004
 50
283.34175822722119
 51
16.658241772777039
  0
ARC
  5
212
  8
0
 10
134.7026823235139
 20
278.251025838781
 30
0.0
 40
0.5099999999999997
 50
43.341758227221163
 51
196.65824177277699
  0
ARC
  5
213
  8
0
 10
135.72268232351391
 20
279.2136297292779
 30
0.0
 40
0.8924999999999984
 50
223.34175822722111
 51
316.65824177277892
  0
ARC
  5
214
  8
0
 10
136.74268232351389
 20
278.251025838781
 30
0.0
 40
0.5100000000000003
 50
343.3417582272229
 51
136.65824177277881
  0
ARC
  5
215
  8
0
 10
133.35904290056189
 20
275.11968615795212
 30
0.0
 40
0.8925000000000011
 50
343.3417582272229
 51
76.658241772778837
  0
ARC
  5
216
  8
0
 10
134.7026823235139
 20
274.71764219134047
 30
0.0
 40
0.5100000000000002
 50
163.3417582272229
 51
316.65824177277892
  0
ARC
  5
217
  8
0
 10
135.72268232351391
 20
273.75503830084352
 30
0.0
 40
0.8925000000000002
 50
43.341758227221163
 51
136.6582417727754
  0
ARC
  5
218
  8
0
 10
136.74268232351389
 20
274.71764219134047
 30
0.0
 40
0.5099999999999997
 50
223.34175822722111
 51
16.658241772777039
  0
ARC
  5
219
  8
0
 10
138.0863217464661
 20
275.11968615795212
 30
0.0
 40
0.8925000000000002
 50
103.34175822722121
 51
196.65824177277699
  0
ARC
  5
21A
  8
0
 10
137.76268232351379
 20
276.48433401506071
 30
0.0
 40
0.5100000000000005
 50
283.34175822722119
 51
76.658241772778837
  0
ARC
  5
21B
  8
0
 10
138.0863217464661
 20
277.8489818721693
 30
0.0
 40
0.8925000000000011
 50
163.3417582272229
 51
256.65824177277881
  0
CIRCLE
  5
21C
  8
0
 10
135.72268232351391
 20
276.48433401506071
 30
0.0
 40
6.75
  0
CIRCLE
  5
21D
  8
0
 10
135.72268232351391
 20
276.48433401506071
 30
0.0
 40
3.999175415007485
  0
LINE
  5
21E
  8
0
 10
131.9226823235139
 20
275.80933401506081
 30
0.0
 11
133.92556040530931
 21
275.80933401506081
 31
0.0
  0
LINE
  5
21F
  8
0
 10
131.9226823235139
 20
277.15933401506078
 30
0.0
 11
133.92556040530931
 21
277.15933401506078
 31
0.0
  0
LINE
  5
220
  8
0
 10
137.51980424171839
 20
275.80933401506081
 30
0.0
 11
139.52268232351381
 21
275.80933401506081
 31
0.0
  0
LINE
  5
221
  8
0
 10
137.51980424171839
 20
277.15933401506078
 30
0.0
 11
139.52268232351381
 21
277.15933401506078
 31
0.0
  0
LINE
  5
222
  8
0
 10
139.52268232351381
 20
277.15933401506078
 30
0.0
 11
139.52268232351381
 21
275.80933401506081
 31
0.0
  0
LINE
  5
223
  8
0
 10
131.9226823235139
 20
277.15933401506078
 30
0.0
 11
131.9226823235139
 21
275.80933401506081
 31
0.0
  0
INSERT
  5
224
  8
4
  2
KIPP-LOGO3
 10
152.01704817761981
 20
274.7408780237626
 30
0.0
 41
1.200000000000002
 42
1.200000000000002
 43
1.200000000000002
  0
CIRCLE
  5
24C
  8
0
 10
135.72268232351391
 20
77.855736892758529
 30
0.0
 40
12.699999999999999
  0
POLYLINE
  5
24D
  8
0
 66
     1
 10
0.0
 20
0.0
 30
0.0
  0
VERTEX
  5
24E
  8
0
 10
54.743527655346838
 20
210.24718189363091
 30
0.0
 42
0.1072990678774081
  0
VERTEX
  5
24F
  8
0
 10
54.359720051523141
 20
212.0150853799135
 30
0.0
 42
0.1017138391143474
  0
VERTEX
  5
250
  8
0
 10
53.236231194752492
 20
213.55503862918539
 30
0.0
 42
0.094698019228125
 70
     2
 50
137.7286084768499
  0
VERTEX
  5
251
  8
0
 10
51.588796279168719
 20
214.5626930512793
 30
0.0
 42
0.0902712948192608
 50
137.7286084768499
  0
VERTEX
  5
252
  8
0
 10
49.597295637068669
 20
214.9251977514393
 30
0.0
 42
0.0902712948192553
  0
VERTEX
  5
253
  8
0
 10
47.605794994968669
 20
214.5626930512793
 30
0.0
 42
0.0946980192281197
  0
VERTEX
  5
254
  8
0
 10
45.958360079384867
 20
213.5550386291853
 30
0.0
 42
0.101713839114349
 70
     2
 50
222.27139152315041
  0
VERTEX
  5
255
  8
0
 10
44.834871222614247
 20
212.0150853799135
 30
0.0
 42
0.1072990678774135
 50
222.27139152315041
  0
VERTEX
  5
256
  8
0
 10
44.451063618790549
 20
210.24718189363091
 30
0.0
 42
0.1072990678774161
  0
SEQEND
  5
257
  8
0
  0
LINE
  5
258
  8
0
 10
54.743527655346838
 20
210.24718189363091
 30
0.0
 11
56.734161383047763
 21
196.3179462801088
 31
0.0
  0
LINE
  5
259
  8
0
 10
44.451063618790549
 20
210.24718189363091
 30
0.0
 11
42.460429891089568
 21
196.3179462801088
 31
0.0
  0
LINE
  5
25A
  8
0
 10
305.57751795798202
 20
187.81214744015429
 30
0.0
 11
305.57751795798202
 21
181.6238723843652
 31
0.0
  0
LINE
  5
25B
  8
0
 10
288.83378955767699
 20
187.81214744014491
 30
0.0
 11
288.83378955767699
 21
181.6238723843652
 31
0.0
  0
LINE
  5
25C
  8
0
 10
303.1222769449389
 20
204.94127054774239
 30
0.0
 11
305.5775179579822
 21
187.8121474401533
 31
0.0
  0
LINE
  5
25D
  8
0
 10
291.28903057072159
 20
204.9412705477425
 30
0.0
 11
288.83378955767768
 21
187.81214744014969
 31
0.0
  0
POLYLINE
  5
25E
  8
0
 66
     1
 10
0.0
 20
0.0
 30
0.0
  0
VERTEX
  5
25F
  8
0
 10
43.902638049349463
 20
196.62258391875031
 30
0.0
 42
0.0236180829810916
  0
VERTEX
  5
260
  8
0
 10
41.959518112813669
 20
196.18715863652051
 30
0.0
 42
0.0794581671371313
 70
     2
 50
195.3364392679685
  0
VERTEX
  5
261
  8
0
 10
39.263449071569262
 20
194.9628858524957
 30
0.0
 42
0.2516060485881709
 50
195.3364392679685
  0
VERTEX
  5
262
  8
0
 10
38.795847075878903
 20
194.092477188781
 30
0.0
 42
0.2516060485881673
  0
SEQEND
  5
263
  8
0
  0
POLYLINE
  5
264
  8
0
 66
     1
 10
0.0
 20
0.0
 30
0.0
  0
VERTEX
  5
265
  8
0
 10
38.795847075878903
 20
194.092477188781
 30
0.0
 42
0.2516060485881673
  0
VERTEX
  5
266
  8
0
 10
39.263449071569262
 20
193.22206852506631
 30
0.0
 42
0.0794581671371289
  0
VERTEX
  5
267
  8
0
 10
41.959518112813669
 20
191.9977957410415
 30
0.0
 42
0.0386585066162521
 70
     2
 50
344.6635607320315
  0
VERTEX
  5
268
  8
0
 10
45.624953714550202
 20
191.29136650114401
 30
0.0
 42
0.0362918600691646
 50
344.6635607320315
  0
VERTEX
  5
269
  8
0
 10
49.597295637068669
 20
191.13015027653651
 30
0.0
 42
0.028286114774309
  0
VERTEX
  5
26A
  8
0
 10
54.037553970844783
 20
191.3815467336336
 30
0.0
 42
0.0386585066162519
  0
VERTEX
  5
26B
  8
0
 10
57.235073161323669
 20
191.9977957410415
 30
0.0
 42
0.0794581671371312
 70
     2
 50
15.336439267968551
  0
VERTEX
  5
26C
  8
0
 10
59.931142202568132
 20
193.22206852506631
 30
0.0
 42
0.2516060485881709
 50
15.336439267968551
  0
VERTEX
  5
26D
  8
0
 10
60.398744198258491
 20
194.092477188781
 30
0.0
 42
0.2516060485881673
  0
VERTEX
  5
26E
  8
0
 10
59.931142202568132
 20
194.96288585249579
 30
0.0
 42
0.0794581671371287
  0
VERTEX
  5
26F
  8
0
 10
57.235073161323669
 20
196.18715863652051
 30
0.0
 42
0.023618082981098
 70
     2
 50
164.66356073203141
  0
VERTEX
  5
270
  8
0
 10
55.291953224787797
 20
196.62258391875019
 30
0.0
 42
0.0282861147743138
 50
164.66356073203141
  0
SEQEND
  5
271
  8
0
  0
LINE
  5
272
  8
0
 10
56.597295637068669
 20
196.3738723843652
 30
0.0
 11
56.597295637068669
 21
196.3738723843652
 31
0.0
  0
ARC
  5
273
  8
0
 10
49.597295637068669
 20
212.3738723843652
 30
0.0
 40
9.5
 50
308.43721726547147
 51
231.5627827345285
  0
LINE
  5
274
  8
1
 10
64.097295637068669
 20
212.3738723843652
 30
0.0
 11
35.097295637068669
 21
212.3738723843652
 31
0.0
  0
LINE
  5
275
  8
1
 10
49.597295637068669
 20
226.8738723843652
 30
0.0
 11
49.597295637068669
 21
124.8738723843652
 31
0.0
  0
LINE
  5
276
  8
0
 10
37.173958416181449
 20
165.27387238435941
 30
0.0
 11
62.020632857955881
 21
165.27387238435941
 31
0.0
  0
LINE
  5
277
  8
0
 10
40.097295637068669
 20
155.3738723843652
 30
0.0
 11
59.097295637068669
 21
155.3738723843652
 31
0.0
  0
LINE
  5
278
  8
0
 10
61.62063285793289
 20
164.8738723843652
 30
0.0
 11
37.573958416204448
 21
164.8738723843652
 31
0.0
  0
LINE
  5
279
  8
0
 10
58.597295637036609
 20
154.8738723843652
 30
0.0
 11
40.597295637100729
 21
154.8738723843652
 31
0.0
  0
LINE
  5
27A
  8
0
 10
40.597295637100729
 20
154.8738723843652
 30
0.0
 11
40.097295637068669
 21
155.3738723843652
 31
0.0
  0
LINE
  5
27B
  8
0
 10
40.097295637068669
 20
155.3738723843652
 30
0.0
 11
40.097295637068669
 21
164.8738723843652
 31
0.0
  0
LINE
  5
27C
  8
0
 10
37.573958416204448
 20
164.8738723843652
 30
0.0
 11
37.173958416181449
 21
165.27387238435941
 31
0.0
  0
LINE
  5
27D
  8
0
 10
61.62063285793289
 20
164.8738723843652
 30
0.0
 11
62.020632857955952
 21
165.27387238435941
 31
0.0
  0
LINE
  5
27E
  8
0
 10
59.097295637068669
 20
155.3738723843652
 30
0.0
 11
59.097295637068669
 21
164.8738723843652
 31
0.0
  0
LINE
  5
27F
  8
0
 10
58.597295637036609
 20
154.8738723843652
 30
0.0
 11
59.097295637068669
 21
155.3738723843652
 31
0.0
  0
LINE
  5
280
  8
0
 10
62.020632857955952
 20
165.27387238435941
 30
0.0
 11
62.297295637068252
 21
180.6238723843652
 31
0.0
  0
LINE
  5
281
  8
0
 10
37.173958416181449
 20
165.27387238435941
 30
0.0
 11
36.897295637069078
 21
180.6238723843652
 31
0.0
  0
LINE
  5
282
  8
0
 10
62.597295637068669
 20
180.6238723843652
 30
0.0
 11
36.597295637068669
 21
180.6238723843652
 31
0.0
  0
LINE
  5
283
  8
0
 10
36.597295637068669
 20
181.6238723843652
 30
0.0
 11
62.597295637069578
 21
181.6238723843652
 31
0.0
  0
LINE
  5
284
  8
0
 10
36.597295637068669
 20
180.6238723843652
 30
0.0
 11
36.597295637068669
 21
181.6238723843652
 31
0.0
  0
LINE
  5
285
  8
0
 10
62.597295637068669
 20
180.6238723843652
 30
0.0
 11
62.597295637068669
 21
181.6238723843652
 31
0.0
  0
LINE
  5
286
  8
0
 10
36.597295637068669
 20
181.62387238437029
 30
0.0
 11
38.858802169685703
 21
194.4495132677479
 31
0.0
  0
LINE
  5
287
  8
0
 10
62.597295637068669
 20
181.62387238437029
 30
0.0
 11
60.335789104451642
 21
194.44951326774799
 31
0.0
  0
POLYLINE
  5
288
  8
0
 66
     1
 10
0.0
 20
0.0
 30
0.0
  0
VERTEX
  5
289
  8
0
 10
290.05794561697928
 20
196.2779065138802
 30
0.0
 42
0.0059105705940131
  0
VERTEX
  5
28A
  8
0
 10
289.56787623357508
 20
196.15195716253029
 30
0.0
 42
0.0785817764473357
 70
     2
 50
195.09055569415091
  0
VERTEX
  5
28B
  8
0
 10
286.86638562742837
 20
194.94482904161691
 30
0.0
 42
0.2536739391194097
 50
195.09055569415091
  0
VERTEX
  5
28C
  8
0
 10
286.40420519664019
 20
194.092477188781
 30
0.0
 42
0.2536739391194271
  0
SEQEND
  5
28D
  8
0
  0
POLYLINE
  5
28E
  8
0
 66
     1
 10
0.0
 20
0.0
 30
0.0
  0
VERTEX
  5
28F
  8
0
 10
308.00710231902019
 20
194.092477188781
 30
0.0
 42
0.2536739391193648
  0
VERTEX
  5
290
  8
0
 10
307.54492188823218
 20
194.94482904161691
 30
0.0
 42
0.0785817764473275
  0
VERTEX
  5
291
  8
0
 10
304.84343128208531
 20
196.15195716253029
 30
0.0
 42
0.0059105705940237
 70
     2
 50
164.90944430584901
  0
VERTEX
  5
292
  8
0
 10
304.35336189868099
 20
196.27790651388059
 30
0.0
 42
0.027814460676166
 50
164.90944430584901
  0
SEQEND
  5
293
  8
0
  0
LINE
  5
294
  8
0
 10
310.20565375783019
 20
181.62387238437029
 30
0.0
 11
308.00710231902139
 21
194.092477188781
 31
0.0
  0
LINE
  5
295
  8
0
 10
284.20565375783031
 20
181.62387238437029
 30
0.0
 11
286.40420519663911
 21
194.092477188781
 31
0.0
  0
LINE
  5
297
  8
0
 10
310.20565375783019
 20
180.6238723843652
 30
0.0
 11
310.20565375783019
 21
181.6238723843652
 31
0.0
  0
LINE
  5
298
  8
0
 10
284.20565375783031
 20
180.6238723843652
 30
0.0
 11
284.20565375783031
 21
181.6238723843652
 31
0.0
  0
LINE
  5
299
  8
0
 10
284.20565375783031
 20
181.6238723843652
 30
0.0
 11
310.20565375783019
 21
181.6238723843652
 31
0.0
  0
LINE
  5
2A5
  8
0
 10
310.20565375783019
 20
180.6238723843652
 30
0.0
 11
284.20565375783031
 21
180.6238723843652
 31
0.0
  0
LINE
  5
2A6
  8
0
 10
284.78231653694297
 20
165.27387238435941
 30
0.0
 11
284.50565375783071
 21
180.6238723843652
 31
0.0
  0
LINE
  5
2A7
  8
0
 10
309.62899097871741
 20
165.27387238435941
 30
0.0
 11
309.90565375782978
 21
180.6238723843652
 31
0.0
  0
LINE
  5
2A8
  8
0
 10
306.20565375779819
 20
154.8738723843652
 30
0.0
 11
306.70565375783031
 21
155.3738723843652
 31
0.0
  0
LINE
  5
2A9
  8
0
 10
306.70565375783031
 20
155.3738723843652
 30
0.0
 11
306.70565375783031
 21
164.8738723843652
 31
0.0
  0
LINE
  5
2AA
  8
0
 10
309.22899097869453
 20
164.8738723843652
 30
0.0
 11
309.62899097871741
 21
165.27387238435941
 31
0.0
  0
LINE
  5
2AB
  8
0
 10
285.18231653696603
 20
164.8738723843652
 30
0.0
 11
284.78231653694297
 21
165.27387238435941
 31
0.0
  0
LINE
  5
2AC
  8
0
 10
287.70565375783019
 20
155.3738723843652
 30
0.0
 11
287.70565375783019
 21
164.8738723843652
 31
0.0
  0
LINE
  5
2AD
  8
0
 10
288.20565375786231
 20
154.8738723843652
 30
0.0
 11
287.70565375783019
 21
155.3738723843652
 31
0.0
  0
LINE
  5
2AE
  8
0
 10
306.20565375779819
 20
154.8738723843652
 30
0.0
 11
288.20565375786219
 21
154.8738723843652
 31
0.0
  0
LINE
  5
2AF
  8
0
 10
309.22899097869453
 20
164.8738723843652
 30
0.0
 11
285.18231653696603
 21
164.8738723843652
 31
0.0
  0
LINE
  5
2B0
  8
0
 10
287.70565375783019
 20
155.3738723843652
 30
0.0
 11
306.70565375783031
 21
155.3738723843652
 31
0.0
  0
LINE
  5
2B1
  8
0
 10
284.78231653694297
 20
165.27387238435941
 30
0.0
 11
309.62899097871741
 21
165.27387238435941
 31
0.0
  0
LINE
  5
2B2
  8
1
 10
297.20565375783031
 20
226.65471875082
 30
0.0
 11
297.20565375783019
 21
124.8738723843652
 31
0.0
  0
LINE
  5
2B3
  8
1
 10
311.70565375783031
 20
212.3738723843652
 30
0.0
 11
282.70565375783019
 21
212.3738723843652
 31
0.0
  0
CIRCLE
  5
2B4
  8
0
 10
297.20565375783031
 20
212.3738723843652
 30
0.0
 40
9.5
  0
CIRCLE
  5
2B5
  8
0
 10
135.72268232351391
 20
77.855736892758529
 30
0.0
 40
12.423299999999999
  0
CIRCLE
  5
2B6
  8
0
 10
135.72268232351391
 20
77.855736892758529
 30
0.0
 40
12.023300000000001
  0
CIRCLE
  5
2B7
  8
0
 10
135.72268232351391
 20
77.855736892758529
 30
0.0
 40
9.5
  0
CIRCLE
  5
2B8
  8
0
 10
135.72268232351391
 20
77.855736892758529
 30
0.0
 40
9.0
  0
CIRCLE
  5
2B9
  8
0
 10
135.72268232351391
 20
77.855736892758557
 30
0.0
 40
5.052999999999999
  0
CIRCLE
  5
2BA
  8
3
 10
135.72268232351391
 20
77.855736892758557
 30
0.0
 40
6.0
  0
CIRCLE
  5
2BB
  8
0
 10
135.72268232351391
 20
77.855736892758529
 30
0.0
 40
13.0
  0
ARC
  5
2BC
  8
0
 10
205.78904163431861
 20
77.855736892758557
 30
0.0
 40
9.4009632246868566
 50
326.52732534293921
 51
33.472674657060821
  0
ARC
  5
2BD
  8
0
 10
221.22268232351391
 20
77.855736892758557
 30
0.0
 40
9.5
 50
213.19658615458681
 51
146.80341384541541
  0
LINE
  5
2BE
  8
0
 10
213.6308452885753
 20
83.04073689275819
 30
0.0
 11
145.73372281914919
 21
86.149051561499277
 31
0.0
  0
LINE
  5
2BF
  8
0
 10
213.6308452885759
 20
72.670736892758896
 30
0.0
 11
145.73372281914919
 21
69.562422224017837
 31
0.0
  0
LINE
  5
2C0
  8
1
 10
117.72268232351379
 20
77.855736892758557
 30
0.0
 11
235.72268232351391
 21
77.855736892758557
 31
0.0
  0
LINE
  5
2C1
  8
1
 10
221.22268232351391
 20
92.355736892758557
 30
0.0
 11
221.22268232351391
 21
63.355736892758557
 31
0.0
  0
LINE
  5
2C2
  8
1
 10
135.72268232351391
 20
95.855736892758557
 30
0.0
 11
135.72268232351391
 21
59.855736892758557
 31
0.0
  0
LINE
  5
2C3
  8
0
 10
123.2993451026266
 20
165.27387238435941
 30
0.0
 11
148.1460195444011
 21
165.27387238435941
 31
0.0
  0
LINE
  5
2C4
  8
0
 10
126.22268232351389
 20
155.3738723843652
 30
0.0
 11
145.22268232351391
 21
155.3738723843652
 31
0.0
  0
ARC
  5
2C5
  8
0
 10
125.6675468812313
 20
189.68687348707411
 30
0.0
 40
1.5
 50
105.8070409596814
 51
169.99999999999969
  0
LINE
  5
2C6
  8
1
 10
135.72268232351391
 20
294.48433401506071
 30
0.0
 11
135.72268232351391
 21
258.48433401506071
 31
0.0
  0
LINE
  5
2C7
  8
1
 10
221.22268232351391
 20
290.98433401506071
 30
0.0
 11
221.22268232351391
 21
261.98433401506071
 31
0.0
  0
LINE
  5
2C8
  8
1
 10
117.72268232351379
 20
276.48433401506071
 30
0.0
 11
235.72268232351391
 21
276.48433401506071
 31
0.0
  0
ARC
  5
2C9
  8
0
 10
135.72268232351391
 20
276.48433401506071
 30
0.0
 40
13.0
 50
39.638923249567121
 51
320.3610767504311
  0
ARC
  5
2CA
  8
0
 10
135.22268232351391
 20
276.48433401506071
 30
0.0
 40
10.81301489040073
 50
272.65033471149479
 51
87.349665288500347
  0
ARC
  5
2CB
  8
0
 10
135.16932061771169
 20
276.48433401506071
 30
0.0
 40
10.815613722645439
 50
87.067282561908328
 51
272.93271743809169
  0
LINE
  5
2CC
  8
0
 10
122.72268232351389
 20
181.62387238437029
 30
0.0
 11
151.47015974296059
 21
181.62387238436381
 31
0.0
  0
ARC
  5
2CD
  8
0
 10
157.2525308685355
 20
191.5390866290756
 30
0.0
 40
10.0
 50
139.71474344640771
 51
195.82463380880739
  0
LINE
  5
2CE
  8
0
 10
148.8990093042224
 20
181.6238723843644
 30
0.0
 11
147.63152246713511
 21
188.81214744014889
 31
0.0
  0
ARC
  5
2CF
  8
0
 10
127.42767899290961
 20
276.48433401506071
 30
0.0
 40
18.582891712114101
 50
333.22329445467687
 51
26.776705545323079
  0
LINE
  5
2D0
  8
0
 10
213.34604572084149
 20
271.28629595627677
 30
0.0
 11
144.0179096784176
 21
268.11246981490859
 31
0.0
  0
LINE
  5
2D1
  8
0
 10
213.34604572084149
 20
281.68237207384459
 30
0.0
 11
144.0179096784176
 21
284.85619821521283
 31
0.0
  0
ARC
  5
2D2
  8
0
 10
221.22268232351391
 20
276.48433401506071
 30
0.0
 40
9.5
 50
216.95187272020459
 51
143.0481272797854
  0
ARC
  5
2D3
  8
0
 10
223.31010854114231
 20
276.48433401506071
 30
0.0
 40
11.23842282295257
 50
149.45894539226899
 51
210.54105460773101
  0
ARC
  5
2D4
  8
0
 10
199.61626659703211
 20
205.5613956737933
 30
0.0
 40
15.58262669879662
 50
358.06468957003273
 51
36.935310430143574
  0
ARC
  5
2D5
  8
0
 10
221.22268232351391
 20
212.3738723843652
 30
0.0
 40
9.5
 50
230.57863002350251
 51
164.4213699761375
  0
LINE
  5
2D6
  8
0
 10
215.19000485900509
 20
205.03515297228699
 30
0.0
 11
151.47015974296059
 21
181.62387238436381
 31
0.0
  0
LINE
  5
2D7
  8
0
 10
146.01057070501579
 20
197.00502169909291
 30
0.0
 11
212.07168571819159
 21
214.9251977514914
 31
0.0
  0
LINE
  5
2D8
  8
1
 10
216.8624482306941
 20
226.20276817021181
 30
0.0
 11
225.58291641631789
 21
198.5449765985135
 31
0.0
  0
LINE
  5
2D9
  8
1
 10
235.051578109346
 20
216.73410647723171
 30
0.0
 11
135.72268232351391
 21
185.19667230167479
 31
0.0
  0
LINE
  5
2DA
  8
1
 10
135.72268232351391
 20
202.3738723843652
 30
0.0
 11
135.72268232351379
 21
124.8738723843652
 31
0.0
  0
LINE
  5
2DB
  8
0
 10
125.25894914629011
 20
191.13015027653651
 30
0.0
 11
146.01057070501579
 21
197.00502169909291
 31
0.0
  0
LINE
  5
2DC
  8
0
 10
122.72268232351389
 20
181.62387238437029
 30
0.0
 11
124.19033525171299
 21
189.94734575357441
 31
0.0
  0
LINE
  5
2DD
  8
0
 10
122.72268232351389
 20
180.6238723843652
 30
0.0
 11
122.72268232351389
 21
181.6238723843652
 31
0.0
  0
LINE
  5
2DE
  8
0
 10
148.72268232351391
 20
180.6238723843652
 30
0.0
 11
122.72268232351389
 21
180.6238723843652
 31
0.0
  0
LINE
  5
2DF
  8
0
 10
147.7460195443781
 20
164.8738723843652
 30
0.0
 11
123.6993451026496
 21
164.8738723843652
 31
0.0
  0
LINE
  5
2E0
  8
0
 10
144.72268232348191
 20
154.8738723843652
 30
0.0
 11
126.7226823235459
 21
154.8738723843652
 31
0.0
  0
LINE
  5
2E1
  8
0
 10
126.7226823235459
 20
154.8738723843652
 30
0.0
 11
126.22268232351389
 21
155.3738723843652
 31
0.0
  0
LINE
  5
2E2
  8
0
 10
126.22268232351389
 20
155.3738723843652
 30
0.0
 11
126.22268232351389
 21
164.8738723843652
 31
0.0
  0
LINE
  5
2E3
  8
0
 10
123.6993451026496
 20
164.8738723843652
 30
0.0
 11
123.2993451026266
 21
165.27387238435941
 31
0.0
  0
LINE
  5
2E4
  8
0
 10
123.2993451026266
 20
165.27387238435941
 30
0.0
 11
123.0226823235143
 21
180.6238723843652
 31
0.0
  0
LINE
  5
2E5
  8
0
 10
148.1460195444011
 20
165.27387238435941
 30
0.0
 11
148.4226823235135
 21
180.6238723843652
 31
0.0
  0
LINE
  5
2E6
  8
0
 10
147.7460195443781
 20
164.8738723843652
 30
0.0
 11
148.1460195444011
 21
165.27387238435941
 31
0.0
  0
LINE
  5
2E7
  8
0
 10
145.22268232351391
 20
155.3738723843652
 30
0.0
 11
145.22268232351391
 21
164.8738723843652
 31
0.0
  0
LINE
  5
2E8
  8
0
 10
144.72268232348191
 20
154.8738723843652
 30
0.0
 11
145.22268232351391
 21
155.3738723843652
 31
0.0
  0
ARC
  5
2F2
  8
0
 10
297.20565375783087
 20
190.3809862306959
 30
0.0
 40
8.7571138463306522
 50
197.0582080540762
 51
342.94179194586297
  0
LINE
  5
3EA
  8
0
 10
53.597295637068839
 20
129.8738723843652
 30
0.0
 11
55.597295637068783
 21
131.8738723843652
 31
0.0
  0
LINE
  5
3EB
  8
0
 10
55.597295637068783
 20
131.8738723843652
 30
0.0
 11
55.597295637068783
 21
154.27387238436521
 31
0.0
  0
ARC
  5
3EC
  8
0
 10
56.197295637068748
 20
154.27387238436521
 30
0.0
 40
0.6
 50
90.0
 51
180.0
  0
LINE
  5
3ED
  8
3
 10
54.650295637068773
 20
152.63362026962841
 30
0.0
 11
54.650295637068723
 21
130.9268723843652
 31
0.0
  0
LINE
  5
3EE
  8
3
 10
55.597295637068783
 20
154.27387238436521
 30
0.0
 11
54.650295637068773
 21
152.63362026962841
 31
0.0
  0
LINE
  5
3EF
  8
3
 10
43.597295637068719
 20
154.27387238436521
 30
0.0
 11
44.544295637068728
 21
152.63362026962841
 31
0.0
  0
LINE
  5
3F0
  8
3
 10
44.544295637068728
 20
152.63362026962841
 30
0.0
 11
44.544295637068728
 21
130.9268723843652
 31
0.0
  0
ARC
  5
3F1
  8
0
 10
42.997295637068703
 20
154.27387238436521
 30
0.0
 40
0.6
 50
0.0
 51
90.0
  0
LINE
  5
3F2
  8
0
 10
43.597295637068719
 20
131.8738723843652
 30
0.0
 11
43.597295637068719
 21
154.27387238436521
 31
0.0
  0
LINE
  5
3F3
  8
0
 10
45.597295637068662
 20
129.8738723843652
 30
0.0
 11
43.597295637068719
 21
131.8738723843652
 31
0.0
  0
LINE
  5
3F4
  8
0
 10
43.597295637068719
 20
152.63362026962011
 30
0.0
 11
55.597295637068783
 21
152.63362026962011
 31
0.0
  0
LINE
  5
3F5
  8
0
 10
43.597295637068719
 20
131.8738723843652
 30
0.0
 11
55.597295637068783
 21
131.8738723843652
 31
0.0
  0
LINE
  5
3F6
  8
0
 10
45.597295637068662
 20
129.8738723843652
 30
0.0
 11
53.597295637068839
 21
129.8738723843652
 31
0.0
  0
LINE
  5
3FC
  8
0
 10
131.72268232351379
 20
129.8738723843652
 30
0.0
 11
139.72268232351399
 21
129.8738723843652
 31
0.0
  0
LINE
  5
3FD
  8
0
 10
129.72268232351391
 20
131.8738723843652
 30
0.0
 11
141.72268232351399
 21
131.8738723843652
 31
0.0
  0
LINE
  5
3FE
  8
0
 10
129.72268232351391
 20
152.63362026962011
 30
0.0
 11
141.72268232351399
 21
152.63362026962011
 31
0.0
  0
LINE
  5
3FF
  8
0
 10
131.72268232351379
 20
129.8738723843652
 30
0.0
 11
129.72268232351391
 21
131.8738723843652
 31
0.0
  0
LINE
  5
400
  8
0
 10
129.72268232351391
 20
131.8738723843652
 30
0.0
 11
129.72268232351391
 21
154.27387238436521
 31
0.0
  0
ARC
  5
401
  8
0
 10
129.12268232351391
 20
154.27387238436521
 30
0.0
 40
0.6
 50
0.0
 51
90.0
  0
LINE
  5
402
  8
3
 10
130.66968232351391
 20
152.6336202696283
 30
0.0
 11
130.66968232351391
 21
130.92687238436511
 31
0.0
  0
LINE
  5
403
  8
3
 10
129.72268232351391
 20
154.27387238436521
 30
0.0
 11
130.66968232351391
 21
152.6336202696283
 31
0.0
  0
LINE
  5
404
  8
3
 10
141.72268232351399
 20
154.27387238436521
 30
0.0
 11
140.77568232351399
 21
152.6336202696283
 31
0.0
  0
LINE
  5
405
  8
3
 10
140.77568232351399
 20
152.6336202696283
 30
0.0
 11
140.77568232351391
 21
130.92687238436511
 31
0.0
  0
ARC
  5
406
  8
0
 10
142.3226823235139
 20
154.27387238436521
 30
0.0
 40
0.6
 50
90.0
 51
180.0
  0
LINE
  5
407
  8
0
 10
141.72268232351399
 20
131.8738723843652
 30
0.0
 11
141.72268232351399
 21
154.27387238436521
 31
0.0
  0
LINE
  5
408
  8
0
 10
139.72268232351399
 20
129.8738723843652
 30
0.0
 11
141.72268232351399
 21
131.8738723843652
 31
0.0
  0
LINE
  5
409
  8
0
 10
301.20565375783042
 20
129.87387238436509
 30
0.0
 11
303.20565375783031
 21
131.87387238436509
 31
0.0
  0
LINE
  5
40A
  8
0
 10
303.20565375783031
 20
131.87387238436509
 30
0.0
 11
303.20565375783031
 21
154.27387238436509
 31
0.0
  0
ARC
  5
40B
  8
0
 10
303.80565375783033
 20
154.27387238436509
 30
0.0
 40
0.6
 50
90.0
 51
180.0
  0
LINE
  5
40C
  8
3
 10
302.2586537578303
 20
152.6336202696283
 30
0.0
 11
302.2586537578303
 21
130.92687238436511
 31
0.0
  0
LINE
  5
40D
  8
3
 10
303.20565375783031
 20
154.27387238436509
 30
0.0
 11
302.2586537578303
 21
152.6336202696283
 31
0.0
  0
LINE
  5
40E
  8
3
 10
291.20565375783031
 20
154.27387238436509
 30
0.0
 11
292.15265375783031
 21
152.6336202696283
 31
0.0
  0
LINE
  5
40F
  8
3
 10
292.15265375783031
 20
152.6336202696283
 30
0.0
 11
292.15265375783031
 21
130.92687238436511
 31
0.0
  0
ARC
  5
410
  8
0
 10
290.60565375783028
 20
154.27387238436509
 30
0.0
 40
0.6
 50
0.0
 51
90.0
  0
LINE
  5
411
  8
0
 10
291.20565375783031
 20
131.87387238436509
 30
0.0
 11
291.20565375783031
 21
154.27387238436509
 31
0.0
  0
LINE
  5
412
  8
0
 10
293.20565375783019
 20
129.87387238436509
 30
0.0
 11
291.20565375783031
 21
131.87387238436509
 31
0.0
  0
LINE
  5
413
  8
0
 10
291.20565375783031
 20
152.63362026962
 30
0.0
 11
303.20565375783031
 21
152.63362026962
 31
0.0
  0
LINE
  5
414
  8
0
 10
291.20565375783031
 20
131.87387238436509
 30
0.0
 11
303.20565375783031
 21
131.87387238436509
 31
0.0
  0
LINE
  5
415
  8
0
 10
293.20565375783019
 20
129.87387238436509
 30
0.0
 11
301.20565375783042
 21
129.87387238436509
 31
0.0
  0
TEXT
  5
4C8
  8
0
 62
     3
 10
0.0
 20
0.0
 30
0.0
 40
10.0
  1
KR12X25-SUS
  7
STANDARD1
  0
ENDSEC
  0
EOF
