  0
SECTION
  2
HEADER
  9
$ACADVER
  1
AC1009
  9
$INSBASE
 10
0.0
 20
0.0
 30
0.0
  9
$EXTMIN
 10
0.0
 20
-2.960436562073669
 30
0.0
  9
$EXTMAX
 10
372.0670807051992
 20
394.8686932876667
 30
0.0
  9
$LIMMIN
 10
0.0
 20
0.0
  9
$LIMMAX
 10
375.0
 20
270.0
  9
$ORTHOMODE
 70
     1
  9
$REGENMODE
 70
     1
  9
$FILLMODE
 70
     1
  9
$QTEXTMODE
 70
     0
  9
$MIRRTEXT
 70
     0
  9
$DRAGMODE
 70
     2
  9
$LTSCALE
 40
10.0
  9
$OSMODE
 70
  3071
  9
$ATTMODE
 70
     1
  9
$TEXTSIZE
 40
4.000000000000048
  9
$TRACEWID
 40
0.05
  9
$TEXTSTYLE
  7
STANDARD
  9
$CLAYER
  8
0
  9
$CELTYPE
  6
BYLAYER
  9
$CECOLOR
 62
   256
  9
$DIMSCALE
 40
1.0
  9
$DIMASZ
 40
3.0
  9
$DIMEXO
 40
2.0
  9
$DIMDLI
 40
0.38
  9
$DIMRND
 40
0.0
  9
$DIMDLE
 40
0.0
  9
$DIMEXE
 40
2.0
  9
$DIMTP
 40
0.0
  9
$DIMTM
 40
0.0
  9
$DIMTXT
 40
3.2000000000000002
  9
$DIMCEN
 40
0.0
  9
$DIMTSZ
 40
0.0
  9
$DIMTOL
 70
     0
  9
$DIMLIM
 70
     0
  9
$DIMTIH
 70
     0
  9
$DIMTOH
 70
     0
  9
$DIMSE1
 70
     0
  9
$DIMSE2
 70
     0
  9
$DIMTAD
 70
     1
  9
$DIMZIN
 70
     0
  9
$DIMBLK
  1

  9
$DIMASO
 70
     1
  9
$DIMSHO
 70
     0
  9
$DIMPOST
  1

  9
$DIMAPOST
  1

  9
$DIMALT
 70
     0
  9
$DIMALTD
 70
     2
  9
$DIMALTF
 40
25.399999999999999
  9
$DIMLFAC
 40
1.0
  9
$DIMTOFL
 70
     0
  9
$DIMTVP
 40
1.6000000000000001
  9
$DIMTIX
 70
     1
  9
$DIMSOXD
 70
     0
  9
$DIMSAH
 70
     0
  9
$DIMBLK1
  1

  9
$DIMBLK2
  1

  9
$DIMSTYLE
  2
STANDARD
  9
$DIMCLRD
 70
     0
  9
$DIMCLRE
 70
     0
  9
$DIMCLRT
 70
     0
  9
$DIMTFAC
 40
1.0
  9
$DIMGAP
 40
0.09
  9
$LUNITS
 70
     2
  9
$LUPREC
 70
     4
  9
$SKETCHINC
 40
0.1
  9
$FILLETRAD
 40
0.0
  9
$AUNITS
 70
     0
  9
$AUPREC
 70
     4
  9
$MENU
  1
E:\r13\win\SUPPORT\ACAD
  9
$ELEVATION
 40
0.0
  9
$PELEVATION
 40
0.0
  9
$THICKNESS
 40
0.0
  9
$LIMCHECK
 70
     0
  9
$BLIPMODE
 70
     0
  9
$CHAMFERA
 40
0.0
  9
$CHAMFERB
 40
0.0
  9
$SKPOLY
 70
     0
  9
$TDCREATE
 40
2449840.61369213
  9
$TDUPDATE
 40
2456597.4904517829
  9
$TDINDWG
 40
0.122161794
  9
$TDUSRTIMER
 40
0.122161794
  9
$USRTIMER
 70
     1
  9
$ANGBASE
 50
0.0
  9
$ANGDIR
 70
     0
  9
$PDMODE
 70
     0
  9
$PDSIZE
 40
0.0
  9
$PLINEWID
 40
0.0
  9
$COORDS
 70
     1
  9
$SPLFRAME
 70
     0
  9
$SPLINETYPE
 70
     6
  9
$SPLINESEGS
 70
     8
  9
$ATTDIA
 70
     0
  9
$ATTREQ
 70
     1
  9
$HANDLING
 70
     1
  9
$HANDSEED
  5
645
  9
$SURFTAB1
 70
     6
  9
$SURFTAB2
 70
     6
  9
$SURFTYPE
 70
     6
  9
$SURFU
 70
     6
  9
$SURFV
 70
     6
  9
$UCSNAME
  2

  9
$UCSORG
 10
0.0
 20
0.0
 30
0.0
  9
$UCSXDIR
 10
1.0
 20
0.0
 30
0.0
  9
$UCSYDIR
 10
0.0
 20
1.0
 30
0.0
  9
$PUCSNAME
  2

  9
$PUCSORG
 10
0.0
 20
0.0
 30
0.0
  9
$PUCSXDIR
 10
1.0
 20
0.0
 30
0.0
  9
$PUCSYDIR
 10
0.0
 20
1.0
 30
0.0
  9
$USERI1
 70
     0
  9
$USERI2
 70
     1
  9
$USERI3
 70
     1
  9
$USERI4
 70
     0
  9
$USERI5
 70
     0
  9
$USERR1
 40
0.0
  9
$USERR2
 40
0.0
  9
$USERR3
 40
0.0
  9
$USERR4
 40
0.0
  9
$USERR5
 40
0.0
  9
$WORLDVIEW
 70
     1
  9
$SHADEDGE
 70
     3
  9
$SHADEDIF
 70
    70
  9
$TILEMODE
 70
     1
  9
$MAXACTVP
 70
    16
  9
$PLIMCHECK
 70
     0
  9
$PEXTMIN
 10
1.0000000000000000E+020
 20
1.0000000000000000E+020
 30
1.0000000000000000E+020
  9
$PEXTMAX
 10
-1.0000000000000000E+020
 20
-1.0000000000000000E+020
 30
-1.0000000000000000E+020
  9
$PLIMMIN
 10
0.0
 20
0.0
  9
$PLIMMAX
 10
12.0
 20
9.0
  9
$UNITMODE
 70
     0
  9
$VISRETAIN
 70
     0
  9
$PLINEGEN
 70
     0
  9
$PSLTSCALE
 70
     0
  0
ENDSEC
  0
SECTION
  2
TABLES
  0
TABLE
  2
VPORT
 70
     1
  0
VPORT
  2
*ACTIVE
 70
     0
 10
0.0
 20
0.0
 11
1.0
 21
1.0
 12
187.49427839065231
 22
238.73256956213069
 13
0.0
 23
0.0
 14
10.0
 24
10.0
 15
10.0
 25
10.0
 16
0.0
 26
0.0
 36
1.0
 17
0.0
 27
0.0
 37
0.0
 40
487.966884671581
 41
1.9089595375722539
 42
50.0
 43
0.0
 44
0.0
 50
0.0
 51
0.0
 71
     0
 72
   500
 73
     1
 74
     0
 75
     0
 76
     0
 77
     0
 78
     2
  0
ENDTAB
  0
TABLE
  2
LTYPE
 70
     3
  0
LTYPE
  2
CONTINUOUS
 70
     0
  3
Solid Line
 72
    65
 73
     0
 40
0.0
  0
LTYPE
  2
CENTER
 70
     0
  3
____ _ ____ _ ____ _ ____ _ ____ _ ____ _ ____
 72
    65
 73
     4
 40
2.0
 49
1.25
 49
-0.25
 49
0.25
 49
-0.25
  0
LTYPE
  2
PHANTOM2
 70
     0
  3
___ _ _ ___ _ _ ___ _ _ ___ _ _
 72
    65
 73
     6
 40
1.25
 49
0.625
 49
-0.125
 49
0.125
 49
-0.125
 49
0.125
 49
-0.125
  0
ENDTAB
  0
TABLE
  2
LAYER
 70
     4
  0
LAYER
  2
0
 70
     0
 62
     7
  6
CONTINUOUS
  0
LAYER
  2
1
 70
     0
 62
     1
  6
CENTER
  0
LAYER
  2
3
 70
     0
 62
     3
  6
CONTINUOUS
  0
LAYER
  2
4
 70
     0
 62
     4
  6
CONTINUOUS
  0
ENDTAB
  0
TABLE
  2
STYLE
 70
     2
  0
STYLE
  2
STANDARD
 70
     0
 40
0.0
 41
1.0
 50
0.0
 71
     0
 42
4.000000000000048
  3
TXT
  4
BIGFONT
  0
STYLE
  2
STANDARD1
 70
     0
 40
0.0
 41
1.0
 50
0.0
 71
     0
 42
3.0
  3
txt
  4

  0
ENDTAB
  0
TABLE
  2
VIEW
 70
     1
  0
VIEW
  2
ALL
 70
     0
 40
270.0
 10
220.99159663865549
 20
135.0
 41
0.0
 11
0.0
 21
0.0
 31
1.0
 12
0.0
 22
0.0
 32
0.0
 42
0.0
 43
0.0
 44
0.0
 50
0.0
 71
     0
  0
ENDTAB
  0
TABLE
  2
UCS
 70
     0
  0
ENDTAB
  0
TABLE
  2
APPID
 70
     3
  0
APPID
  2
ACAD
 70
     0
  0
APPID
  2
ACAD_MLEADERVER
 70
     0
  0
APPID
  2
ACAD_NAV_VCDISPLAY
 70
     0
  0
ENDTAB
  0
TABLE
  2
DIMSTYLE
 70
     1
  0
DIMSTYLE
  2
STANDARD
 70
     0
  3

  4

  5

  6

  7

 40
1.0
 41
0.18
 42
0.0625
 43
0.38
 44
0.18
 45
0.0
 46
0.0
 47
0.0
 48
0.0
140
0.18
141
0.09
142
0.0
143
25.399999999999999
144
1.0
145
0.0
146
1.0
147
0.09
 71
     0
 72
     0
 73
     1
 74
     1
 75
     0
 76
     0
 77
     0
 78
     0
170
     0
171
     2
172
     0
173
     0
174
     0
175
     0
176
     0
177
     0
178
     0
  0
ENDTAB
  0
ENDSEC
  0
SECTION
  2
BLOCKS
  0
BLOCK
  8
0
  2
$MODEL_SPACE
 70
     0
 10
0.0
 20
0.0
 30
0.0
  3
$MODEL_SPACE
  1

  0
ENDBLK
  5
163
  8
0
  0
BLOCK
 67
     1
  8
0
  2
$PAPER_SPACE
 70
     0
 10
0.0
 20
0.0
 30
0.0
  3
$PAPER_SPACE
  1

  0
ENDBLK
  5
161
 67
     1
  8
0
  0
BLOCK
  8
0
  2
KIPP-LOGO3
 70
     0
 10
0.0
 20
0.0
 30
0.0
  3
KIPP-LOGO3
  1

  0
POLYLINE
  5
1B9
  8
3
 66
     1
 10
0.0
 20
0.0
 30
0.0
 70
     1
  0
VERTEX
  5
1BA
  8
3
 10
3.0758528956400961
 20
2.197037782600062
 30
0.0
 42
1.0000000552842581
  0
VERTEX
  5
1BB
  8
3
 10
2.3225827987486691
 20
2.197037782600062
 30
0.0
 42
1.0000000552842581
  0
SEQEND
  5
1BC
  8
3
  0
LINE
  5
1BD
  8
3
 10
2.6161365865077921
 20
0.0184625023747742
 30
0.0
 11
3.2011684728116299
 21
0.3304795084035277
 31
0.0
  0
LINE
  5
1BE
  8
3
 10
3.2011684728116299
 20
0.3304795084035277
 30
0.0
 11
3.2011684728116299
 21
-0.5649525726686308
 31
0.0
  0
LINE
  5
1BF
  8
3
 10
3.2011684728116299
 20
-0.5649525726686308
 30
0.0
 11
3.7977367384943501
 21
-0.5649525726686308
 31
0.0
  0
LINE
  5
1C0
  8
3
 10
3.7977367384943501
 20
-0.5649525726686308
 30
0.0
 11
3.7977367384943501
 21
0.5021800645942847
 31
0.0
  0
LINE
  5
1C1
  8
3
 10
3.7977367384943501
 20
0.5021800645942847
 30
0.0
 11
3.9546680086801009
 21
0.5649525726686308
 31
0.0
  0
LINE
  5
1C2
  8
3
 10
3.9546680086801009
 20
0.5649525726686308
 30
0.0
 11
3.9546680086801009
 21
0.156931270185737
 31
0.0
  0
ARC
  5
1C3
  8
3
 10
4.111599278865838
 20
0.156931270185737
 30
0.0
 40
0.1569312701857254
 50
180.0
 51
298.07248693585808
  0
LINE
  5
1C4
  8
3
 10
4.1854492883650201
 20
0.0184625023747742
 30
0.0
 11
4.7704811746688591
 21
0.3304795084035277
 31
0.0
  0
LINE
  5
1C5
  8
3
 10
4.7704811746688591
 20
0.3304795084035561
 30
0.0
 11
4.7704811746688591
 21
-0.5649525726686308
 31
0.0
  0
LINE
  5
1C6
  8
3
 10
4.7704811746688591
 20
-0.5649525726686308
 30
0.0
 11
5.367049440351507
 21
-0.5649525726686308
 31
0.0
  0
LINE
  5
1C7
  8
3
 10
5.367049440351507
 20
-0.5649525726686308
 30
0.0
 11
5.367049440351507
 21
0.5021800645942847
 31
0.0
  0
LINE
  5
1C8
  8
3
 10
5.367049440351507
 20
0.5021800645942847
 30
0.0
 11
5.5239807105372591
 21
0.5649525726686308
 31
0.0
  0
LINE
  5
1C9
  8
3
 10
5.5239807105372591
 20
0.5649525726686308
 30
0.0
 11
5.5239807105372591
 21
0.156931270185737
 31
0.0
  0
ARC
  5
1CA
  8
3
 10
5.6809119807229811
 20
0.1569312701857655
 30
0.0
 40
0.1569312701857254
 50
180.00000000000651
 51
298.07248693585518
  0
LINE
  5
1CB
  8
3
 10
5.7547619902221641
 20
0.0184625023747742
 30
0.0
 11
6.3400233155029611
 21
0.3306018758579228
 31
0.0
  0
LINE
  5
1CC
  8
3
 10
6.3400233155029611
 20
0.3306018758579228
 30
0.0
 11
6.3400233155029611
 21
1.1072006771710501
 31
0.0
  0
ARC
  5
1CD
  8
3
 10
8.9531369709060584
 20
-3.9016692513080491
 30
0.0
 40
5.6495257266850381
 50
117.55092529523679
 51
119.7271455112872
  0
LINE
  5
1CE
  8
3
 10
6.1517057912801363
 20
1.0043601291885691
 30
0.0
 11
6.1517057912801363
 21
1.412381431671462
 31
0.0
  0
ARC
  5
1CF
  8
3
 10
5.9947745210943992
 20
1.412381431671462
 30
0.0
 40
0.1569312701857254
 50
0.0
 51
104.6488905276798
  0
ARC
  5
1D0
  8
3
 10
7.3838242690494118
 20
-3.9016692513089311
 30
0.0
 40
5.6495257266860834
 50
104.64889052767739
 51
110.9149203627637
  0
LINE
  5
1D1
  8
3
 10
5.367049440351507
 20
1.37561795205778
 30
0.0
 11
5.367049440351507
 21
1.5693127018571991
 31
0.0
  0
LINE
  5
1D2
  8
3
 10
5.367049440351507
 20
1.5693127018571991
 30
0.0
 11
4.7704811746688591
 21
1.5693127018571991
 31
0.0
  0
LINE
  5
1D3
  8
3
 10
4.7704811746688591
 20
1.5693127018571991
 30
0.0
 11
4.7704811746688591
 21
1.107080972803004
 31
0.0
  0
ARC
  5
1D4
  8
3
 10
7.3838242690502076
 20
-3.90166925131021
 30
0.0
 40
5.649525726687588
 50
117.55354984774431
 51
119.7271455112879
  0
LINE
  5
1D5
  8
3
 10
4.5823930894229363
 20
1.0043601291885691
 30
0.0
 11
4.5823930894229363
 21
1.412381431671462
 31
0.0
  0
ARC
  5
1D6
  8
3
 10
4.4254618192372126
 20
1.412381431671462
 30
0.0
 40
0.1569312701857254
 50
0.0
 51
104.6488905276679
  0
ARC
  5
1D7
  8
3
 10
5.8145115671922554
 20
-3.9016692513089022
 30
0.0
 40
5.6495257266860497
 50
104.6488905276782
 51
110.9149203627637
  0
LINE
  5
1D8
  8
3
 10
3.7977367384943501
 20
1.37561795205778
 30
0.0
 11
3.7977367384943501
 21
1.5693127018571991
 31
0.0
  0
LINE
  5
1D9
  8
3
 10
3.7977367384943501
 20
1.5693127018571991
 30
0.0
 11
3.2011684728116019
 21
1.5693127018571431
 31
0.0
  0
LINE
  5
1DA
  8
3
 10
3.2011684728116299
 20
1.5693127018571991
 30
0.0
 11
3.2011684728116019
 21
1.107080972803004
 31
0.0
  0
ARC
  5
1DB
  8
3
 10
5.8145115671930512
 20
-3.9016692513081628
 30
0.0
 40
5.6495257266858268
 50
117.5535498477545
 51
119.7271455112981
  0
LINE
  5
1DC
  8
3
 10
3.0130803875657932
 20
1.0043601291885691
 30
0.0
 11
3.0130803875657932
 21
1.5693127018571991
 31
0.0
  0
LINE
  5
1DD
  8
3
 10
3.0130803875657932
 20
1.5693127018571991
 30
0.0
 11
2.3853553068229161
 21
1.5693127018571991
 31
0.0
  0
LINE
  5
1DE
  8
3
 10
2.3853553068229161
 20
1.5693127018571991
 30
0.0
 11
2.3853553068229161
 21
1.090701043997313
 31
0.0
  0
ARC
  5
1DF
  8
3
 10
5.0298552162644654
 20
-3.9016692513081059
 30
0.0
 40
5.649525726685753
 50
117.9105394925511
 51
119.7271455112981
  0
LINE
  5
1E0
  8
3
 10
2.2284240366372212
 20
1.0043601291885691
 30
0.0
 11
2.2284240366372212
 21
1.443767685708621
 31
0.0
  0
ARC
  5
1E1
  8
3
 10
2.1028790204886709
 20
1.443767685708621
 30
0.0
 40
0.1255450161485537
 50
0.0
 51
90.0
  0
LINE
  5
1E2
  8
3
 10
2.1028790204886709
 20
1.5693127018571991
 30
0.0
 11
1.8097270704588191
 21
1.5693127018571991
 31
0.0
  0
LINE
  5
1E3
  8
3
 10
1.8097270704588191
 20
1.5693127018571991
 30
0.0
 11
2.5123801253116929
 21
3.6099653469931918
 31
0.0
  0
ARC
  5
1E4
  8
3
 10
2.660761556364704
 20
3.5588735229821959
 30
0.0
 40
0.1569312701857129
 50
89.999999999975572
 51
160.99999999997911
  0
LINE
  5
1E5
  8
3
 10
2.6607615563647609
 20
3.715804793167933
 30
0.0
 11
2.844375955124121
 21
3.715804793167933
 31
0.0
  0
LINE
  5
1E6
  8
3
 10
2.844375955124121
 20
3.715804793167933
 30
0.0
 11
2.844375955124121
 21
3.778577301242279
 31
0.0
  0
LINE
  5
1E7
  8
3
 10
2.844375955124121
 20
3.778577301242279
 30
0.0
 11
4.2492588619588361
 21
3.7113721105961011
 31
0.0
  0
ARC
  5
1E8
  8
3
 10
4.2567573867955844
 20
3.8681241303195288
 30
0.0
 40
0.1569312701856951
 50
267.26123748850301
 51
0.0000000000130276
  0
LINE
  5
1E9
  8
3
 10
4.4136886569812779
 20
3.8681241303195288
 30
0.0
 11
4.4136886569812779
 21
4.1912105367592281
 31
0.0
  0
ARC
  5
1EA
  8
3
 10
4.2567573867955844
 20
4.1912105367592849
 30
0.0
 40
0.1569312701856921
 50
359.99999999998698
 51
92.738762511496958
  0
LINE
  5
1EB
  8
3
 10
4.2492588619588361
 20
4.3479625564826838
 30
0.0
 11
2.844375955124121
 21
4.2807573658365641
 31
0.0
  0
LINE
  5
1EC
  8
3
 10
2.844375955124121
 20
4.2807573658365641
 30
0.0
 11
2.844375955124121
 21
4.3435298739108239
 31
0.0
  0
LINE
  5
1ED
  8
3
 10
2.844375955124121
 20
4.3435298739108239
 30
0.0
 11
2.3913370976348309
 21
4.3435298739108239
 31
0.0
  0
ARC
  5
1EE
  8
3
 10
2.391337097634803
 20
4.0296673335393791
 30
0.0
 40
0.3138625403714175
 50
89.999999999993491
 51
160.9999999999946
  0
LINE
  5
1EF
  8
3
 10
2.0945742355288242
 20
4.1318509815613416
 30
0.0
 11
1.255450161485768
 21
1.694857718005806
 31
0.0
  0
LINE
  5
1F0
  8
3
 10
1.255450161485768
 20
1.694857718005806
 30
0.0
 11
1.255450161485768
 21
2.9057599854969851
 31
0.0
  0
ARC
  5
1F1
  8
3
 10
1.5065401937828391
 20
2.9057599854969851
 30
0.0
 40
0.2510900322970742
 50
120.0000000000114
 51
180.00000000001461
  0
LINE
  5
1F2
  8
3
 10
1.3809951776342611
 20
3.123210332103326
 30
0.0
 11
-0.1255450161485498
 21
3.123210332103326
 31
0.0
  0
ARC
  5
1F3
  8
3
 10
-0.2510900322971139
 20
2.9057599854969558
 30
0.0
 40
0.2510900322971151
 50
359.99999999999682
 51
60.000000000000973
  0
LINE
  5
1F4
  8
3
 10
-0.0000000000000284
 20
2.9057599854969558
 30
0.0
 11
0.0
 21
0.0
 31
0.0
  0
LINE
  5
1F5
  8
3
 10
0.0
 20
0.0
 30
0.0
 11
1.255450161485768
 21
0.0
 31
0.0
  0
LINE
  5
1F6
  8
3
 10
1.255450161485768
 20
0.0
 30
0.0
 11
1.255450161485768
 21
0.7532700968914412
 31
0.0
  0
LINE
  5
1F7
  8
3
 10
1.255450161485768
 20
0.7532700968914412
 30
0.0
 11
1.412381431671462
 21
0.7532700968914412
 31
0.0
  0
LINE
  5
1F8
  8
3
 10
1.412381431671462
 20
0.7532700968914412
 30
0.0
 11
1.412381431671462
 21
0.156931270185737
 31
0.0
  0
ARC
  5
1F9
  8
3
 10
1.5693127018571851
 20
0.156931270185737
 30
0.0
 40
0.1569312701857254
 50
180.0
 51
298.07248693585808
  0
LINE
  5
1FA
  8
3
 10
1.6431627113563669
 20
0.0184625023747742
 30
0.0
 11
2.3853553068229161
 21
0.3578391601283499
 31
0.0
  0
LINE
  5
1FB
  8
3
 10
2.3853553068229161
 20
0.3578391601283499
 30
0.0
 11
2.3853553068229161
 21
0.156931270185737
 31
0.0
  0
ARC
  5
1FC
  8
3
 10
2.54228657700861
 20
0.156931270185737
 30
0.0
 40
0.1569312701856921
 50
180.0
 51
298.07248693585808
  0
ENDBLK
  5
1FD
  8
0
  0
ENDSEC
  0
SECTION
  2
ENTITIES
  0
LINE
  5
1FF
  8
0
 10
176.74999999999989
 20
273.92230386962649
 30
0.0
 11
176.74999999999989
 21
273.16289893421168
 31
0.0
  0
CIRCLE
  5
20D
  8
0
 10
170.0
 20
129.68344148910541
 30
0.0
 40
15.199999999999999
  0
LINE
  5
20E
  8
0
 10
365.61764535906792
 20
264.36375285870503
 30
0.0
 11
365.61764535906792
 21
256.06473645313429
 31
0.0
  0
LINE
  5
20F
  8
0
 10
346.51651605132997
 20
264.36375285870281
 30
0.0
 11
346.51651605132997
 21
256.06473645313429
 31
0.0
  0
LINE
  5
210
  8
0
 10
362.82005642573779
 20
283.63157349728601
 30
0.0
 11
365.61764535906968
 21
264.3637528586932
 31
0.0
  0
LINE
  5
211
  8
0
 10
349.31410498466062
 20
283.6315734972859
 30
0.0
 11
346.5165160513298
 21
264.3637528587011
 31
0.0
  0
POLYLINE
  5
212
  8
0
 66
     1
 10
0.0
 20
0.0
 30
0.0
  0
VERTEX
  5
4EB
  8
0
 10
347.66929779930069
 20
273.95019878651829
 30
0.0
 42
0.0082534392916998
  0
VERTEX
  5
4EC
  8
0
 10
346.84879193483721
 20
273.74159067252742
 30
0.0
 42
0.0790115129248418
  0
VERTEX
  5
4ED
  8
0
 10
343.59147620485521
 20
272.27455933573708
 30
0.0
 42
0.2526621698913585
  0
VERTEX
  5
4EE
  8
0
 10
343.03045170428169
 20
271.23520761525049
 30
0.0
 42
0.2526621698913785
  0
SEQEND
  5
4EF
  8
0
  0
POLYLINE
  5
213
  8
0
 66
     1
 10
0.0
 20
0.0
 30
0.0
  0
VERTEX
  5
4F0
  8
0
 10
369.10370970611649
 20
271.23520761525049
 30
0.0
 42
0.2526621698914001
  0
VERTEX
  5
4F1
  8
0
 10
368.5426852055428
 20
272.27455933573702
 30
0.0
 42
0.0790115129248478
  0
VERTEX
  5
4F2
  8
0
 10
365.28536947556108
 20
273.74159067252731
 30
0.0
 42
0.0082534392917004
  0
VERTEX
  5
4F3
  8
0
 10
364.4648636110976
 20
273.95019878651851
 30
0.0
 42
0.028044593723474
  0
SEQEND
  5
4F4
  8
0
  0
LINE
  5
214
  8
0
 10
371.5670807051992
 20
257.2647364530975
 30
0.0
 11
369.10370970610188
 21
271.23520761525049
 31
0.0
  0
LINE
  5
215
  8
0
 10
340.5670807051992
 20
257.2647364530975
 30
0.0
 11
343.03045170429641
 21
271.23520761525049
 31
0.0
  0
LINE
  5
216
  8
0
 10
365.61764535906792
 20
257.26473645314587
 30
0.0
 11
371.5670807051992
 21
257.26473645314587
 31
0.0
  0
LINE
  5
217
  8
0
 10
371.5670807051992
 20
256.06473645313429
 30
0.0
 11
371.5670807051992
 21
257.26473645314587
 31
0.0
  0
LINE
  5
218
  8
0
 10
340.5670807051992
 20
256.06473645313429
 30
0.0
 11
340.5670807051992
 21
257.26473645314587
 31
0.0
  0
LINE
  5
219
  8
0
 10
340.5670807051992
 20
257.26473645314587
 30
0.0
 11
346.51651605132997
 21
257.26473645314587
 31
0.0
  0
POLYLINE
  5
21A
  8
0
 66
     1
 10
0.0
 20
0.0
 30
0.0
  0
VERTEX
  5
4F5
  8
0
 10
346.516516051331
 20
264.36375286970781
 30
0.0
 42
0.1116651807927631
  0
VERTEX
  5
4F6
  8
0
 10
347.2212703158865
 20
261.2474430257019
 30
0.0
 42
0.1030075168863887
  0
VERTEX
  5
4F7
  8
0
 10
349.31381167428839
 20
258.4954620843701
 30
0.0
 42
0.0927394853467179
  0
VERTEX
  5
4F8
  8
0
 10
352.64141487890919
 20
256.54376691363348
 30
0.0
 42
0.1036496084117412
  0
VERTEX
  5
4F9
  8
0
 10
356.06708070519909
 20
256.06473645313429
 30
0.0
 42
0.0865895480681093
  0
VERTEX
  5
4FA
  8
0
 10
359.78084468785198
 20
256.7127413213064
 30
0.0
 42
0.0927394853467145
  0
VERTEX
  5
4FB
  8
0
 10
362.8203497361099
 20
258.4954620843701
 30
0.0
 42
0.1030075168863772
  0
VERTEX
  5
4FC
  8
0
 10
364.91289109451191
 20
261.2474430257019
 30
0.0
 42
0.1116651807927633
  0
VERTEX
  5
4FD
  8
0
 10
365.61764535906758
 20
264.36375286970781
 30
0.0
 42
0.1116651807927583
  0
SEQEND
  5
4FE
  8
0
  0
LINE
  5
21B
  8
0
 10
340.5670807051992
 20
256.06473645313429
 30
0.0
 11
371.5670807051992
 21
256.06473645313429
 31
0.0
  0
LINE
  5
21C
  8
0
 10
341.2030907050389
 20
236.81473645313429
 30
0.0
 11
340.86708070519921
 21
256.0647364531726
 31
0.0
  0
LINE
  5
21D
  8
0
 10
370.93107070535939
 20
236.81473645313429
 30
0.0
 11
371.26708070519908
 21
256.0647364531726
 31
0.0
  0
LINE
  5
21E
  8
0
 10
367.06708070519193
 20
224.31473645313429
 30
0.0
 11
367.5670807051992
 21
224.81473645314159
 31
0.0
  0
LINE
  5
21F
  8
0
 10
367.5670807051992
 20
224.81473645314159
 30
0.0
 11
367.5670807051992
 21
236.31473645313429
 31
0.0
  0
LINE
  5
220
  8
0
 10
370.43107070535939
 20
236.31473645313429
 30
0.0
 11
370.93107070535939
 21
236.81473645313429
 31
0.0
  0
LINE
  5
221
  8
0
 10
341.7030907050389
 20
236.31473645313429
 30
0.0
 11
341.2030907050389
 21
236.81473645313429
 31
0.0
  0
LINE
  5
222
  8
0
 10
344.5670807051992
 20
224.81473645314159
 30
0.0
 11
344.5670807051992
 21
236.31473645313429
 31
0.0
  0
LINE
  5
223
  8
0
 10
345.06708070520642
 20
224.31473645313429
 30
0.0
 11
344.5670807051992
 21
224.81473645314159
 31
0.0
  0
LINE
  5
224
  8
0
 10
341.7030907050389
 20
236.31473645313429
 30
0.0
 11
370.43107070535939
 21
236.31473645313429
 31
0.0
  0
LINE
  5
225
  8
0
 10
367.06708070519193
 20
224.31473645313429
 30
0.0
 11
345.06708070520642
 21
224.31473645313429
 31
0.0
  0
LINE
  5
226
  8
0
 10
341.2030907050389
 20
236.81473645313429
 30
0.0
 11
370.72943977078103
 21
236.81473645313429
 31
0.0
  0
LINE
  5
227
  8
0
 10
344.5670807051992
 20
224.81473645314159
 30
0.0
 11
367.5670807051992
 21
224.81473645314159
 31
0.0
  0
LINE
  5
228
  8
1
 10
356.06708070519909
 20
308.29797865283041
 30
0.0
 11
356.06708070519909
 21
189.31473645313429
 31
0.0
  0
LINE
  5
229
  8
1
 10
372.0670807051992
 20
292.31473645313429
 30
0.0
 11
340.06708070519909
 21
292.31473645313429
 31
0.0
  0
CIRCLE
  5
22A
  8
0
 10
356.06708070519909
 20
292.31473645313429
 30
0.0
 40
11.0
  0
CIRCLE
  5
22B
  8
0
 10
170.0
 20
129.68344148910541
 30
0.0
 40
14.864000000000001
  0
CIRCLE
  5
22C
  8
0
 10
170.0
 20
129.68344148910541
 30
0.0
 40
14.364000000000001
  0
CIRCLE
  5
22D
  8
0
 10
170.0
 20
129.68344148910541
 30
0.0
 40
11.5
  0
CIRCLE
  5
22E
  8
0
 10
170.0
 20
129.68344148910541
 30
0.0
 40
11.0
  0
CIRCLE
  5
22F
  8
3
 10
170.0
 20
129.68344148910541
 30
0.0
 40
6.9175000000000004
  0
CIRCLE
  5
230
  8
0
 10
170.0
 20
129.68344148910541
 30
0.0
 40
8.0
  0
CIRCLE
  5
231
  8
0
 10
170.0
 20
129.68344148910541
 30
0.0
 40
15.5
  0
ARC
  5
232
  8
0
 10
251.22265726620321
 20
129.68344148910541
 30
0.0
 40
10.6973352025769
 50
326.5273253427381
 51
33.472674657261813
  0
ARC
  5
233
  8
0
 10
269.0
 20
129.68344148910541
 30
0.0
 40
11.0
 50
212.55447473314621
 51
147.44552526685379
  0
LINE
  5
234
  8
1
 10
149.5
 20
129.68344148910541
 30
0.0
 11
285.0
 21
129.68344148910541
 31
0.0
  0
LINE
  5
235
  8
1
 10
170.0
 20
150.18344148910541
 30
0.0
 11
170.0
 21
109.18344148910541
 31
0.0
  0
LINE
  5
236
  8
1
 10
269.0
 20
145.68344148910541
 30
0.0
 11
269.0
 21
113.68344148910541
 31
0.0
  0
LINE
  5
237
  8
0
 10
260.14582825169339
 20
135.5834414891055
 30
0.0
 11
182.27457267435881
 21
139.14836968016351
 31
0.0
  0
LINE
  5
238
  8
0
 10
260.14582825169339
 20
123.7834414891055
 30
0.0
 11
182.27457267435881
 21
120.2185132980474
 31
0.0
  0
INSERT
  5
239
  8
4
  2
KIPP-LOGO3
 10
188.65999999999991
 20
372.43228383360918
 30
0.0
 41
1.332807570977919
 42
1.332807570977919
 43
1.332807570977919
  0
POLYLINE
  5
23A
  8
0
 10
74.297127146041746
 20
272.71053249000698
 30
0.0
 66
     1
 70
     8
  0
VERTEX
  8
0
  5
541
 10
74.2971
 20
272.711
 30
0.000000
  70
    32
  0
VERTEX
  8
0
  5
542
 10
74.1217
 20
272.643
 30
0.000000
  70
    32
  0
VERTEX
  8
0
  5
543
 10
73.9547
 20
272.573
 30
0.000000
  70
    32
  0
VERTEX
  8
0
  5
544
 10
73.7962
 20
272.502
 30
0.000000
  70
    32
  0
VERTEX
  8
0
  5
545
 10
73.6465
 20
272.429
 30
0.000000
  70
    32
  0
VERTEX
  8
0
  5
546
 10
73.5057
 20
272.355
 30
0.000000
  70
    32
  0
VERTEX
  8
0
  5
547
 10
73.3740
 20
272.280
 30
0.000000
  70
    32
  0
VERTEX
  8
0
  5
548
 10
73.2516
 20
272.203
 30
0.000000
  70
    32
  0
VERTEX
  8
0
  5
549
 10
73.1386
 20
272.125
 30
0.000000
  70
    32
  0
VERTEX
  8
0
  5
54A
 10
73.0351
 20
272.046
 30
0.000000
  70
    32
  0
VERTEX
  8
0
  5
54B
 10
72.9413
 20
271.966
 30
0.000000
  70
    32
  0
VERTEX
  8
0
  5
54C
 10
72.8573
 20
271.885
 30
0.000000
  70
    32
  0
VERTEX
  8
0
  5
54D
 10
72.7832
 20
271.803
 30
0.000000
  70
    32
  0
VERTEX
  8
0
  5
54E
 10
72.7191
 20
271.721
 30
0.000000
  70
    32
  0
VERTEX
  8
0
  5
54F
 10
72.6650
 20
271.638
 30
0.000000
  70
    32
  0
VERTEX
  8
0
  5
550
 10
72.6211
 20
271.555
 30
0.000000
  70
    32
  0
VERTEX
  8
0
  5
551
 10
72.5873
 20
271.471
 30
0.000000
  70
    32
  0
VERTEX
  8
0
  5
552
 10
72.5637
 20
271.387
 30
0.000000
  70
    32
  0
VERTEX
  8
0
  5
553
 10
72.5504
 20
271.303
 30
0.000000
  70
    32
  0
VERTEX
  8
0
  5
554
 10
72.5473
 20
271.218
 30
0.000000
  70
    32
  0
VERTEX
  8
0
  5
555
 10
72.5545
 20
271.134
 30
0.000000
  70
    32
  0
VERTEX
  8
0
  5
556
 10
72.5720
 20
271.050
 30
0.000000
  70
    32
  0
VERTEX
  8
0
  5
557
 10
72.5997
 20
270.966
 30
0.000000
  70
    32
  0
VERTEX
  8
0
  5
558
 10
72.6376
 20
270.882
 30
0.000000
  70
    32
  0
VERTEX
  8
0
  5
559
 10
72.6856
 20
270.799
 30
0.000000
  70
    32
  0
VERTEX
  8
0
  5
55A
 10
72.7438
 20
270.716
 30
0.000000
  70
    32
  0
VERTEX
  8
0
  5
55B
 10
72.8119
 20
270.634
 30
0.000000
  70
    32
  0
VERTEX
  8
0
  5
55C
 10
72.8901
 20
270.553
 30
0.000000
  70
    32
  0
VERTEX
  8
0
  5
55D
 10
72.9780
 20
270.472
 30
0.000000
  70
    32
  0
VERTEX
  8
0
  5
55E
 10
73.0757
 20
270.393
 30
0.000000
  70
    32
  0
VERTEX
  8
0
  5
55F
 10
73.1831
 20
270.314
 30
0.000000
  70
    32
  0
VERTEX
  8
0
  5
560
 10
73.2999
 20
270.236
 30
0.000000
  70
    32
  0
VERTEX
  8
0
  5
561
 10
73.4261
 20
270.160
 30
0.000000
  70
    32
  0
VERTEX
  8
0
  5
562
 10
73.5615
 20
270.085
 30
0.000000
  70
    32
  0
VERTEX
  8
0
  5
563
 10
73.7059
 20
270.012
 30
0.000000
  70
    32
  0
VERTEX
  8
0
  5
564
 10
73.8592
 20
269.940
 30
0.000000
  70
    32
  0
VERTEX
  8
0
  5
565
 10
74.0211
 20
269.869
 30
0.000000
  70
    32
  0
VERTEX
  8
0
  5
566
 10
74.1916
 20
269.800
 30
0.000000
  70
    32
  0
VERTEX
  8
0
  5
567
 10
74.3703
 20
269.733
 30
0.000000
  70
    32
  0
VERTEX
  8
0
  5
568
 10
74.5571
 20
269.668
 30
0.000000
  70
    32
  0
VERTEX
  8
0
  5
569
 10
74.7517
 20
269.604
 30
0.000000
  70
    32
  0
VERTEX
  8
0
  5
56A
 10
74.9540
 20
269.543
 30
0.000000
  70
    32
  0
VERTEX
  8
0
  5
56B
 10
75.1635
 20
269.483
 30
0.000000
  70
    32
  0
VERTEX
  8
0
  5
56C
 10
75.3802
 20
269.426
 30
0.000000
  70
    32
  0
VERTEX
  8
0
  5
56D
 10
75.6038
 20
269.371
 30
0.000000
  70
    32
  0
VERTEX
  8
0
  5
56E
 10
75.8339
 20
269.318
 30
0.000000
  70
    32
  0
VERTEX
  8
0
  5
56F
 10
76.0703
 20
269.267
 30
0.000000
  70
    32
  0
VERTEX
  8
0
  5
570
 10
76.3127
 20
269.219
 30
0.000000
  70
    32
  0
VERTEX
  8
0
  5
571
 10
76.5608
 20
269.173
 30
0.000000
  70
    32
  0
VERTEX
  8
0
  5
572
 10
76.8144
 20
269.130
 30
0.000000
  70
    32
  0
VERTEX
  8
0
  5
573
 10
77.0730
 20
269.089
 30
0.000000
  70
    32
  0
VERTEX
  8
0
  5
574
 10
77.3365
 20
269.051
 30
0.000000
  70
    32
  0
VERTEX
  8
0
  5
575
 10
77.6044
 20
269.016
 30
0.000000
  70
    32
  0
VERTEX
  8
0
  5
576
 10
77.8765
 20
268.983
 30
0.000000
  70
    32
  0
VERTEX
  8
0
  5
577
 10
78.1524
 20
268.953
 30
0.000000
  70
    32
  0
VERTEX
  8
0
  5
578
 10
78.4318
 20
268.926
 30
0.000000
  70
    32
  0
VERTEX
  8
0
  5
579
 10
78.7144
 20
268.901
 30
0.000000
  70
    32
  0
VERTEX
  8
0
  5
57A
 10
78.9998
 20
268.879
 30
0.000000
  70
    32
  0
VERTEX
  8
0
  5
57B
 10
79.2877
 20
268.860
 30
0.000000
  70
    32
  0
VERTEX
  8
0
  5
57C
 10
79.5776
 20
268.844
 30
0.000000
  70
    32
  0
VERTEX
  8
0
  5
57D
 10
79.8694
 20
268.831
 30
0.000000
  70
    32
  0
VERTEX
  8
0
  5
57E
 10
80.1626
 20
268.821
 30
0.000000
  70
    32
  0
VERTEX
  8
0
  5
57F
 10
80.4568
 20
268.814
 30
0.000000
  70
    32
  0
VERTEX
  8
0
  5
580
 10
80.7518
 20
268.809
 30
0.000000
  70
    32
  0
VERTEX
  8
0
  5
581
 10
81.0471
 20
268.808
 30
0.000000
  70
    32
  0
VERTEX
  8
0
  5
582
 10
81.3424
 20
268.809
 30
0.000000
  70
    32
  0
VERTEX
  8
0
  5
583
 10
81.6374
 20
268.814
 30
0.000000
  70
    32
  0
VERTEX
  8
0
  5
584
 10
81.9317
 20
268.821
 30
0.000000
  70
    32
  0
VERTEX
  8
0
  5
585
 10
82.2248
 20
268.831
 30
0.000000
  70
    32
  0
VERTEX
  8
0
  5
586
 10
82.5166
 20
268.844
 30
0.000000
  70
    32
  0
VERTEX
  8
0
  5
587
 10
82.8066
 20
268.860
 30
0.000000
  70
    32
  0
VERTEX
  8
0
  5
588
 10
83.0945
 20
268.879
 30
0.000000
  70
    32
  0
VERTEX
  8
0
  5
589
 10
83.3798
 20
268.901
 30
0.000000
  70
    32
  0
VERTEX
  8
0
  5
58A
 10
83.6624
 20
268.926
 30
0.000000
  70
    32
  0
VERTEX
  8
0
  5
58B
 10
83.9418
 20
268.953
 30
0.000000
  70
    32
  0
VERTEX
  8
0
  5
58C
 10
84.2178
 20
268.983
 30
0.000000
  70
    32
  0
VERTEX
  8
0
  5
58D
 10
84.4898
 20
269.016
 30
0.000000
  70
    32
  0
VERTEX
  8
0
  5
58E
 10
84.7578
 20
269.051
 30
0.000000
  70
    32
  0
VERTEX
  8
0
  5
58F
 10
85.0212
 20
269.089
 30
0.000000
  70
    32
  0
VERTEX
  8
0
  5
590
 10
85.2799
 20
269.130
 30
0.000000
  70
    32
  0
VERTEX
  8
0
  5
591
 10
85.5334
 20
269.173
 30
0.000000
  70
    32
  0
VERTEX
  8
0
  5
592
 10
85.7816
 20
269.219
 30
0.000000
  70
    32
  0
VERTEX
  8
0
  5
593
 10
86.0240
 20
269.267
 30
0.000000
  70
    32
  0
VERTEX
  8
0
  5
594
 10
86.2604
 20
269.318
 30
0.000000
  70
    32
  0
VERTEX
  8
0
  5
595
 10
86.4905
 20
269.371
 30
0.000000
  70
    32
  0
VERTEX
  8
0
  5
596
 10
86.7140
 20
269.426
 30
0.000000
  70
    32
  0
VERTEX
  8
0
  5
597
 10
86.9307
 20
269.483
 30
0.000000
  70
    32
  0
VERTEX
  8
0
  5
598
 10
87.1403
 20
269.543
 30
0.000000
  70
    32
  0
VERTEX
  8
0
  5
599
 10
87.3425
 20
269.604
 30
0.000000
  70
    32
  0
VERTEX
  8
0
  5
59A
 10
87.5371
 20
269.668
 30
0.000000
  70
    32
  0
VERTEX
  8
0
  5
59B
 10
87.7239
 20
269.733
 30
0.000000
  70
    32
  0
VERTEX
  8
0
  5
59C
 10
87.9027
 20
269.800
 30
0.000000
  70
    32
  0
VERTEX
  8
0
  5
59D
 10
88.0731
 20
269.869
 30
0.000000
  70
    32
  0
VERTEX
  8
0
  5
59E
 10
88.2351
 20
269.940
 30
0.000000
  70
    32
  0
VERTEX
  8
0
  5
59F
 10
88.3884
 20
270.012
 30
0.000000
  70
    32
  0
VERTEX
  8
0
  5
5A0
 10
88.5328
 20
270.085
 30
0.000000
  70
    32
  0
VERTEX
  8
0
  5
5A1
 10
88.6682
 20
270.160
 30
0.000000
  70
    32
  0
VERTEX
  8
0
  5
5A2
 10
88.7944
 20
270.236
 30
0.000000
  70
    32
  0
VERTEX
  8
0
  5
5A3
 10
88.9112
 20
270.314
 30
0.000000
  70
    32
  0
VERTEX
  8
0
  5
5A4
 10
89.0185
 20
270.393
 30
0.000000
  70
    32
  0
VERTEX
  8
0
  5
5A5
 10
89.1162
 20
270.472
 30
0.000000
  70
    32
  0
VERTEX
  8
0
  5
5A6
 10
89.2042
 20
270.553
 30
0.000000
  70
    32
  0
VERTEX
  8
0
  5
5A7
 10
89.2823
 20
270.634
 30
0.000000
  70
    32
  0
VERTEX
  8
0
  5
5A8
 10
89.3505
 20
270.716
 30
0.000000
  70
    32
  0
VERTEX
  8
0
  5
5A9
 10
89.4086
 20
270.799
 30
0.000000
  70
    32
  0
VERTEX
  8
0
  5
5AA
 10
89.4567
 20
270.882
 30
0.000000
  70
    32
  0
VERTEX
  8
0
  5
5AB
 10
89.4946
 20
270.966
 30
0.000000
  70
    32
  0
VERTEX
  8
0
  5
5AC
 10
89.5223
 20
271.050
 30
0.000000
  70
    32
  0
VERTEX
  8
0
  5
5AD
 10
89.5397
 20
271.134
 30
0.000000
  70
    32
  0
VERTEX
  8
0
  5
5AE
 10
89.5469
 20
271.218
 30
0.000000
  70
    32
  0
VERTEX
  8
0
  5
5AF
 10
89.5439
 20
271.303
 30
0.000000
  70
    32
  0
VERTEX
  8
0
  5
5B0
 10
89.5305
 20
271.387
 30
0.000000
  70
    32
  0
VERTEX
  8
0
  5
5B1
 10
89.5070
 20
271.471
 30
0.000000
  70
    32
  0
VERTEX
  8
0
  5
5B2
 10
89.4732
 20
271.555
 30
0.000000
  70
    32
  0
VERTEX
  8
0
  5
5B3
 10
89.4293
 20
271.638
 30
0.000000
  70
    32
  0
VERTEX
  8
0
  5
5B4
 10
89.3752
 20
271.721
 30
0.000000
  70
    32
  0
VERTEX
  8
0
  5
5B5
 10
89.3110
 20
271.803
 30
0.000000
  70
    32
  0
VERTEX
  8
0
  5
5B6
 10
89.2369
 20
271.885
 30
0.000000
  70
    32
  0
VERTEX
  8
0
  5
5B7
 10
89.1529
 20
271.966
 30
0.000000
  70
    32
  0
VERTEX
  8
0
  5
5B8
 10
89.0592
 20
272.046
 30
0.000000
  70
    32
  0
VERTEX
  8
0
  5
5B9
 10
88.9557
 20
272.125
 30
0.000000
  70
    32
  0
VERTEX
  8
0
  5
5BA
 10
88.8427
 20
272.203
 30
0.000000
  70
    32
  0
VERTEX
  8
0
  5
5BB
 10
88.7203
 20
272.280
 30
0.000000
  70
    32
  0
VERTEX
  8
0
  5
5BC
 10
88.5886
 20
272.355
 30
0.000000
  70
    32
  0
VERTEX
  8
0
  5
5BD
 10
88.4478
 20
272.429
 30
0.000000
  70
    32
  0
VERTEX
  8
0
  5
5BE
 10
88.2981
 20
272.502
 30
0.000000
  70
    32
  0
VERTEX
  8
0
  5
5BF
 10
88.1396
 20
272.573
 30
0.000000
  70
    32
  0
VERTEX
  8
0
  5
5C0
 10
87.9725
 20
272.643
 30
0.000000
  70
    32
  0
VERTEX
  8
0
  5
5C1
 10
87.7971
 20
272.711
 30
0.000000
  70
    32
  0
SEQEND
  8
0
  5
5C2
  0
POLYLINE
  5
23B
  8
0
 10
75.270320877961382
 20
274.5187452637943
 30
0.0
 66
     1
 70
     8
  0
VERTEX
  8
0
  5
5C3
 10
75.2703
 20
274.519
 30
0.000000
  70
    32
  0
VERTEX
  8
0
  5
5C4
 10
74.7857
 20
274.448
 30
0.000000
  70
    32
  0
VERTEX
  8
0
  5
5C5
 10
74.3121
 20
274.371
 30
0.000000
  70
    32
  0
VERTEX
  8
0
  5
5C6
 10
73.8503
 20
274.289
 30
0.000000
  70
    32
  0
VERTEX
  8
0
  5
5C7
 10
73.4011
 20
274.202
 30
0.000000
  70
    32
  0
VERTEX
  8
0
  5
5C8
 10
72.9654
 20
274.109
 30
0.000000
  70
    32
  0
VERTEX
  8
0
  5
5C9
 10
72.5438
 20
274.012
 30
0.000000
  70
    32
  0
VERTEX
  8
0
  5
5CA
 10
72.1373
 20
273.909
 30
0.000000
  70
    32
  0
VERTEX
  8
0
  5
5CB
 10
71.7463
 20
273.802
 30
0.000000
  70
    32
  0
VERTEX
  8
0
  5
5CC
 10
71.3717
 20
273.690
 30
0.000000
  70
    32
  0
VERTEX
  8
0
  5
5CD
 10
71.0141
 20
273.574
 30
0.000000
  70
    32
  0
VERTEX
  8
0
  5
5CE
 10
70.6741
 20
273.454
 30
0.000000
  70
    32
  0
VERTEX
  8
0
  5
5CF
 10
70.3523
 20
273.330
 30
0.000000
  70
    32
  0
VERTEX
  8
0
  5
5D0
 10
70.0494
 20
273.202
 30
0.000000
  70
    32
  0
VERTEX
  8
0
  5
5D1
 10
69.7657
 20
273.071
 30
0.000000
  70
    32
  0
VERTEX
  8
0
  5
5D2
 10
69.5018
 20
272.936
 30
0.000000
  70
    32
  0
VERTEX
  8
0
  5
5D3
 10
69.2583
 20
272.799
 30
0.000000
  70
    32
  0
VERTEX
  8
0
  5
5D4
 10
69.0354
 20
272.659
 30
0.000000
  70
    32
  0
VERTEX
  8
0
  5
5D5
 10
68.8337
 20
272.516
 30
0.000000
  70
    32
  0
VERTEX
  8
0
  5
5D6
 10
68.6534
 20
272.371
 30
0.000000
  70
    32
  0
VERTEX
  8
0
  5
5D7
 10
68.4948
 20
272.224
 30
0.000000
  70
    32
  0
VERTEX
  8
0
  5
5D8
 10
68.3583
 20
272.076
 30
0.000000
  70
    32
  0
VERTEX
  8
0
  5
5D9
 10
68.2441
 20
271.926
 30
0.000000
  70
    32
  0
VERTEX
  8
0
  5
5DA
 10
68.1524
 20
271.774
 30
0.000000
  70
    32
  0
VERTEX
  8
0
  5
5DB
 10
68.0834
 20
271.622
 30
0.000000
  70
    32
  0
VERTEX
  8
0
  5
5DC
 10
68.0371
 20
271.469
 30
0.000000
  70
    32
  0
VERTEX
  8
0
  5
5DD
 10
68.0136
 20
271.316
 30
0.000000
  70
    32
  0
VERTEX
  8
0
  5
5DE
 10
68.0131
 20
271.162
 30
0.000000
  70
    32
  0
VERTEX
  8
0
  5
5DF
 10
68.0355
 20
271.009
 30
0.000000
  70
    32
  0
VERTEX
  8
0
  5
5E0
 10
68.0807
 20
270.856
 30
0.000000
  70
    32
  0
VERTEX
  8
0
  5
5E1
 10
68.1486
 20
270.703
 30
0.000000
  70
    32
  0
VERTEX
  8
0
  5
5E2
 10
68.2393
 20
270.552
 30
0.000000
  70
    32
  0
VERTEX
  8
0
  5
5E3
 10
68.3524
 20
270.402
 30
0.000000
  70
    32
  0
VERTEX
  8
0
  5
5E4
 10
68.4879
 20
270.253
 30
0.000000
  70
    32
  0
VERTEX
  8
0
  5
5E5
 10
68.6454
 20
270.106
 30
0.000000
  70
    32
  0
VERTEX
  8
0
  5
5E6
 10
68.8247
 20
269.961
 30
0.000000
  70
    32
  0
VERTEX
  8
0
  5
5E7
 10
69.0254
 20
269.818
 30
0.000000
  70
    32
  0
VERTEX
  8
0
  5
5E8
 10
69.2473
 20
269.678
 30
0.000000
  70
    32
  0
VERTEX
  8
0
  5
5E9
 10
69.4899
 20
269.540
 30
0.000000
  70
    32
  0
VERTEX
  8
0
  5
5EA
 10
69.7528
 20
269.406
 30
0.000000
  70
    32
  0
VERTEX
  8
0
  5
5EB
 10
70.0355
 20
269.275
 30
0.000000
  70
    32
  0
VERTEX
  8
0
  5
5EC
 10
70.3376
 20
269.147
 30
0.000000
  70
    32
  0
VERTEX
  8
0
  5
5ED
 10
70.6585
 20
269.022
 30
0.000000
  70
    32
  0
VERTEX
  8
0
  5
5EE
 10
70.9976
 20
268.902
 30
0.000000
  70
    32
  0
VERTEX
  8
0
  5
5EF
 10
71.3544
 20
268.786
 30
0.000000
  70
    32
  0
VERTEX
  8
0
  5
5F0
 10
71.7282
 20
268.674
 30
0.000000
  70
    32
  0
VERTEX
  8
0
  5
5F1
 10
72.1184
 20
268.566
 30
0.000000
  70
    32
  0
VERTEX
  8
0
  5
5F2
 10
72.5243
 20
268.464
 30
0.000000
  70
    32
  0
VERTEX
  8
0
  5
5F3
 10
72.9451
 20
268.366
 30
0.000000
  70
    32
  0
VERTEX
  8
0
  5
5F4
 10
73.3802
 20
268.273
 30
0.000000
  70
    32
  0
VERTEX
  8
0
  5
5F5
 10
73.8288
 20
268.185
 30
0.000000
  70
    32
  0
VERTEX
  8
0
  5
5F6
 10
74.2900
 20
268.103
 30
0.000000
  70
    32
  0
VERTEX
  8
0
  5
5F7
 10
74.7631
 20
268.026
 30
0.000000
  70
    32
  0
VERTEX
  8
0
  5
5F8
 10
75.2472
 20
267.955
 30
0.000000
  70
    32
  0
VERTEX
  8
0
  5
5F9
 10
75.7415
 20
267.889
 30
0.000000
  70
    32
  0
VERTEX
  8
0
  5
5FA
 10
76.2451
 20
267.830
 30
0.000000
  70
    32
  0
VERTEX
  8
0
  5
5FB
 10
76.7572
 20
267.776
 30
0.000000
  70
    32
  0
VERTEX
  8
0
  5
5FC
 10
77.2768
 20
267.729
 30
0.000000
  70
    32
  0
VERTEX
  8
0
  5
5FD
 10
77.8030
 20
267.688
 30
0.000000
  70
    32
  0
VERTEX
  8
0
  5
5FE
 10
78.3350
 20
267.653
 30
0.000000
  70
    32
  0
VERTEX
  8
0
  5
5FF
 10
78.8717
 20
267.624
 30
0.000000
  70
    32
  0
VERTEX
  8
0
  5
600
 10
79.4122
 20
267.601
 30
0.000000
  70
    32
  0
VERTEX
  8
0
  5
601
 10
79.9556
 20
267.585
 30
0.000000
  70
    32
  0
VERTEX
  8
0
  5
602
 10
80.5009
 20
267.576
 30
0.000000
  70
    32
  0
VERTEX
  8
0
  5
603
 10
81.0471
 20
267.572
 30
0.000000
  70
    32
  0
VERTEX
  8
0
  5
604
 10
81.5934
 20
267.576
 30
0.000000
  70
    32
  0
VERTEX
  8
0
  5
605
 10
82.1387
 20
267.585
 30
0.000000
  70
    32
  0
VERTEX
  8
0
  5
606
 10
82.6821
 20
267.601
 30
0.000000
  70
    32
  0
VERTEX
  8
0
  5
607
 10
83.2226
 20
267.624
 30
0.000000
  70
    32
  0
VERTEX
  8
0
  5
608
 10
83.7593
 20
267.653
 30
0.000000
  70
    32
  0
VERTEX
  8
0
  5
609
 10
84.2912
 20
267.688
 30
0.000000
  70
    32
  0
VERTEX
  8
0
  5
60A
 10
84.8174
 20
267.729
 30
0.000000
  70
    32
  0
VERTEX
  8
0
  5
60B
 10
85.3370
 20
267.776
 30
0.000000
  70
    32
  0
VERTEX
  8
0
  5
60C
 10
85.8491
 20
267.830
 30
0.000000
  70
    32
  0
VERTEX
  8
0
  5
60D
 10
86.3527
 20
267.889
 30
0.000000
  70
    32
  0
VERTEX
  8
0
  5
60E
 10
86.8471
 20
267.955
 30
0.000000
  70
    32
  0
VERTEX
  8
0
  5
60F
 10
87.3312
 20
268.026
 30
0.000000
  70
    32
  0
VERTEX
  8
0
  5
610
 10
87.8043
 20
268.103
 30
0.000000
  70
    32
  0
VERTEX
  8
0
  5
611
 10
88.2655
 20
268.185
 30
0.000000
  70
    32
  0
VERTEX
  8
0
  5
612
 10
88.7140
 20
268.273
 30
0.000000
  70
    32
  0
VERTEX
  8
0
  5
613
 10
89.1491
 20
268.366
 30
0.000000
  70
    32
  0
VERTEX
  8
0
  5
614
 10
89.5700
 20
268.464
 30
0.000000
  70
    32
  0
VERTEX
  8
0
  5
615
 10
89.9758
 20
268.566
 30
0.000000
  70
    32
  0
VERTEX
  8
0
  5
616
 10
90.3660
 20
268.674
 30
0.000000
  70
    32
  0
VERTEX
  8
0
  5
617
 10
90.7398
 20
268.786
 30
0.000000
  70
    32
  0
VERTEX
  8
0
  5
618
 10
91.0966
 20
268.902
 30
0.000000
  70
    32
  0
VERTEX
  8
0
  5
619
 10
91.4358
 20
269.022
 30
0.000000
  70
    32
  0
VERTEX
  8
0
  5
61A
 10
91.7567
 20
269.147
 30
0.000000
  70
    32
  0
VERTEX
  8
0
  5
61B
 10
92.0587
 20
269.275
 30
0.000000
  70
    32
  0
VERTEX
  8
0
  5
61C
 10
92.3415
 20
269.406
 30
0.000000
  70
    32
  0
VERTEX
  8
0
  5
61D
 10
92.6044
 20
269.540
 30
0.000000
  70
    32
  0
VERTEX
  8
0
  5
61E
 10
92.8470
 20
269.678
 30
0.000000
  70
    32
  0
VERTEX
  8
0
  5
61F
 10
93.0688
 20
269.818
 30
0.000000
  70
    32
  0
VERTEX
  8
0
  5
620
 10
93.2696
 20
269.961
 30
0.000000
  70
    32
  0
VERTEX
  8
0
  5
621
 10
93.4489
 20
270.106
 30
0.000000
  70
    32
  0
VERTEX
  8
0
  5
622
 10
93.6064
 20
270.253
 30
0.000000
  70
    32
  0
VERTEX
  8
0
  5
623
 10
93.7418
 20
270.402
 30
0.000000
  70
    32
  0
VERTEX
  8
0
  5
624
 10
93.8550
 20
270.552
 30
0.000000
  70
    32
  0
VERTEX
  8
0
  5
625
 10
93.9456
 20
270.703
 30
0.000000
  70
    32
  0
VERTEX
  8
0
  5
626
 10
94.0136
 20
270.856
 30
0.000000
  70
    32
  0
VERTEX
  8
0
  5
627
 10
94.0588
 20
271.009
 30
0.000000
  70
    32
  0
VERTEX
  8
0
  5
628
 10
94.0812
 20
271.162
 30
0.000000
  70
    32
  0
VERTEX
  8
0
  5
629
 10
94.0806
 20
271.316
 30
0.000000
  70
    32
  0
VERTEX
  8
0
  5
62A
 10
94.0572
 20
271.469
 30
0.000000
  70
    32
  0
VERTEX
  8
0
  5
62B
 10
94.0109
 20
271.622
 30
0.000000
  70
    32
  0
VERTEX
  8
0
  5
62C
 10
93.9418
 20
271.774
 30
0.000000
  70
    32
  0
VERTEX
  8
0
  5
62D
 10
93.8501
 20
271.926
 30
0.000000
  70
    32
  0
VERTEX
  8
0
  5
62E
 10
93.7359
 20
272.076
 30
0.000000
  70
    32
  0
VERTEX
  8
0
  5
62F
 10
93.5994
 20
272.224
 30
0.000000
  70
    32
  0
VERTEX
  8
0
  5
630
 10
93.4409
 20
272.371
 30
0.000000
  70
    32
  0
VERTEX
  8
0
  5
631
 10
93.2606
 20
272.516
 30
0.000000
  70
    32
  0
VERTEX
  8
0
  5
632
 10
93.0588
 20
272.659
 30
0.000000
  70
    32
  0
VERTEX
  8
0
  5
633
 10
92.8360
 20
272.799
 30
0.000000
  70
    32
  0
VERTEX
  8
0
  5
634
 10
92.5924
 20
272.936
 30
0.000000
  70
    32
  0
VERTEX
  8
0
  5
635
 10
92.3286
 20
273.071
 30
0.000000
  70
    32
  0
VERTEX
  8
0
  5
636
 10
92.0449
 20
273.202
 30
0.000000
  70
    32
  0
VERTEX
  8
0
  5
637
 10
91.7419
 20
273.330
 30
0.000000
  70
    32
  0
VERTEX
  8
0
  5
638
 10
91.4202
 20
273.454
 30
0.000000
  70
    32
  0
VERTEX
  8
0
  5
639
 10
91.0802
 20
273.574
 30
0.000000
  70
    32
  0
VERTEX
  8
0
  5
63A
 10
90.7226
 20
273.690
 30
0.000000
  70
    32
  0
VERTEX
  8
0
  5
63B
 10
90.3479
 20
273.802
 30
0.000000
  70
    32
  0
VERTEX
  8
0
  5
63C
 10
89.9570
 20
273.909
 30
0.000000
  70
    32
  0
VERTEX
  8
0
  5
63D
 10
89.5504
 20
274.012
 30
0.000000
  70
    32
  0
VERTEX
  8
0
  5
63E
 10
89.1289
 20
274.109
 30
0.000000
  70
    32
  0
VERTEX
  8
0
  5
63F
 10
88.6931
 20
274.202
 30
0.000000
  70
    32
  0
VERTEX
  8
0
  5
640
 10
88.2440
 20
274.289
 30
0.000000
  70
    32
  0
VERTEX
  8
0
  5
641
 10
87.7822
 20
274.371
 30
0.000000
  70
    32
  0
VERTEX
  8
0
  5
642
 10
87.3086
 20
274.448
 30
0.000000
  70
    32
  0
VERTEX
  8
0
  5
643
 10
86.8239
 20
274.519
 30
0.000000
  70
    32
  0
SEQEND
  8
0
  5
644
  0
LINE
  5
23C
  8
0
 10
87.797127146042385
 20
273.92230386962649
 30
0.0
 11
74.297127146042385
 21
273.92230386962638
 31
0.0
  0
ARC
  5
23D
  8
0
 10
81.047127146042499
 20
264.00073645313421
 30
0.0
 40
12.0
 50
109.4670447595973
 51
124.2288663278127
  0
ARC
  5
23E
  8
0
 10
81.047127146042499
 20
264.00073645313421
 30
0.0
 40
12.0
 50
55.771133672187283
 51
70.532955240402714
  0
LINE
  5
23F
  8
0
 10
85.04630256104997
 20
275.31473645313429
 30
0.0
 11
77.047951731035013
 21
275.31473645313429
 31
0.0
  0
LINE
  5
240
  8
0
 10
74.297127146042385
 20
273.92230386962638
 30
0.0
 11
74.297127146042385
 21
269.75988274030982
 31
0.0
  0
LINE
  5
241
  8
0
 10
87.797127146042385
 20
273.92230386962649
 30
0.0
 11
87.797127146042385
 21
269.7598827403275
 31
0.0
  0
LINE
  5
242
  8
0
 10
176.74999999999989
 20
273.92230386962649
 30
0.0
 11
163.25
 21
273.92230386962638
 31
0.0
  0
ARC
  5
243
  8
0
 10
170.0
 20
264.00073645313421
 30
0.0
 40
12.0
 50
109.4670447595973
 51
124.2288663278127
  0
ARC
  5
244
  8
0
 10
170.0
 20
264.00073645313421
 30
0.0
 40
12.0
 50
55.771133672188078
 51
70.532955240402714
  0
LINE
  5
245
  8
0
 10
173.99917541500739
 20
275.31473645313429
 30
0.0
 11
166.00082458499261
 21
275.31473645313429
 31
0.0
  0
LINE
  5
246
  8
0
 10
163.25
 20
273.92230386962638
 30
0.0
 11
163.24999999999989
 21
269.30751629628912
 31
0.0
  0
ARC
  5
247
  8
0
 10
167.96000000000001
 20
374.36869328766659
 30
0.0
 40
0.5099999999999998
 50
103.34175822722121
 51
256.65824177277881
  0
ARC
  5
248
  8
0
 10
167.63636057704801
 20
375.7333411447753
 30
0.0
 40
0.8925000000000004
 50
283.34175822722119
 51
16.658241772777039
  0
ARC
  5
249
  8
0
 10
168.97999999999999
 20
376.13538511138688
 30
0.0
 40
0.5099999999999997
 50
43.341758227221433
 51
196.65824177277699
  0
ARC
  5
24A
  8
0
 10
170.0
 20
377.09798900188389
 30
0.0
 40
0.8924999999999984
 50
223.34175822722139
 51
316.65824177277852
  0
ARC
  5
24B
  8
0
 10
171.02000000000001
 20
376.13538511138688
 30
0.0
 40
0.5100000000000003
 50
343.3417582272229
 51
136.65824177277861
  0
ARC
  5
24C
  8
0
 10
167.63636057704801
 20
373.00404543055799
 30
0.0
 40
0.8925000000000011
 50
343.3417582272229
 51
76.658241772778837
  0
ARC
  5
24D
  8
0
 10
168.97999999999999
 20
372.60200146394641
 30
0.0
 40
0.5100000000000002
 50
163.3417582272229
 51
316.65824177277852
  0
ARC
  5
24E
  8
0
 10
170.0
 20
371.6393975734494
 30
0.0
 40
0.8925000000000002
 50
43.341758227221433
 51
136.65824177277511
  0
ARC
  5
24F
  8
0
 10
171.02000000000001
 20
372.60200146394641
 30
0.0
 40
0.5099999999999997
 50
223.34175822722139
 51
16.658241772777039
  0
ARC
  5
250
  8
0
 10
172.36363942295219
 20
373.00404543055799
 30
0.0
 40
0.8925000000000002
 50
103.34175822722121
 51
196.65824177277699
  0
ARC
  5
251
  8
0
 10
172.03999999999991
 20
374.36869328766659
 30
0.0
 40
0.5100000000000005
 50
283.34175822722119
 51
76.658241772778837
  0
ARC
  5
252
  8
0
 10
172.36363942295219
 20
375.7333411447753
 30
0.0
 40
0.8925000000000011
 50
163.3417582272229
 51
256.65824177277881
  0
CIRCLE
  5
253
  8
0
 10
170.0
 20
374.36869328766659
 30
0.0
 40
6.75
  0
CIRCLE
  5
254
  8
0
 10
170.0
 20
374.36869328766659
 30
0.0
 40
3.999175415007485
  0
LINE
  5
255
  8
0
 10
166.19999999999999
 20
373.69369328766669
 30
0.0
 11
168.2028780817954
 21
373.69369328766669
 31
0.0
  0
LINE
  5
256
  8
0
 10
166.19999999999999
 20
375.04369328766683
 30
0.0
 11
168.2028780817954
 21
375.04369328766683
 31
0.0
  0
LINE
  5
257
  8
0
 10
171.79712191820451
 20
373.69369328766669
 30
0.0
 11
173.7999999999999
 21
373.69369328766669
 31
0.0
  0
LINE
  5
258
  8
0
 10
171.79712191820451
 20
375.04369328766683
 30
0.0
 11
173.7999999999999
 21
375.04369328766683
 31
0.0
  0
LINE
  5
259
  8
0
 10
173.7999999999999
 20
375.04369328766683
 30
0.0
 11
173.7999999999999
 21
373.69369328766669
 31
0.0
  0
LINE
  5
25A
  8
0
 10
166.19999999999999
 20
375.04369328766683
 30
0.0
 11
166.19999999999999
 21
373.69369328766669
 31
0.0
  0
POLYLINE
  5
275
  8
0
 66
     1
 10
0.0
 20
0.0
 30
0.0
  0
VERTEX
  5
4FF
  8
0
 10
86.901389804410201
 20
289.82127559438482
 30
0.0
 42
0.1074733419819939
  0
VERTEX
  5
500
  8
0
 10
86.464959504349395
 20
291.82823516002668
 30
0.0
 42
0.1017692295728794
  0
VERTEX
  5
501
  8
0
 10
85.186715970621549
 20
293.57737267931219
 30
0.0
 42
0.0946206036699918
  0
VERTEX
  5
502
  8
0
 10
83.313078201314966
 20
294.72144130948323
 30
0.0
 42
0.0901196891814401
  0
VERTEX
  5
503
  8
0
 10
81.047127146042499
 20
295.13319903347929
 30
0.0
 42
0.0901196891814506
  0
VERTEX
  5
504
  8
0
 10
78.781176090770259
 20
294.72144130948311
 30
0.0
 42
0.094620603670007
  0
VERTEX
  5
505
  8
0
 10
76.907538321463676
 20
293.57737267931219
 30
0.0
 42
0.101769229572882
  0
VERTEX
  5
506
  8
0
 10
75.62929478773583
 20
291.82823516002668
 30
0.0
 42
0.1074733419819977
  0
VERTEX
  5
507
  8
0
 10
75.19286448767491
 20
289.82127559438482
 30
0.0
 42
0.107473341981997
  0
SEQEND
  5
508
  8
0
  0
LINE
  5
276
  8
0
 10
86.901389804410201
 20
289.82127559438482
 30
0.0
 11
89.184499606835629
 21
274.09682456899702
 31
0.0
  0
LINE
  5
277
  8
0
 10
75.19286448767491
 20
289.82127559438482
 30
0.0
 11
72.909754685249368
 21
274.09682456899742
 31
0.0
  0
ARC
  5
278
  8
0
 10
81.047127146042499
 20
292.31473645313429
 30
0.0
 40
11.0
 50
307.87253538437369
 51
232.1274646156254
  0
LINE
  5
279
  8
1
 10
97.047127146042499
 20
292.31473645313429
 30
0.0
 11
65.047127146042499
 21
292.31473645313429
 31
0.0
  0
LINE
  5
27A
  8
1
 10
81.047127146042499
 20
308.31473645313429
 30
0.0
 11
81.047127146042314
 21
189.31473645313429
 31
0.0
  0
LINE
  5
27B
  8
0
 10
69.547127146042499
 20
224.81473645314159
 30
0.0
 11
92.547127146042499
 21
224.81473645314159
 31
0.0
  0
LINE
  5
27C
  8
0
 10
66.183137145882256
 20
236.81473645313429
 30
0.0
 11
95.70948621162438
 21
236.81473645313429
 31
0.0
  0
LINE
  5
27D
  8
0
 10
92.047127146035209
 20
224.31473645313429
 30
0.0
 11
70.047127146049775
 21
224.31473645313429
 31
0.0
  0
LINE
  5
27E
  8
0
 10
66.683137145882256
 20
236.31473645313429
 30
0.0
 11
95.411117146202741
 21
236.31473645313429
 31
0.0
  0
LINE
  5
27F
  8
0
 10
70.047127146049775
 20
224.31473645313429
 30
0.0
 11
69.547127146042499
 21
224.81473645314159
 31
0.0
  0
LINE
  5
280
  8
0
 10
69.547127146042499
 20
224.81473645314159
 30
0.0
 11
69.547127146042499
 21
236.31473645313429
 31
0.0
  0
LINE
  5
281
  8
0
 10
66.683137145882256
 20
236.31473645313429
 30
0.0
 11
66.183137145882256
 21
236.81473645313429
 31
0.0
  0
LINE
  5
282
  8
0
 10
95.411117146202741
 20
236.31473645313429
 30
0.0
 11
95.911117146202727
 21
236.81473645313429
 31
0.0
  0
LINE
  5
283
  8
0
 10
92.547127146042499
 20
224.81473645314159
 30
0.0
 11
92.547127146042499
 21
236.31473645313429
 31
0.0
  0
LINE
  5
284
  8
0
 10
92.047127146035209
 20
224.31473645313429
 30
0.0
 11
92.547127146042499
 21
224.81473645314159
 31
0.0
  0
LINE
  5
285
  8
0
 10
95.911117146202727
 20
236.81473645313429
 30
0.0
 11
96.24712714604243
 21
256.0647364531726
 31
0.0
  0
LINE
  5
286
  8
0
 10
66.183137145882256
 20
236.81473645313429
 30
0.0
 11
65.847127146042453
 21
256.0647364531726
 31
0.0
  0
LINE
  5
287
  8
0
 10
65.547127146042484
 20
256.06473645313429
 30
0.0
 11
96.547127146042513
 21
256.06473645313429
 31
0.0
  0
LINE
  5
288
  8
0
 10
65.547127146042484
 20
257.26473645314587
 30
0.0
 11
96.547127146033858
 21
257.26473645314587
 31
0.0
  0
LINE
  5
289
  8
0
 10
65.547127146042484
 20
256.06473645313429
 30
0.0
 11
65.547127146042484
 21
257.26473645314587
 31
0.0
  0
LINE
  5
28A
  8
0
 10
96.547127146042513
 20
256.06473645313429
 30
0.0
 11
96.547127146042513
 21
257.26473645314587
 31
0.0
  0
LINE
  5
28B
  8
0
 10
65.547127146042484
 20
257.2647364530975
 30
0.0
 11
68.01049814513965
 21
271.23520761525049
 31
0.0
  0
LINE
  5
28C
  8
0
 10
96.547127146042513
 20
257.2647364530975
 30
0.0
 11
94.083756146945234
 21
271.23520761525049
 31
0.0
  0
LINE
  5
28D
  8
0
 10
158.5
 20
224.81473645314159
 30
0.0
 11
181.5
 21
224.81473645314159
 31
0.0
  0
LINE
  5
28E
  8
0
 10
155.1360099998397
 20
236.81473645313429
 30
0.0
 11
184.6623590655818
 21
236.81473645313429
 31
0.0
  0
ARC
  5
28F
  8
0
 10
157.5863421727243
 20
266.13009698167338
 30
0.0
 40
1.5
 50
105.9384888797205
 51
169.99999999999969
  0
LINE
  5
290
  8
0
 10
154.5
 20
257.26473645318538
 30
0.0
 11
181.65570279206071
 21
257.26473645314587
 31
0.0
  0
ARC
  5
291
  8
0
 10
195.18519582763449
 20
266.91618496190893
 30
0.0
 40
15.0
 50
148.3829792102425
 51
189.7972463626748
  0
LINE
  5
292
  8
0
 10
181.8672951689027
 20
256.06473645313429
 30
0.0
 11
180.40395466332831
 21
264.3637528587098
 31
0.0
  0
LINE
  5
293
  8
0
 10
185.46917119255119
 20
265.96080949578362
 30
0.0
 11
181.8672951689027
 21
256.06473645313429
 31
0.0
  0
ARC
  5
294
  8
0
 10
158.69161588992191
 20
374.3686932876667
 30
0.0
 40
23.72001138741059
 50
336.25683855798388
 51
23.74316144201611
  0
ARC
  5
295
  8
0
 10
169.35926193718529
 20
374.3686932876667
 30
0.0
 40
13.05236534014713
 50
272.81376949536133
 51
87.186230504638687
  0
ARC
  5
296
  8
0
 10
169.32612037751329
 20
374.3686932876667
 30
0.0
 40
13.054034221386731
 50
87.040943296313245
 51
272.95905670368671
  0
LINE
  5
297
  8
0
 10
200.3702823197936
 20
279.17805931236887
 30
0.0
 11
200.2499999999915
 21
279.55954609266928
 31
0.0
  0
LINE
  5
298
  8
0
 10
188.78028231980221
 20
276.07252817216778
 30
0.0
 11
200.3702823197936
 21
279.17805931236887
 31
0.0
  0
LINE
  5
299
  8
0
 10
188.65999999999991
 20
276.45401495246892
 30
0.0
 11
188.78028231980221
 21
276.07252817216778
 31
0.0
  0
LINE
  5
29A
  8
0
 10
200.2499999999915
 20
279.55954609266928
 30
0.0
 11
258.37166403461731
 21
295.14995683380278
 31
0.0
  0
ARC
  5
29B
  8
0
 10
170.0
 20
374.3686932876667
 30
0.0
 40
15.5
 50
37.635831765054071
 51
322.36416823494602
  0
LINE
  5
29C
  8
0
 10
260.14582825169339
 20
368.46869328766661
 30
0.0
 11
180.40395466332831
 21
364.81812863379849
 31
0.0
  0
LINE
  5
29D
  8
0
 10
260.14582825169339
 20
380.26869328766668
 30
0.0
 11
180.40395466332831
 21
383.91925794153491
 31
0.0
  0
ARC
  5
29E
  8
0
 10
271.26542575078048
 20
374.3686932876667
 30
0.0
 40
12.89376171616329
 50
149.58728493767839
 51
210.41271506232161
  0
ARC
  5
29F
  8
0
 10
269.0
 20
374.3686932876667
 30
0.0
 40
11.0
 50
216.39701575852891
 51
143.60298424147109
  0
ARC
  5
2A0
  8
0
 10
244.79950826498469
 20
284.6843507188081
 30
0.0
 40
17.138620819347882
 50
357.3638742418463
 51
37.636125758153973
  0
ARC
  5
2A1
  8
0
 10
269.0
 20
292.31473645313429
 30
0.0
 40
11.0
 50
229.9364372123724
 51
165.06356278762229
  0
LINE
  5
2A2
  8
1
 10
284.25947121196589
 20
297.1260292452198
 30
0.0
 11
170.0
 21
261.08339855381053
 31
0.0
  0
LINE
  5
2A3
  8
0
 10
261.91999246877953
 20
283.89609681493471
 30
0.0
 11
185.5000000000116
 21
256.06473645313253
 31
0.0
  0
LINE
  5
2A4
  8
0
 10
182.41162727733251
 20
274.77976852735378
 30
0.0
 11
188.6600000000175
 21
276.45401495240372
 31
0.0
  0
LINE
  5
2A5
  8
0
 10
157.1744343518171
 20
267.57243256921032
 30
0.0
 11
182.41162727733251
 21
274.77976852735378
 31
0.0
  0
LINE
  5
2A6
  8
0
 10
154.5
 20
257.2647364530975
 30
0.0
 11
156.10913054320611
 21
266.39056924817379
 31
0.0
  0
LINE
  5
2A7
  8
0
 10
154.5
 20
256.06473645313429
 30
0.0
 11
154.5
 21
257.2647364530975
 31
0.0
  0
LINE
  5
2A8
  8
1
 10
264.18870720793871
 20
307.57420766510819
 30
0.0
 11
273.81129279207551
 21
277.05526524116459
 31
0.0
  0
LINE
  5
2A9
  8
1
 10
170.0
 20
280.31473645313429
 30
0.0
 11
170.0
 21
189.31473645313429
 31
0.0
  0
LINE
  5
2AA
  8
0
 10
180.9999999999927
 20
224.31473645313429
 30
0.0
 11
159.00000000000719
 21
224.31473645313429
 31
0.0
  0
LINE
  5
2AB
  8
0
 10
155.6360099998397
 20
236.31473645313429
 30
0.0
 11
184.36399000016019
 21
236.31473645313429
 31
0.0
  0
LINE
  5
2AC
  8
0
 10
159.00000000000719
 20
224.31473645313429
 30
0.0
 11
158.5
 21
224.81473645314159
 31
0.0
  0
LINE
  5
2AD
  8
0
 10
158.5
 20
224.81473645314159
 30
0.0
 11
158.5
 21
236.31473645313429
 31
0.0
  0
LINE
  5
2AE
  8
0
 10
155.6360099998397
 20
236.31473645313429
 30
0.0
 11
155.1360099998397
 21
236.81473645313429
 31
0.0
  0
LINE
  5
2AF
  8
0
 10
155.1360099998397
 20
236.81473645313429
 30
0.0
 11
154.80000000000001
 21
256.0647364531726
 31
0.0
  0
LINE
  5
2B0
  8
0
 10
154.5
 20
256.06473645313429
 30
0.0
 11
185.5
 21
256.06473645313429
 31
0.0
  0
LINE
  5
2B1
  8
0
 10
184.86399000016019
 20
236.81473645313429
 30
0.0
 11
185.1999999999999
 21
256.0647364531726
 31
0.0
  0
LINE
  5
2B2
  8
0
 10
184.36399000016019
 20
236.31473645313429
 30
0.0
 11
184.86399000016019
 21
236.81473645313429
 31
0.0
  0
LINE
  5
2B3
  8
0
 10
181.5
 20
224.81473645314159
 30
0.0
 11
181.5
 21
236.31473645313429
 31
0.0
  0
LINE
  5
2B4
  8
0
 10
180.9999999999927
 20
224.31473645313429
 30
0.0
 11
181.5
 21
224.81473645314159
 31
0.0
  0
LINE
  5
2B5
  8
1
 10
269.0
 20
390.3686932876667
 30
0.0
 11
269.0
 21
358.3686932876667
 31
0.0
  0
LINE
  5
2B6
  8
1
 10
170.0
 20
394.8686932876667
 30
0.0
 11
170.0
 21
353.8686932876667
 31
0.0
  0
LINE
  5
2B7
  8
1
 10
149.5
 20
374.3686932876667
 30
0.0
 11
285.0
 21
374.3686932876667
 31
0.0
  0
LINE
  5
3A0
  8
0
 10
75.047127146042385
 20
194.31473645313429
 30
0.0
 11
87.047127146042385
 21
194.31473645313429
 31
0.0
  0
LINE
  5
3A1
  8
0
 10
73.047127146042385
 20
196.31473645313429
 30
0.0
 11
89.047127146042385
 21
196.31473645313429
 31
0.0
  0
LINE
  5
3A2
  8
0
 10
73.047127146042385
 20
221.8397914539548
 30
0.0
 11
89.047127146042385
 21
221.8397914539548
 31
0.0
  0
LINE
  5
3A3
  8
0
 10
75.047127146042385
 20
194.31473645313429
 30
0.0
 11
73.047127146042385
 21
196.31473645313429
 31
0.0
  0
LINE
  5
3A4
  8
0
 10
73.047127146042385
 20
196.31473645313429
 30
0.0
 11
73.047127146042385
 21
223.71473645313429
 31
0.0
  0
LINE
  5
3A5
  8
3
 10
73.047127146042385
 20
223.71473645315029
 30
0.0
 11
74.12962714604248
 21
221.83979145395699
 31
0.0
  0
LINE
  5
3A6
  8
3
 10
74.12962714604248
 20
221.83979145395699
 30
0.0
 11
74.129627146042424
 21
195.23223645313431
 31
0.0
  0
LINE
  5
3A7
  8
3
 10
87.964627146042403
 20
221.83979145395699
 30
0.0
 11
87.964627146042403
 21
195.23223645313431
 31
0.0
  0
LINE
  5
3A8
  8
3
 10
89.047127146042385
 20
223.71473645315029
 30
0.0
 11
87.964627146042403
 21
221.83979145395699
 31
0.0
  0
ARC
  5
3A9
  8
0
 10
89.647127146042408
 20
223.71473645313429
 30
0.0
 40
0.6
 50
90.0
 51
180.0
  0
LINE
  5
3AA
  8
0
 10
89.047127146042385
 20
196.31473645313429
 30
0.0
 11
89.047127146042385
 21
223.71473645313429
 31
0.0
  0
LINE
  5
3AB
  8
0
 10
87.047127146042385
 20
194.31473645313429
 30
0.0
 11
89.047127146042385
 21
196.31473645313429
 31
0.0
  0
ARC
  5
3AC
  8
0
 10
72.447127146042419
 20
223.71473645313429
 30
0.0
 40
0.6
 50
0.0
 51
90.0
  0
ARC
  5
3BD
  8
0
 10
161.39999999999989
 20
223.71473645313429
 30
0.0
 40
0.6
 50
0.0
 51
90.0
  0
LINE
  5
3BE
  8
0
 10
175.99999999999989
 20
194.31473645313429
 30
0.0
 11
177.99999999999989
 21
196.31473645313429
 31
0.0
  0
LINE
  5
3BF
  8
0
 10
177.99999999999989
 20
196.31473645313429
 30
0.0
 11
177.99999999999989
 21
223.71473645313429
 31
0.0
  0
ARC
  5
3C0
  8
0
 10
178.59999999999991
 20
223.71473645313429
 30
0.0
 40
0.6
 50
90.0
 51
180.0
  0
LINE
  5
3C1
  8
3
 10
177.99999999999989
 20
223.71473645315029
 30
0.0
 11
176.9174999999999
 21
221.83979145395699
 31
0.0
  0
LINE
  5
3C2
  8
3
 10
176.9174999999999
 20
221.83979145395699
 30
0.0
 11
176.9174999999999
 21
195.23223645313431
 31
0.0
  0
LINE
  5
3C3
  8
3
 10
163.0824999999999
 20
221.83979145395699
 30
0.0
 11
163.0824999999999
 21
195.23223645313431
 31
0.0
  0
LINE
  5
3C4
  8
3
 10
161.99999999999989
 20
223.71473645315029
 30
0.0
 11
163.0824999999999
 21
221.83979145395699
 31
0.0
  0
LINE
  5
3C5
  8
0
 10
161.99999999999989
 20
196.31473645313429
 30
0.0
 11
161.99999999999989
 21
223.71473645313429
 31
0.0
  0
LINE
  5
3C6
  8
0
 10
163.9999999999998
 20
194.31473645313429
 30
0.0
 11
161.99999999999989
 21
196.31473645313429
 31
0.0
  0
LINE
  5
3C7
  8
0
 10
161.99999999999989
 20
221.8397914539548
 30
0.0
 11
177.99999999999989
 21
221.8397914539548
 31
0.0
  0
LINE
  5
3C8
  8
0
 10
161.99999999999989
 20
196.31473645313429
 30
0.0
 11
177.99999999999989
 21
196.31473645313429
 31
0.0
  0
LINE
  5
3C9
  8
0
 10
163.9999999999998
 20
194.31473645313429
 30
0.0
 11
175.99999999999989
 21
194.31473645313429
 31
0.0
  0
LINE
  5
3CA
  8
0
 10
350.06708070519898
 20
194.31473645313409
 30
0.0
 11
362.06708070519898
 21
194.31473645313409
 31
0.0
  0
LINE
  5
3CB
  8
0
 10
348.06708070519898
 20
196.3147364531342
 30
0.0
 11
364.06708070519898
 21
196.3147364531342
 31
0.0
  0
LINE
  5
3CC
  8
0
 10
348.06708070519898
 20
221.8397914539546
 30
0.0
 11
364.06708070519898
 21
221.8397914539546
 31
0.0
  0
LINE
  5
3CD
  8
0
 10
350.06708070519898
 20
194.31473645313409
 30
0.0
 11
348.06708070519898
 21
196.3147364531342
 31
0.0
  0
LINE
  5
3CE
  8
0
 10
348.06708070519898
 20
196.3147364531342
 30
0.0
 11
348.06708070519898
 21
223.71473645313421
 31
0.0
  0
LINE
  5
3CF
  8
3
 10
348.06708070519898
 20
223.71473645315021
 30
0.0
 11
349.14958070519913
 21
221.83979145395679
 31
0.0
  0
LINE
  5
3D0
  8
3
 10
349.14958070519913
 20
221.83979145395679
 30
0.0
 11
349.14958070519901
 21
195.23223645313411
 31
0.0
  0
LINE
  5
3D1
  8
3
 10
362.98458070519899
 20
221.83979145395679
 30
0.0
 11
362.98458070519899
 21
195.23223645313411
 31
0.0
  0
LINE
  5
3D2
  8
3
 10
364.06708070519898
 20
223.71473645315021
 30
0.0
 11
362.98458070519899
 21
221.83979145395679
 31
0.0
  0
ARC
  5
3D3
  8
0
 10
364.667080705199
 20
223.71473645313421
 30
0.0
 40
0.6
 50
90.0
 51
180.0
  0
LINE
  5
3D4
  8
0
 10
364.06708070519898
 20
196.3147364531342
 30
0.0
 11
364.06708070519898
 21
223.71473645313421
 31
0.0
  0
LINE
  5
3D5
  8
0
 10
362.06708070519898
 20
194.31473645313409
 30
0.0
 11
364.06708070519898
 21
196.3147364531342
 31
0.0
  0
ARC
  5
3D6
  8
0
 10
347.46708070519901
 20
223.71473645313421
 30
0.0
 40
0.6
 50
0.0
 51
90.0
  0
TEXT
  5
48C
  8
0
 62
     3
 10
0.0
 20
0.0
 30
0.0
 40
10.0
  1
KR16X30-SUS
  7
STANDARD1
  0
ENDSEC
  0
EOF
