  0
SECTION
  2
HEADER
  9
$ACADVER
  1
AC1009
  9
$INSBASE
 10
0.0
 20
0.0
 30
0.0
  9
$EXTMIN
 10
0.0
 20
-2.960436562073669
 30
0.0
  9
$EXTMAX
 10
168.48974742614379
 20
174.4439731288295
 30
0.0
  9
$LIMMIN
 10
0.0
 20
0.0
  9
$LIMMAX
 10
187.5
 20
135.0
  9
$ORTHOMODE
 70
     1
  9
$REGENMODE
 70
     1
  9
$FILLMODE
 70
     1
  9
$QTEXTMODE
 70
     0
  9
$MIRRTEXT
 70
     0
  9
$DRAGMODE
 70
     2
  9
$LTSCALE
 40
5.0
  9
$OSMODE
 70
  3071
  9
$ATTMODE
 70
     1
  9
$TEXTSIZE
 40
0.2
  9
$TRACEWID
 40
0.05
  9
$TEXTSTYLE
  7
STANDARD
  9
$CLAYER
  8
0
  9
$CELTYPE
  6
BYLAYER
  9
$CECOLOR
 62
   256
  9
$DIMSCALE
 40
0.5
  9
$DIMASZ
 40
3.0
  9
$DIMEXO
 40
2.0
  9
$DIMDLI
 40
0.38
  9
$DIMRND
 40
0.0
  9
$DIMDLE
 40
0.0
  9
$DIMEXE
 40
2.0
  9
$DIMTP
 40
0.0
  9
$DIMTM
 40
0.0
  9
$DIMTXT
 40
3.2000000000000002
  9
$DIMCEN
 40
0.0
  9
$DIMTSZ
 40
0.0
  9
$DIMTOL
 70
     0
  9
$DIMLIM
 70
     0
  9
$DIMTIH
 70
     0
  9
$DIMTOH
 70
     0
  9
$DIMSE1
 70
     0
  9
$DIMSE2
 70
     0
  9
$DIMTAD
 70
     1
  9
$DIMZIN
 70
     0
  9
$DIMBLK
  1

  9
$DIMASO
 70
     1
  9
$DIMSHO
 70
     0
  9
$DIMPOST
  1

  9
$DIMAPOST
  1

  9
$DIMALT
 70
     0
  9
$DIMALTD
 70
     2
  9
$DIMALTF
 40
25.399999999999999
  9
$DIMLFAC
 40
1.0
  9
$DIMTOFL
 70
     0
  9
$DIMTVP
 40
1.6000000000000001
  9
$DIMTIX
 70
     1
  9
$DIMSOXD
 70
     0
  9
$DIMSAH
 70
     0
  9
$DIMBLK1
  1

  9
$DIMBLK2
  1

  9
$DIMSTYLE
  2
STANDARD
  9
$DIMCLRD
 70
     0
  9
$DIMCLRE
 70
     0
  9
$DIMCLRT
 70
     0
  9
$DIMTFAC
 40
1.0
  9
$DIMGAP
 40
0.09
  9
$LUNITS
 70
     2
  9
$LUPREC
 70
     4
  9
$SKETCHINC
 40
0.1
  9
$FILLETRAD
 40
5.0
  9
$AUNITS
 70
     0
  9
$AUPREC
 70
     0
  9
$MENU
  1
E:\r13\win\SUPPORT\ACAD
  9
$ELEVATION
 40
0.0
  9
$PELEVATION
 40
0.0
  9
$THICKNESS
 40
0.0
  9
$LIMCHECK
 70
     0
  9
$BLIPMODE
 70
     0
  9
$CHAMFERA
 40
0.0
  9
$CHAMFERB
 40
0.0
  9
$SKPOLY
 70
     0
  9
$TDCREATE
 40
2449840.613715278
  9
$TDUPDATE
 40
2456597.4908118062
  9
$TDINDWG
 40
0.026314537
  9
$TDUSRTIMER
 40
0.026314537
  9
$USRTIMER
 70
     1
  9
$ANGBASE
 50
0.0
  9
$ANGDIR
 70
     0
  9
$PDMODE
 70
     0
  9
$PDSIZE
 40
0.0
  9
$PLINEWID
 40
0.0
  9
$COORDS
 70
     1
  9
$SPLFRAME
 70
     0
  9
$SPLINETYPE
 70
     6
  9
$SPLINESEGS
 70
     8
  9
$ATTDIA
 70
     0
  9
$ATTREQ
 70
     1
  9
$HANDLING
 70
     1
  9
$HANDSEED
  5
BEE
  9
$SURFTAB1
 70
     6
  9
$SURFTAB2
 70
     6
  9
$SURFTYPE
 70
     6
  9
$SURFU
 70
     6
  9
$SURFV
 70
     6
  9
$UCSNAME
  2

  9
$UCSORG
 10
0.0
 20
0.0
 30
0.0
  9
$UCSXDIR
 10
1.0
 20
0.0
 30
0.0
  9
$UCSYDIR
 10
0.0
 20
1.0
 30
0.0
  9
$PUCSNAME
  2

  9
$PUCSORG
 10
0.0
 20
0.0
 30
0.0
  9
$PUCSXDIR
 10
1.0
 20
0.0
 30
0.0
  9
$PUCSYDIR
 10
0.0
 20
1.0
 30
0.0
  9
$USERI1
 70
     0
  9
$USERI2
 70
     1
  9
$USERI3
 70
     1
  9
$USERI4
 70
     0
  9
$USERI5
 70
     0
  9
$USERR1
 40
0.0
  9
$USERR2
 40
0.0
  9
$USERR3
 40
0.0
  9
$USERR4
 40
0.0
  9
$USERR5
 40
0.0
  9
$WORLDVIEW
 70
     1
  9
$SHADEDGE
 70
     3
  9
$SHADEDIF
 70
    70
  9
$TILEMODE
 70
     1
  9
$MAXACTVP
 70
    16
  9
$PLIMCHECK
 70
     0
  9
$PEXTMIN
 10
1.0000000000000000E+020
 20
1.0000000000000000E+020
 30
1.0000000000000000E+020
  9
$PEXTMAX
 10
-1.0000000000000000E+020
 20
-1.0000000000000000E+020
 30
-1.0000000000000000E+020
  9
$PLIMMIN
 10
0.0
 20
0.0
  9
$PLIMMAX
 10
12.0
 20
9.0
  9
$UNITMODE
 70
     0
  9
$VISRETAIN
 70
     0
  9
$PLINEGEN
 70
     0
  9
$PSLTSCALE
 70
     0
  0
ENDSEC
  0
SECTION
  2
TABLES
  0
TABLE
  2
VPORT
 70
     1
  0
VPORT
  2
*ACTIVE
 70
     0
 10
0.0
 20
0.0
 11
1.0
 21
1.0
 12
93.747139195326199
 22
104.8136500787264
 13
0.0
 23
0.0
 14
5.0
 24
5.0
 15
5.0
 25
5.0
 16
0.0
 26
0.0
 36
1.0
 17
0.0
 27
0.0
 37
0.0
 40
217.61310846048499
 41
1.9089595375722539
 42
50.0
 43
0.0
 44
0.0
 50
0.0
 51
0.0
 71
     0
 72
   500
 73
     1
 74
     0
 75
     0
 76
     0
 77
     0
 78
     0
  0
ENDTAB
  0
TABLE
  2
LTYPE
 70
     3
  0
LTYPE
  2
CONTINUOUS
 70
     0
  3
Solid Line
 72
    65
 73
     0
 40
0.0
  0
LTYPE
  2
CENTER
 70
     0
  3
____ _ ____ _ ____ _ ____ _ ____ _ ____ _ ____
 72
    65
 73
     4
 40
2.0
 49
1.25
 49
-0.25
 49
0.25
 49
-0.25
  0
LTYPE
  2
PHANTOM2
 70
     0
  3
___ _ _ ___ _ _ ___ _ _ ___ _ _
 72
    65
 73
     6
 40
1.25
 49
0.625
 49
-0.125
 49
0.125
 49
-0.125
 49
0.125
 49
-0.125
  0
ENDTAB
  0
TABLE
  2
LAYER
 70
     3
  0
LAYER
  2
0
 70
     0
 62
     7
  6
CONTINUOUS
  0
LAYER
  2
1
 70
     0
 62
     1
  6
CENTER
  0
LAYER
  2
3
 70
     0
 62
     3
  6
CONTINUOUS
  0
ENDTAB
  0
TABLE
  2
STYLE
 70
     2
  0
STYLE
  2
STANDARD
 70
     0
 40
0.0
 41
1.0
 50
0.0
 71
     0
 42
0.2
  3
TXT
  4
BIGFONT
  0
STYLE
  2
STANDARD1
 70
     0
 40
0.0
 41
1.0
 50
0.0
 71
     0
 42
3.0
  3
txt
  4

  0
ENDTAB
  0
TABLE
  2
VIEW
 70
     1
  0
VIEW
  2
ALL
 70
     0
 40
175.0
 10
143.23529411764699
 20
87.5
 41
0.0
 11
0.0
 21
0.0
 31
1.0
 12
0.0
 22
0.0
 32
0.0
 42
0.0
 43
0.0
 44
0.0
 50
0.0
 71
     0
  0
ENDTAB
  0
TABLE
  2
UCS
 70
     0
  0
ENDTAB
  0
TABLE
  2
APPID
 70
     3
  0
APPID
  2
ACAD
 70
     0
  0
APPID
  2
ACAD_MLEADERVER
 70
     0
  0
APPID
  2
ACAD_NAV_VCDISPLAY
 70
     0
  0
ENDTAB
  0
TABLE
  2
DIMSTYLE
 70
     1
  0
DIMSTYLE
  2
STANDARD
 70
     0
  3

  4

  5

  6

  7

 40
1.0
 41
0.18
 42
0.0625
 43
0.38
 44
0.18
 45
0.0
 46
0.0
 47
0.0
 48
0.0
140
0.18
141
0.09
142
0.0
143
25.399999999999999
144
1.0
145
0.0
146
1.0
147
0.09
 71
     0
 72
     0
 73
     1
 74
     1
 75
     0
 76
     0
 77
     0
 78
     0
170
     0
171
     2
172
     0
173
     0
174
     0
175
     0
176
     0
177
     0
178
     0
  0
ENDTAB
  0
ENDSEC
  0
SECTION
  2
BLOCKS
  0
BLOCK
  8
0
  2
$MODEL_SPACE
 70
     0
 10
0.0
 20
0.0
 30
0.0
  3
$MODEL_SPACE
  1

  0
ENDBLK
  5
35B
  8
0
  0
BLOCK
 67
     1
  8
0
  2
$PAPER_SPACE
 70
     0
 10
0.0
 20
0.0
 30
0.0
  3
$PAPER_SPACE
  1

  0
ENDBLK
  5
359
 67
     1
  8
0
  0
BLOCK
  8
0
  2
STDGX5
 70
     0
 10
0.0
 20
0.0
 30
0.0
  3
STDGX5
  1

  0
ENDBLK
  5
26F
  8
0
  0
ENDSEC
  0
SECTION
  2
ENTITIES
  0
INSERT
  5
308
  8
0
  2
STDGX5
 10
0.0
 20
0.0
 30
0.0
 41
0.5
 42
0.5
 43
0.5
  0
INSERT
  5
309
  8
0
  2
STDGX5
 10
0.0
 20
0.0
 30
0.0
 41
0.5
 42
0.5
 43
0.5
  0
INSERT
  5
30A
  8
0
  2
STDGX5
 10
137.5
 20
0.0
 30
0.0
 41
0.5
 42
0.5
 43
0.5
  0
INSERT
  5
30B
  8
0
  2
STDGX5
 10
137.5
 20
0.0
 30
0.0
 41
0.5
 42
0.5
 43
0.5
  0
LINE
  5
3AF
  8
1
 10
73.567023178027625
 20
164.94397312882941
 30
0.0
 11
125.5670231780278
 21
164.94397312882941
 31
0.0
  0
LINE
  5
3B0
  8
1
 10
117.8170231780278
 20
172.69397312882981
 30
0.0
 11
117.8170231780278
 21
157.1939731288295
 31
0.0
  0
LINE
  5
3B1
  8
1
 10
83.067023178027796
 20
174.4439731288295
 30
0.0
 11
83.067023178027796
 21
155.4439731288293
 31
0.0
  0
LINE
  5
3B2
  8
1
 10
83.067023178027796
 20
121.6888273963484
 30
0.0
 11
83.067023178027881
 21
67.688827396348358
 31
0.0
  0
LINE
  5
3B3
  8
0
 10
76.367023178027807
 20
109.9874703000329
 30
0.0
 11
76.752023178027798
 21
99.388827396348404
 31
0.0
  0
LINE
  5
3B4
  8
0
 10
76.752023178027798
 20
99.388827396348404
 30
0.0
 11
89.382023178027794
 21
99.388827396348475
 31
0.0
  0
LINE
  5
3B5
  8
0
 10
76.952023178027787
 20
99.188827396348415
 30
0.0
 11
89.182023178027805
 21
99.188827396348415
 31
0.0
  0
LINE
  5
3B6
  8
0
 10
76.952023178027787
 20
99.188827396348415
 30
0.0
 11
76.752023178027798
 21
99.388827396348404
 31
0.0
  0
LINE
  5
3B7
  8
0
 10
89.182023178027805
 20
99.188827396348415
 30
0.0
 11
89.382023178027794
 21
99.388827396348404
 31
0.0
  0
LINE
  5
3B8
  8
1
 10
83.06702317802781
 20
112.6723299882638
 30
0.0
 11
125.2479180293633
 21
125.1398048402117
 31
0.0
  0
LINE
  5
3B9
  8
0
 10
90.812544802468551
 20
110.4080850584611
 30
0.0
 11
114.38574431158101
 21
118.96531190742979
 31
0.0
  0
LINE
  5
3BA
  8
0
 10
76.367023178027807
 20
109.9874703000329
 30
0.0
 11
89.767023178027912
 21
109.987470300033
 31
0.0
  0
ARC
  5
3BB
  8
0
 10
76.067023178027796
 20
109.9874703000329
 30
0.0
 40
0.3
 50
0.0
 51
90.0
  0
LINE
  5
3BC
  8
0
 10
76.067023178027796
 20
110.28747030003289
 30
0.0
 11
90.128504515817212
 21
110.28747030003289
 31
0.0
  0
LINE
  5
3BD
  8
1
 10
115.61590425657241
 20
130.3696803415769
 30
0.0
 11
120.0181420994832
 21
115.50797445112001
 31
0.0
  0
LINE
  5
3BE
  8
0
 10
87.043458277894544
 20
160.15967771339189
 30
0.0
 11
113.5983889203564
 21
161.81897312882941
 31
0.0
  0
LINE
  5
3BF
  8
0
 10
87.043458277894445
 20
169.72826854426711
 30
0.0
 11
113.598388920356
 21
168.06897312882941
 31
0.0
  0
ARC
  5
3C0
  8
0
 10
45.359298929911603
 20
109.9874703000329
 30
0.0
 40
0.3
 50
90.0
 51
180.0
  0
ARC
  5
3C1
  8
0
 10
31.429298929911599
 20
109.9874703000329
 30
0.0
 40
0.3
 50
0.0
 51
90.0
  0
LINE
  5
3C2
  8
0
 10
31.729298929911611
 20
109.9874703000329
 30
0.0
 11
45.059298929911591
 21
109.9874703000329
 31
0.0
  0
LINE
  5
3C3
  8
0
 10
44.509298929911608
 20
99.188827396348415
 30
0.0
 11
44.709298929911597
 21
99.388827396348404
 31
0.0
  0
LINE
  5
3C4
  8
0
 10
45.059298929911591
 20
109.9874703000329
 30
0.0
 11
44.709298929911597
 21
99.388827396348404
 31
0.0
  0
LINE
  5
3C5
  8
0
 10
32.27929892991159
 20
99.188827396348415
 30
0.0
 11
32.079298929911602
 21
99.388827396348404
 31
0.0
  0
LINE
  5
3C6
  8
0
 10
32.27929892991159
 20
99.188827396348415
 30
0.0
 11
44.509298929911608
 21
99.188827396348415
 31
0.0
  0
LINE
  5
3C7
  8
0
 10
32.079298929911602
 20
99.388827396348404
 30
0.0
 11
44.709298929911597
 21
99.388827396348475
 31
0.0
  0
LINE
  5
3C8
  8
0
 10
31.729298929911611
 20
109.9874703000329
 30
0.0
 11
32.079298929911602
 21
99.388827396348404
 31
0.0
  0
LINE
  5
3C9
  8
1
 10
38.394298929911599
 20
130.68882739634839
 30
0.0
 11
38.394298929911599
 21
67.688827396348358
 31
0.0
  0
LINE
  5
3CA
  8
1
 10
30.644298929911599
 20
122.9388273963484
 30
0.0
 11
46.144298929911599
 21
122.9388273963484
 31
0.0
  0
POLYLINE
  5
3CB
  8
3
 66
     1
 10
0.0
 20
0.0
 30
0.0
 70
     1
  0
VERTEX
  5
3CC
  8
3
 10
93.141040044284978
 20
163.41218531744559
 30
0.0
  0
VERTEX
  5
3CD
  8
3
 10
93.542031617945611
 20
163.62604749006471
 30
0.0
  0
VERTEX
  5
3CE
  8
3
 10
93.542031617945611
 20
162.98980752652309
 30
0.0
  0
VERTEX
  5
3CF
  8
3
 10
93.996488734761044
 20
162.98980752652309
 30
0.0
  0
VERTEX
  5
3D0
  8
3
 10
93.996488734761044
 20
163.76238462510929
 30
0.0
  0
VERTEX
  5
3D1
  8
3
 10
94.110103013964917
 20
163.8078303367908
 30
0.0
  0
VERTEX
  5
3D2
  8
3
 10
94.110103013964917
 20
163.51243321086079
 30
0.0
 42
0.5661903789690232
  0
VERTEX
  5
3D3
  8
3
 10
94.277182836323576
 20
163.41218531744559
 30
0.0
  0
VERTEX
  5
3D4
  8
3
 10
94.678174409984194
 20
163.62604749006471
 30
0.0
  0
VERTEX
  5
3D5
  8
3
 10
94.678174409984194
 20
162.98980752652309
 30
0.0
  0
VERTEX
  5
3D6
  8
3
 10
95.132631526799571
 20
162.98980752652309
 30
0.0
  0
VERTEX
  5
3D7
  8
3
 10
95.132631526799571
 20
163.76238462510929
 30
0.0
  0
VERTEX
  5
3D8
  8
3
 10
95.246245806003444
 20
163.8078303367908
 30
0.0
  0
VERTEX
  5
3D9
  8
3
 10
95.246245806003444
 20
163.51243321086079
 30
0.0
 42
0.5661903789690179
  0
VERTEX
  5
3DA
  8
3
 10
95.413325628362074
 20
163.41218531744559
 30
0.0
  0
VERTEX
  5
3DB
  8
3
 10
95.837040057863476
 20
163.63816634651309
 30
0.0
  0
VERTEX
  5
3DC
  8
3
 10
95.837040057863476
 20
164.2004042799559
 30
0.0
 42
0.0094958374053504
  0
VERTEX
  5
3DD
  8
3
 10
95.700702922818877
 20
164.12595031856159
 30
0.0
  0
VERTEX
  5
3DE
  8
3
 10
95.700702922818877
 20
164.4213474444916
 30
0.0
 42
0.4912422865174231
  0
VERTEX
  5
3DF
  8
3
 10
95.558356158968252
 20
164.53126854694719
 30
0.0
 42
0.0273475274774147
  0
VERTEX
  5
3E0
  8
3
 10
95.132631526799571
 20
164.3947316130363
 30
0.0
  0
VERTEX
  5
3E1
  8
3
 10
95.132631526799571
 20
164.53496172369549
 30
0.0
  0
VERTEX
  5
3E2
  8
3
 10
94.678174409984194
 20
164.53496172369549
 30
0.0
  0
VERTEX
  5
3E3
  8
3
 10
94.678174409984194
 20
164.18845896193261
 30
0.0
 42
0.0079266050657673
  0
VERTEX
  5
3E4
  8
3
 10
94.564560130780293
 20
164.12595031856159
 30
0.0
  0
VERTEX
  5
3E5
  8
3
 10
94.564560130780293
 20
164.4213474444916
 30
0.0
 42
0.491242286517397
  0
VERTEX
  5
3E6
  8
3
 10
94.422213366929725
 20
164.53126854694719
 30
0.0
 42
0.0273475274774148
  0
VERTEX
  5
3E7
  8
3
 10
93.996488734761044
 20
164.3947316130363
 30
0.0
  0
VERTEX
  5
3E8
  8
3
 10
93.996488734761044
 20
164.53496172369549
 30
0.0
  0
VERTEX
  5
3E9
  8
3
 10
93.542031617945611
 20
164.53496172369549
 30
0.0
  0
VERTEX
  5
3EA
  8
3
 10
93.542031617945611
 20
164.18845896193261
 30
0.0
 42
0.0079266050657672
  0
VERTEX
  5
3EB
  8
3
 10
93.428417338741795
 20
164.12595031856159
 30
0.0
  0
VERTEX
  5
3EC
  8
3
 10
93.428417338741795
 20
164.53496172369549
 30
0.0
  0
VERTEX
  5
3ED
  8
3
 10
92.973960221926333
 20
164.53496172369549
 30
0.0
  0
VERTEX
  5
3EE
  8
3
 10
92.973960221926333
 20
164.18845896193261
 30
0.0
 42
0.0079266050657673
  0
VERTEX
  5
3EF
  8
3
 10
92.860345942722503
 20
164.12595031856159
 30
0.0
  0
VERTEX
  5
3F0
  8
3
 10
92.860345942722503
 20
164.44407030033241
 30
0.0
 42
0.4142135623730951
  0
VERTEX
  5
3F1
  8
3
 10
92.769454519359442
 20
164.53496172369549
 30
0.0
  0
VERTEX
  5
3F2
  8
3
 10
92.557219905694296
 20
164.53496172369549
 30
0.0
  0
VERTEX
  5
3F3
  8
3
 10
93.188060736401269
 20
166.36705652631679
 30
0.0
 42
-0.3201025237009698
  0
VERTEX
  5
3F4
  8
3
 10
93.295485147841873
 20
166.4436816143203
 30
0.0
  0
VERTEX
  5
3F5
  8
3
 10
93.428417338741795
 20
166.4436816143203
 30
0.0
  0
VERTEX
  5
3F6
  8
3
 10
93.428417338741795
 20
166.48912732600181
 30
0.0
  0
VERTEX
  5
3F7
  8
3
 10
94.445517108831893
 20
166.4404724640041
 30
0.0
 42
0.4282843006882171
  0
VERTEX
  5
3F8
  8
3
 10
94.564560130780293
 20
166.55395697039691
 30
0.0
  0
VERTEX
  5
3F9
  8
3
 10
94.564560130780293
 20
166.78786337505909
 30
0.0
 42
0.4282843006881943
  0
VERTEX
  5
3FA
  8
3
 10
94.445517108831893
 20
166.9013478814519
 30
0.0
  0
VERTEX
  5
3FB
  8
3
 10
93.428417338741795
 20
166.85269301945411
 30
0.0
  0
VERTEX
  5
3FC
  8
3
 10
93.428417338741795
 20
166.8981387311357
 30
0.0
  0
VERTEX
  5
3FD
  8
3
 10
93.100428639076824
 20
166.8981387311357
 30
0.0
 42
0.3201025237009531
  0
VERTEX
  5
3FE
  8
3
 10
92.885579816195659
 20
166.7448885551288
 30
0.0
  0
VERTEX
  5
3FF
  8
3
 10
92.155937411658613
 20
164.62585314705859
 30
0.0
  0
VERTEX
  5
400
  8
3
 10
92.155937411658613
 20
165.46823024081539
 30
0.0
 42
-0.2679491924311325
  0
VERTEX
  5
401
  8
3
 10
92.246828835021631
 20
165.62565880405251
 30
0.0
  0
VERTEX
  5
402
  8
3
 10
91.156131754664671
 20
165.62565880405251
 30
0.0
 42
-0.2679491924311324
  0
VERTEX
  5
403
  8
3
 10
91.247023178027746
 20
165.46823024081539
 30
0.0
  0
VERTEX
  5
404
  8
3
 10
91.247023178027746
 20
163.3988189316569
 30
0.0
  0
VERTEX
  5
405
  8
3
 10
92.155937411658613
 20
163.3988189316569
 30
0.0
  0
VERTEX
  5
406
  8
3
 10
92.155937411658613
 20
163.9441674718355
 30
0.0
  0
VERTEX
  5
407
  8
3
 10
92.269551690862428
 20
163.9441674718355
 30
0.0
  0
VERTEX
  5
408
  8
3
 10
92.269551690862428
 20
163.51243321086079
 30
0.0
 42
0.566190378969028
  0
VERTEX
  5
409
  8
3
 10
92.436631513221073
 20
163.41218531744559
 30
0.0
  0
VERTEX
  5
40A
  8
3
 10
92.973960221926333
 20
163.65788545294859
 30
0.0
  0
VERTEX
  5
40B
  8
3
 10
92.973960221926333
 20
163.51243321086079
 30
0.0
 42
0.566190378969059
  0
SEQEND
  5
40C
  8
3
  0
POLYLINE
  5
40D
  8
3
 66
     1
 10
0.0
 20
0.0
 30
0.0
 70
     1
  0
VERTEX
  5
40E
  8
3
 10
93.473863050423347
 20
164.98941884051089
 30
0.0
 42
1.0000000552842581
  0
VERTEX
  5
40F
  8
3
 10
92.928514510244838
 20
164.98941884051089
 30
0.0
 42
1.0000000552842581
  0
SEQEND
  5
410
  8
3
  0
LINE
  5
411
  8
0
 10
76.067023178027796
 20
110.28747030003289
 30
0.0
 11
76.067023178027739
 21
110.6088273963484
 31
0.0
  0
LINE
  5
412
  8
0
 10
31.429298929911599
 20
110.28747030003289
 30
0.0
 11
45.359298929911603
 21
110.28747030003289
 31
0.0
  0
POLYLINE
  5
413
  8
0
 10
31.394298929911599
 20
112.6175685676377
 30
0.0
 66
     1
 70
     8
  0
VERTEX
  8
0
  5
860
 10
31.3943
 20
112.618
 30
0.000000
  70
    32
  0
VERTEX
  8
0
  5
861
 10
31.3964
 20
112.568
 30
0.000000
  70
    32
  0
VERTEX
  8
0
  5
862
 10
31.4027
 20
112.519
 30
0.000000
  70
    32
  0
VERTEX
  8
0
  5
863
 10
31.4133
 20
112.470
 30
0.000000
  70
    32
  0
VERTEX
  8
0
  5
864
 10
31.4280
 20
112.421
 30
0.000000
  70
    32
  0
VERTEX
  8
0
  5
865
 10
31.4469
 20
112.372
 30
0.000000
  70
    32
  0
VERTEX
  8
0
  5
866
 10
31.4701
 20
112.323
 30
0.000000
  70
    32
  0
VERTEX
  8
0
  5
867
 10
31.4974
 20
112.274
 30
0.000000
  70
    32
  0
VERTEX
  8
0
  5
868
 10
31.5288
 20
112.226
 30
0.000000
  70
    32
  0
VERTEX
  8
0
  5
869
 10
31.5644
 20
112.177
 30
0.000000
  70
    32
  0
VERTEX
  8
0
  5
86A
 10
31.6041
 20
112.129
 30
0.000000
  70
    32
  0
VERTEX
  8
0
  5
86B
 10
31.6479
 20
112.082
 30
0.000000
  70
    32
  0
VERTEX
  8
0
  5
86C
 10
31.6957
 20
112.034
 30
0.000000
  70
    32
  0
VERTEX
  8
0
  5
86D
 10
31.7476
 20
111.987
 30
0.000000
  70
    32
  0
VERTEX
  8
0
  5
86E
 10
31.8035
 20
111.941
 30
0.000000
  70
    32
  0
VERTEX
  8
0
  5
86F
 10
31.8633
 20
111.895
 30
0.000000
  70
    32
  0
VERTEX
  8
0
  5
870
 10
31.9271
 20
111.849
 30
0.000000
  70
    32
  0
VERTEX
  8
0
  5
871
 10
31.9948
 20
111.804
 30
0.000000
  70
    32
  0
VERTEX
  8
0
  5
872
 10
32.0664
 20
111.759
 30
0.000000
  70
    32
  0
VERTEX
  8
0
  5
873
 10
32.1417
 20
111.714
 30
0.000000
  70
    32
  0
VERTEX
  8
0
  5
874
 10
32.2209
 20
111.671
 30
0.000000
  70
    32
  0
VERTEX
  8
0
  5
875
 10
32.3037
 20
111.627
 30
0.000000
  70
    32
  0
VERTEX
  8
0
  5
876
 10
32.3902
 20
111.585
 30
0.000000
  70
    32
  0
VERTEX
  8
0
  5
877
 10
32.4803
 20
111.543
 30
0.000000
  70
    32
  0
VERTEX
  8
0
  5
878
 10
32.5740
 20
111.502
 30
0.000000
  70
    32
  0
VERTEX
  8
0
  5
879
 10
32.6712
 20
111.461
 30
0.000000
  70
    32
  0
VERTEX
  8
0
  5
87A
 10
32.7718
 20
111.421
 30
0.000000
  70
    32
  0
VERTEX
  8
0
  5
87B
 10
32.8759
 20
111.382
 30
0.000000
  70
    32
  0
VERTEX
  8
0
  5
87C
 10
32.9832
 20
111.343
 30
0.000000
  70
    32
  0
VERTEX
  8
0
  5
87D
 10
33.0938
 20
111.306
 30
0.000000
  70
    32
  0
VERTEX
  8
0
  5
87E
 10
33.2076
 20
111.269
 30
0.000000
  70
    32
  0
VERTEX
  8
0
  5
87F
 10
33.3246
 20
111.232
 30
0.000000
  70
    32
  0
VERTEX
  8
0
  5
880
 10
33.4446
 20
111.197
 30
0.000000
  70
    32
  0
VERTEX
  8
0
  5
881
 10
33.5675
 20
111.163
 30
0.000000
  70
    32
  0
VERTEX
  8
0
  5
882
 10
33.6934
 20
111.129
 30
0.000000
  70
    32
  0
VERTEX
  8
0
  5
883
 10
33.8221
 20
111.097
 30
0.000000
  70
    32
  0
VERTEX
  8
0
  5
884
 10
33.9535
 20
111.065
 30
0.000000
  70
    32
  0
VERTEX
  8
0
  5
885
 10
34.0877
 20
111.034
 30
0.000000
  70
    32
  0
VERTEX
  8
0
  5
886
 10
34.2244
 20
111.004
 30
0.000000
  70
    32
  0
VERTEX
  8
0
  5
887
 10
34.3636
 20
110.975
 30
0.000000
  70
    32
  0
VERTEX
  8
0
  5
888
 10
34.5053
 20
110.947
 30
0.000000
  70
    32
  0
VERTEX
  8
0
  5
889
 10
34.6493
 20
110.920
 30
0.000000
  70
    32
  0
VERTEX
  8
0
  5
88A
 10
34.7956
 20
110.895
 30
0.000000
  70
    32
  0
VERTEX
  8
0
  5
88B
 10
34.9440
 20
110.870
 30
0.000000
  70
    32
  0
VERTEX
  8
0
  5
88C
 10
35.0945
 20
110.846
 30
0.000000
  70
    32
  0
VERTEX
  8
0
  5
88D
 10
35.2470
 20
110.823
 30
0.000000
  70
    32
  0
VERTEX
  8
0
  5
88E
 10
35.4014
 20
110.802
 30
0.000000
  70
    32
  0
VERTEX
  8
0
  5
88F
 10
35.5576
 20
110.781
 30
0.000000
  70
    32
  0
VERTEX
  8
0
  5
890
 10
35.7155
 20
110.762
 30
0.000000
  70
    32
  0
VERTEX
  8
0
  5
891
 10
35.8750
 20
110.743
 30
0.000000
  70
    32
  0
VERTEX
  8
0
  5
892
 10
36.0361
 20
110.726
 30
0.000000
  70
    32
  0
VERTEX
  8
0
  5
893
 10
36.1985
 20
110.710
 30
0.000000
  70
    32
  0
VERTEX
  8
0
  5
894
 10
36.3623
 20
110.695
 30
0.000000
  70
    32
  0
VERTEX
  8
0
  5
895
 10
36.5273
 20
110.682
 30
0.000000
  70
    32
  0
VERTEX
  8
0
  5
896
 10
36.6934
 20
110.669
 30
0.000000
  70
    32
  0
VERTEX
  8
0
  5
897
 10
36.8606
 20
110.658
 30
0.000000
  70
    32
  0
VERTEX
  8
0
  5
898
 10
37.0287
 20
110.647
 30
0.000000
  70
    32
  0
VERTEX
  8
0
  5
899
 10
37.1976
 20
110.638
 30
0.000000
  70
    32
  0
VERTEX
  8
0
  5
89A
 10
37.3672
 20
110.631
 30
0.000000
  70
    32
  0
VERTEX
  8
0
  5
89B
 10
37.5374
 20
110.624
 30
0.000000
  70
    32
  0
VERTEX
  8
0
  5
89C
 10
37.7082
 20
110.619
 30
0.000000
  70
    32
  0
VERTEX
  8
0
  5
89D
 10
37.8793
 20
110.614
 30
0.000000
  70
    32
  0
VERTEX
  8
0
  5
89E
 10
38.0508
 20
110.611
 30
0.000000
  70
    32
  0
VERTEX
  8
0
  5
89F
 10
38.2225
 20
110.609
 30
0.000000
  70
    32
  0
VERTEX
  8
0
  5
8A0
 10
38.3943
 20
110.609
 30
0.000000
  70
    32
  0
VERTEX
  8
0
  5
8A1
 10
38.5661
 20
110.609
 30
0.000000
  70
    32
  0
VERTEX
  8
0
  5
8A2
 10
38.7378
 20
110.611
 30
0.000000
  70
    32
  0
VERTEX
  8
0
  5
8A3
 10
38.9093
 20
110.614
 30
0.000000
  70
    32
  0
VERTEX
  8
0
  5
8A4
 10
39.0804
 20
110.619
 30
0.000000
  70
    32
  0
VERTEX
  8
0
  5
8A5
 10
39.2512
 20
110.624
 30
0.000000
  70
    32
  0
VERTEX
  8
0
  5
8A6
 10
39.4214
 20
110.631
 30
0.000000
  70
    32
  0
VERTEX
  8
0
  5
8A7
 10
39.5910
 20
110.638
 30
0.000000
  70
    32
  0
VERTEX
  8
0
  5
8A8
 10
39.7599
 20
110.647
 30
0.000000
  70
    32
  0
VERTEX
  8
0
  5
8A9
 10
39.9280
 20
110.658
 30
0.000000
  70
    32
  0
VERTEX
  8
0
  5
8AA
 10
40.0952
 20
110.669
 30
0.000000
  70
    32
  0
VERTEX
  8
0
  5
8AB
 10
40.2613
 20
110.682
 30
0.000000
  70
    32
  0
VERTEX
  8
0
  5
8AC
 10
40.4263
 20
110.695
 30
0.000000
  70
    32
  0
VERTEX
  8
0
  5
8AD
 10
40.5901
 20
110.710
 30
0.000000
  70
    32
  0
VERTEX
  8
0
  5
8AE
 10
40.7525
 20
110.726
 30
0.000000
  70
    32
  0
VERTEX
  8
0
  5
8AF
 10
40.9136
 20
110.743
 30
0.000000
  70
    32
  0
VERTEX
  8
0
  5
8B0
 10
41.0731
 20
110.762
 30
0.000000
  70
    32
  0
VERTEX
  8
0
  5
8B1
 10
41.2310
 20
110.781
 30
0.000000
  70
    32
  0
VERTEX
  8
0
  5
8B2
 10
41.3872
 20
110.802
 30
0.000000
  70
    32
  0
VERTEX
  8
0
  5
8B3
 10
41.5416
 20
110.823
 30
0.000000
  70
    32
  0
VERTEX
  8
0
  5
8B4
 10
41.6941
 20
110.846
 30
0.000000
  70
    32
  0
VERTEX
  8
0
  5
8B5
 10
41.8446
 20
110.870
 30
0.000000
  70
    32
  0
VERTEX
  8
0
  5
8B6
 10
41.9930
 20
110.895
 30
0.000000
  70
    32
  0
VERTEX
  8
0
  5
8B7
 10
42.1393
 20
110.920
 30
0.000000
  70
    32
  0
VERTEX
  8
0
  5
8B8
 10
42.2833
 20
110.947
 30
0.000000
  70
    32
  0
VERTEX
  8
0
  5
8B9
 10
42.4250
 20
110.975
 30
0.000000
  70
    32
  0
VERTEX
  8
0
  5
8BA
 10
42.5642
 20
111.004
 30
0.000000
  70
    32
  0
VERTEX
  8
0
  5
8BB
 10
42.7009
 20
111.034
 30
0.000000
  70
    32
  0
VERTEX
  8
0
  5
8BC
 10
42.8351
 20
111.065
 30
0.000000
  70
    32
  0
VERTEX
  8
0
  5
8BD
 10
42.9665
 20
111.097
 30
0.000000
  70
    32
  0
VERTEX
  8
0
  5
8BE
 10
43.0952
 20
111.129
 30
0.000000
  70
    32
  0
VERTEX
  8
0
  5
8BF
 10
43.2211
 20
111.163
 30
0.000000
  70
    32
  0
VERTEX
  8
0
  5
8C0
 10
43.3440
 20
111.197
 30
0.000000
  70
    32
  0
VERTEX
  8
0
  5
8C1
 10
43.4640
 20
111.232
 30
0.000000
  70
    32
  0
VERTEX
  8
0
  5
8C2
 10
43.5810
 20
111.269
 30
0.000000
  70
    32
  0
VERTEX
  8
0
  5
8C3
 10
43.6948
 20
111.306
 30
0.000000
  70
    32
  0
VERTEX
  8
0
  5
8C4
 10
43.8054
 20
111.343
 30
0.000000
  70
    32
  0
VERTEX
  8
0
  5
8C5
 10
43.9127
 20
111.382
 30
0.000000
  70
    32
  0
VERTEX
  8
0
  5
8C6
 10
44.0168
 20
111.421
 30
0.000000
  70
    32
  0
VERTEX
  8
0
  5
8C7
 10
44.1174
 20
111.461
 30
0.000000
  70
    32
  0
VERTEX
  8
0
  5
8C8
 10
44.2146
 20
111.502
 30
0.000000
  70
    32
  0
VERTEX
  8
0
  5
8C9
 10
44.3083
 20
111.543
 30
0.000000
  70
    32
  0
VERTEX
  8
0
  5
8CA
 10
44.3984
 20
111.585
 30
0.000000
  70
    32
  0
VERTEX
  8
0
  5
8CB
 10
44.4849
 20
111.627
 30
0.000000
  70
    32
  0
VERTEX
  8
0
  5
8CC
 10
44.5677
 20
111.671
 30
0.000000
  70
    32
  0
VERTEX
  8
0
  5
8CD
 10
44.6469
 20
111.714
 30
0.000000
  70
    32
  0
VERTEX
  8
0
  5
8CE
 10
44.7222
 20
111.759
 30
0.000000
  70
    32
  0
VERTEX
  8
0
  5
8CF
 10
44.7938
 20
111.804
 30
0.000000
  70
    32
  0
VERTEX
  8
0
  5
8D0
 10
44.8615
 20
111.849
 30
0.000000
  70
    32
  0
VERTEX
  8
0
  5
8D1
 10
44.9252
 20
111.895
 30
0.000000
  70
    32
  0
VERTEX
  8
0
  5
8D2
 10
44.9851
 20
111.941
 30
0.000000
  70
    32
  0
VERTEX
  8
0
  5
8D3
 10
45.0410
 20
111.987
 30
0.000000
  70
    32
  0
VERTEX
  8
0
  5
8D4
 10
45.0929
 20
112.034
 30
0.000000
  70
    32
  0
VERTEX
  8
0
  5
8D5
 10
45.1407
 20
112.082
 30
0.000000
  70
    32
  0
VERTEX
  8
0
  5
8D6
 10
45.1845
 20
112.129
 30
0.000000
  70
    32
  0
VERTEX
  8
0
  5
8D7
 10
45.2242
 20
112.177
 30
0.000000
  70
    32
  0
VERTEX
  8
0
  5
8D8
 10
45.2598
 20
112.226
 30
0.000000
  70
    32
  0
VERTEX
  8
0
  5
8D9
 10
45.2912
 20
112.274
 30
0.000000
  70
    32
  0
VERTEX
  8
0
  5
8DA
 10
45.3185
 20
112.323
 30
0.000000
  70
    32
  0
VERTEX
  8
0
  5
8DB
 10
45.3417
 20
112.372
 30
0.000000
  70
    32
  0
VERTEX
  8
0
  5
8DC
 10
45.3606
 20
112.421
 30
0.000000
  70
    32
  0
VERTEX
  8
0
  5
8DD
 10
45.3753
 20
112.470
 30
0.000000
  70
    32
  0
VERTEX
  8
0
  5
8DE
 10
45.3859
 20
112.519
 30
0.000000
  70
    32
  0
VERTEX
  8
0
  5
8DF
 10
45.3922
 20
112.568
 30
0.000000
  70
    32
  0
VERTEX
  8
0
  5
8E0
 10
45.3943
 20
112.618
 30
0.000000
  70
    32
  0
SEQEND
  8
0
  5
8E1
  0
POLYLINE
  5
414
  8
0
 10
41.288916296314468
 20
122.78396643763324
 30
0.0
 66
     1
 70
     8
  0
VERTEX
  8
0
  5
8E2
 10
41.2889
 20
122.784
 30
0.000000
  70
    32
  0
VERTEX
  8
0
  5
8E3
 10
41.2665
 20
122.830
 30
0.000000
  70
    32
  0
VERTEX
  8
0
  5
8E4
 10
41.2431
 20
122.876
 30
0.000000
  70
    32
  0
VERTEX
  8
0
  5
8E5
 10
41.2188
 20
122.922
 30
0.000000
  70
    32
  0
VERTEX
  8
0
  5
8E6
 10
41.1934
 20
122.967
 30
0.000000
  70
    32
  0
VERTEX
  8
0
  5
8E7
 10
41.1671
 20
123.012
 30
0.000000
  70
    32
  0
VERTEX
  8
0
  5
8E8
 10
41.1398
 20
123.056
 30
0.000000
  70
    32
  0
VERTEX
  8
0
  5
8E9
 10
41.1116
 20
123.100
 30
0.000000
  70
    32
  0
VERTEX
  8
0
  5
8EA
 10
41.0824
 20
123.144
 30
0.000000
  70
    32
  0
VERTEX
  8
0
  5
8EB
 10
41.0523
 20
123.187
 30
0.000000
  70
    32
  0
VERTEX
  8
0
  5
8EC
 10
41.0213
 20
123.229
 30
0.000000
  70
    32
  0
VERTEX
  8
0
  5
8ED
 10
40.9894
 20
123.271
 30
0.000000
  70
    32
  0
VERTEX
  8
0
  5
8EE
 10
40.9566
 20
123.313
 30
0.000000
  70
    32
  0
VERTEX
  8
0
  5
8EF
 10
40.9229
 20
123.353
 30
0.000000
  70
    32
  0
VERTEX
  8
0
  5
8F0
 10
40.8883
 20
123.394
 30
0.000000
  70
    32
  0
VERTEX
  8
0
  5
8F1
 10
40.8529
 20
123.434
 30
0.000000
  70
    32
  0
VERTEX
  8
0
  5
8F2
 10
40.8166
 20
123.473
 30
0.000000
  70
    32
  0
VERTEX
  8
0
  5
8F3
 10
40.7794
 20
123.512
 30
0.000000
  70
    32
  0
VERTEX
  8
0
  5
8F4
 10
40.7415
 20
123.550
 30
0.000000
  70
    32
  0
VERTEX
  8
0
  5
8F5
 10
40.7027
 20
123.587
 30
0.000000
  70
    32
  0
VERTEX
  8
0
  5
8F6
 10
40.6632
 20
123.624
 30
0.000000
  70
    32
  0
VERTEX
  8
0
  5
8F7
 10
40.6228
 20
123.660
 30
0.000000
  70
    32
  0
VERTEX
  8
0
  5
8F8
 10
40.5817
 20
123.695
 30
0.000000
  70
    32
  0
VERTEX
  8
0
  5
8F9
 10
40.5398
 20
123.730
 30
0.000000
  70
    32
  0
VERTEX
  8
0
  5
8FA
 10
40.4972
 20
123.764
 30
0.000000
  70
    32
  0
VERTEX
  8
0
  5
8FB
 10
40.4539
 20
123.798
 30
0.000000
  70
    32
  0
VERTEX
  8
0
  5
8FC
 10
40.4098
 20
123.831
 30
0.000000
  70
    32
  0
VERTEX
  8
0
  5
8FD
 10
40.3651
 20
123.863
 30
0.000000
  70
    32
  0
VERTEX
  8
0
  5
8FE
 10
40.3196
 20
123.894
 30
0.000000
  70
    32
  0
VERTEX
  8
0
  5
8FF
 10
40.2735
 20
123.925
 30
0.000000
  70
    32
  0
VERTEX
  8
0
  5
900
 10
40.2268
 20
123.954
 30
0.000000
  70
    32
  0
VERTEX
  8
0
  5
901
 10
40.1794
 20
123.983
 30
0.000000
  70
    32
  0
VERTEX
  8
0
  5
902
 10
40.1314
 20
124.012
 30
0.000000
  70
    32
  0
VERTEX
  8
0
  5
903
 10
40.0828
 20
124.039
 30
0.000000
  70
    32
  0
VERTEX
  8
0
  5
904
 10
40.0336
 20
124.066
 30
0.000000
  70
    32
  0
VERTEX
  8
0
  5
905
 10
39.9839
 20
124.092
 30
0.000000
  70
    32
  0
VERTEX
  8
0
  5
906
 10
39.9336
 20
124.117
 30
0.000000
  70
    32
  0
VERTEX
  8
0
  5
907
 10
39.8828
 20
124.142
 30
0.000000
  70
    32
  0
VERTEX
  8
0
  5
908
 10
39.8314
 20
124.165
 30
0.000000
  70
    32
  0
VERTEX
  8
0
  5
909
 10
39.7796
 20
124.188
 30
0.000000
  70
    32
  0
VERTEX
  8
0
  5
90A
 10
39.7273
 20
124.210
 30
0.000000
  70
    32
  0
VERTEX
  8
0
  5
90B
 10
39.6745
 20
124.231
 30
0.000000
  70
    32
  0
VERTEX
  8
0
  5
90C
 10
39.6213
 20
124.251
 30
0.000000
  70
    32
  0
VERTEX
  8
0
  5
90D
 10
39.5676
 20
124.270
 30
0.000000
  70
    32
  0
VERTEX
  8
0
  5
90E
 10
39.5136
 20
124.288
 30
0.000000
  70
    32
  0
VERTEX
  8
0
  5
90F
 10
39.4591
 20
124.306
 30
0.000000
  70
    32
  0
VERTEX
  8
0
  5
910
 10
39.4043
 20
124.323
 30
0.000000
  70
    32
  0
VERTEX
  8
0
  5
911
 10
39.3492
 20
124.338
 30
0.000000
  70
    32
  0
VERTEX
  8
0
  5
912
 10
39.2937
 20
124.353
 30
0.000000
  70
    32
  0
VERTEX
  8
0
  5
913
 10
39.2379
 20
124.367
 30
0.000000
  70
    32
  0
VERTEX
  8
0
  5
914
 10
39.1818
 20
124.380
 30
0.000000
  70
    32
  0
VERTEX
  8
0
  5
915
 10
39.1254
 20
124.393
 30
0.000000
  70
    32
  0
VERTEX
  8
0
  5
916
 10
39.0688
 20
124.404
 30
0.000000
  70
    32
  0
VERTEX
  8
0
  5
917
 10
39.0120
 20
124.414
 30
0.000000
  70
    32
  0
VERTEX
  8
0
  5
918
 10
38.9549
 20
124.424
 30
0.000000
  70
    32
  0
VERTEX
  8
0
  5
919
 10
38.8976
 20
124.432
 30
0.000000
  70
    32
  0
VERTEX
  8
0
  5
91A
 10
38.8402
 20
124.440
 30
0.000000
  70
    32
  0
VERTEX
  8
0
  5
91B
 10
38.7826
 20
124.447
 30
0.000000
  70
    32
  0
VERTEX
  8
0
  5
91C
 10
38.7249
 20
124.453
 30
0.000000
  70
    32
  0
VERTEX
  8
0
  5
91D
 10
38.6671
 20
124.457
 30
0.000000
  70
    32
  0
VERTEX
  8
0
  5
91E
 10
38.6091
 20
124.461
 30
0.000000
  70
    32
  0
VERTEX
  8
0
  5
91F
 10
38.5511
 20
124.464
 30
0.000000
  70
    32
  0
VERTEX
  8
0
  5
920
 10
38.4931
 20
124.466
 30
0.000000
  70
    32
  0
VERTEX
  8
0
  5
921
 10
38.4350
 20
124.467
 30
0.000000
  70
    32
  0
VERTEX
  8
0
  5
922
 10
38.3769
 20
124.468
 30
0.000000
  70
    32
  0
VERTEX
  8
0
  5
923
 10
38.3188
 20
124.467
 30
0.000000
  70
    32
  0
VERTEX
  8
0
  5
924
 10
38.2607
 20
124.465
 30
0.000000
  70
    32
  0
VERTEX
  8
0
  5
925
 10
38.2027
 20
124.463
 30
0.000000
  70
    32
  0
VERTEX
  8
0
  5
926
 10
38.1447
 20
124.459
 30
0.000000
  70
    32
  0
VERTEX
  8
0
  5
927
 10
38.0869
 20
124.455
 30
0.000000
  70
    32
  0
VERTEX
  8
0
  5
928
 10
38.0291
 20
124.449
 30
0.000000
  70
    32
  0
VERTEX
  8
0
  5
929
 10
37.9715
 20
124.443
 30
0.000000
  70
    32
  0
VERTEX
  8
0
  5
92A
 10
37.9140
 20
124.436
 30
0.000000
  70
    32
  0
VERTEX
  8
0
  5
92B
 10
37.8566
 20
124.427
 30
0.000000
  70
    32
  0
VERTEX
  8
0
  5
92C
 10
37.7995
 20
124.418
 30
0.000000
  70
    32
  0
VERTEX
  8
0
  5
92D
 10
37.7426
 20
124.408
 30
0.000000
  70
    32
  0
VERTEX
  8
0
  5
92E
 10
37.6859
 20
124.397
 30
0.000000
  70
    32
  0
VERTEX
  8
0
  5
92F
 10
37.6294
 20
124.385
 30
0.000000
  70
    32
  0
VERTEX
  8
0
  5
930
 10
37.5732
 20
124.373
 30
0.000000
  70
    32
  0
VERTEX
  8
0
  5
931
 10
37.5173
 20
124.359
 30
0.000000
  70
    32
  0
VERTEX
  8
0
  5
932
 10
37.4617
 20
124.345
 30
0.000000
  70
    32
  0
VERTEX
  8
0
  5
933
 10
37.4064
 20
124.329
 30
0.000000
  70
    32
  0
VERTEX
  8
0
  5
934
 10
37.3514
 20
124.313
 30
0.000000
  70
    32
  0
VERTEX
  8
0
  5
935
 10
37.2968
 20
124.296
 30
0.000000
  70
    32
  0
VERTEX
  8
0
  5
936
 10
37.2426
 20
124.278
 30
0.000000
  70
    32
  0
VERTEX
  8
0
  5
937
 10
37.1888
 20
124.259
 30
0.000000
  70
    32
  0
VERTEX
  8
0
  5
938
 10
37.1354
 20
124.239
 30
0.000000
  70
    32
  0
VERTEX
  8
0
  5
939
 10
37.0824
 20
124.218
 30
0.000000
  70
    32
  0
VERTEX
  8
0
  5
93A
 10
37.0299
 20
124.197
 30
0.000000
  70
    32
  0
VERTEX
  8
0
  5
93B
 10
36.9779
 20
124.174
 30
0.000000
  70
    32
  0
VERTEX
  8
0
  5
93C
 10
36.9264
 20
124.151
 30
0.000000
  70
    32
  0
VERTEX
  8
0
  5
93D
 10
36.8753
 20
124.127
 30
0.000000
  70
    32
  0
VERTEX
  8
0
  5
93E
 10
36.8248
 20
124.102
 30
0.000000
  70
    32
  0
VERTEX
  8
0
  5
93F
 10
36.7748
 20
124.077
 30
0.000000
  70
    32
  0
VERTEX
  8
0
  5
940
 10
36.7254
 20
124.050
 30
0.000000
  70
    32
  0
VERTEX
  8
0
  5
941
 10
36.6766
 20
124.023
 30
0.000000
  70
    32
  0
VERTEX
  8
0
  5
942
 10
36.6283
 20
123.995
 30
0.000000
  70
    32
  0
VERTEX
  8
0
  5
943
 10
36.5807
 20
123.966
 30
0.000000
  70
    32
  0
VERTEX
  8
0
  5
944
 10
36.5337
 20
123.937
 30
0.000000
  70
    32
  0
VERTEX
  8
0
  5
945
 10
36.4874
 20
123.906
 30
0.000000
  70
    32
  0
VERTEX
  8
0
  5
946
 10
36.4417
 20
123.875
 30
0.000000
  70
    32
  0
VERTEX
  8
0
  5
947
 10
36.3966
 20
123.844
 30
0.000000
  70
    32
  0
VERTEX
  8
0
  5
948
 10
36.3523
 20
123.811
 30
0.000000
  70
    32
  0
VERTEX
  8
0
  5
949
 10
36.3087
 20
123.778
 30
0.000000
  70
    32
  0
VERTEX
  8
0
  5
94A
 10
36.2658
 20
123.744
 30
0.000000
  70
    32
  0
VERTEX
  8
0
  5
94B
 10
36.2236
 20
123.709
 30
0.000000
  70
    32
  0
VERTEX
  8
0
  5
94C
 10
36.1822
 20
123.674
 30
0.000000
  70
    32
  0
VERTEX
  8
0
  5
94D
 10
36.1415
 20
123.638
 30
0.000000
  70
    32
  0
VERTEX
  8
0
  5
94E
 10
36.1016
 20
123.602
 30
0.000000
  70
    32
  0
VERTEX
  8
0
  5
94F
 10
36.0625
 20
123.565
 30
0.000000
  70
    32
  0
VERTEX
  8
0
  5
950
 10
36.0243
 20
123.527
 30
0.000000
  70
    32
  0
VERTEX
  8
0
  5
951
 10
35.9868
 20
123.488
 30
0.000000
  70
    32
  0
VERTEX
  8
0
  5
952
 10
35.9502
 20
123.449
 30
0.000000
  70
    32
  0
VERTEX
  8
0
  5
953
 10
35.9144
 20
123.410
 30
0.000000
  70
    32
  0
VERTEX
  8
0
  5
954
 10
35.8795
 20
123.370
 30
0.000000
  70
    32
  0
VERTEX
  8
0
  5
955
 10
35.8454
 20
123.329
 30
0.000000
  70
    32
  0
VERTEX
  8
0
  5
956
 10
35.8122
 20
123.288
 30
0.000000
  70
    32
  0
VERTEX
  8
0
  5
957
 10
35.7800
 20
123.246
 30
0.000000
  70
    32
  0
VERTEX
  8
0
  5
958
 10
35.7486
 20
123.204
 30
0.000000
  70
    32
  0
VERTEX
  8
0
  5
959
 10
35.7181
 20
123.161
 30
0.000000
  70
    32
  0
VERTEX
  8
0
  5
95A
 10
35.6886
 20
123.118
 30
0.000000
  70
    32
  0
VERTEX
  8
0
  5
95B
 10
35.6600
 20
123.074
 30
0.000000
  70
    32
  0
VERTEX
  8
0
  5
95C
 10
35.6323
 20
123.030
 30
0.000000
  70
    32
  0
VERTEX
  8
0
  5
95D
 10
35.6056
 20
122.985
 30
0.000000
  70
    32
  0
VERTEX
  8
0
  5
95E
 10
35.5799
 20
122.940
 30
0.000000
  70
    32
  0
VERTEX
  8
0
  5
95F
 10
35.5551
 20
122.895
 30
0.000000
  70
    32
  0
VERTEX
  8
0
  5
960
 10
35.5313
 20
122.849
 30
0.000000
  70
    32
  0
VERTEX
  8
0
  5
961
 10
35.5085
 20
122.803
 30
0.000000
  70
    32
  0
VERTEX
  8
0
  5
962
 10
35.4867
 20
122.756
 30
0.000000
  70
    32
  0
SEQEND
  8
0
  5
963
  0
LINE
  5
415
  8
0
 10
45.359298929911603
 20
110.28747030003289
 30
0.0
 11
45.359298929911603
 21
110.6088273963484
 31
0.0
  0
LINE
  5
416
  8
0
 10
45.359298929911603
 20
110.6088273963484
 30
0.0
 11
45.394298929911621
 21
112.6175685676377
 31
0.0
  0
LINE
  5
417
  8
0
 10
31.429298929911599
 20
110.6088273963484
 30
0.0
 11
31.394298929911571
 21
112.6175685676377
 31
0.0
  0
LINE
  5
418
  8
0
 10
31.429298929911599
 20
110.28747030003289
 30
0.0
 11
31.429298929911599
 21
110.6088273963484
 31
0.0
  0
ARC
  5
419
  8
0
 10
93.378291253971952
 20
109.9302751992393
 30
0.0
 40
17.324561624508821
 50
160.56565392324529
 51
177.75531843057121
  0
ARC
  5
41A
  8
0
 10
77.756886038036612
 20
115.4715548687317
 30
0.0
 40
0.75
 50
103.0000000000026
 51
162.6976205502385
  0
ARC
  5
41B
  8
0
 10
48.608630350322699
 20
110.00755545616011
 30
0.0
 40
17.411070463754861
 50
154.63114496590421
 51
171.37855684221199
  0
CIRCLE
  5
41C
  8
0
 10
83.067023178027796
 20
164.94397312882941
 30
0.0
 40
5.4788504307491053
  0
ARC
  5
41D
  8
0
 10
103.29496769056421
 20
116.9725511648482
 30
0.0
 40
15.0
 50
190.49432937773099
 51
206.46634483904461
  0
ARC
  5
41E
  8
0
 10
103.49951706387419
 20
115.4403756457224
 30
0.0
 40
15.0
 50
168.21851651757379
 51
184.50567062226779
  0
LINE
  5
41F
  8
0
 10
77.588172747278691
 20
116.2023324173206
 30
0.0
 11
112.77506771618209
 21
124.40210629005421
 31
0.0
  0
ARC
  5
420
  8
0
 10
88.619728996413926
 20
118.5439070322995
 30
0.0
 40
0.2
 50
348.21851651757731
 51
103.00000000000099
  0
ARC
  5
421
  8
0
 10
28.1799675095005
 20
110.00755545616011
 30
0.0
 40
17.411070463754879
 50
8.6214431577879918
 51
25.368855034095731
  0
POLYLINE
  5
422
  8
0
 10
34.394298929911635
 20
118.39480714077108
 30
0.0
 66
     1
 70
     8
  0
VERTEX
  8
0
  5
964
 10
34.3943
 20
118.395
 30
0.000000
  70
    32
  0
VERTEX
  8
0
  5
965
 10
34.2586
 20
118.359
 30
0.000000
  70
    32
  0
VERTEX
  8
0
  5
966
 10
34.1283
 20
118.321
 30
0.000000
  70
    32
  0
VERTEX
  8
0
  5
967
 10
34.0037
 20
118.283
 30
0.000000
  70
    32
  0
VERTEX
  8
0
  5
968
 10
33.8850
 20
118.243
 30
0.000000
  70
    32
  0
VERTEX
  8
0
  5
969
 10
33.7722
 20
118.203
 30
0.000000
  70
    32
  0
VERTEX
  8
0
  5
96A
 10
33.6655
 20
118.161
 30
0.000000
  70
    32
  0
VERTEX
  8
0
  5
96B
 10
33.5651
 20
118.119
 30
0.000000
  70
    32
  0
VERTEX
  8
0
  5
96C
 10
33.4712
 20
118.075
 30
0.000000
  70
    32
  0
VERTEX
  8
0
  5
96D
 10
33.3837
 20
118.031
 30
0.000000
  70
    32
  0
VERTEX
  8
0
  5
96E
 10
33.3029
 20
117.986
 30
0.000000
  70
    32
  0
VERTEX
  8
0
  5
96F
 10
33.2288
 20
117.941
 30
0.000000
  70
    32
  0
VERTEX
  8
0
  5
970
 10
33.1616
 20
117.894
 30
0.000000
  70
    32
  0
VERTEX
  8
0
  5
971
 10
33.1014
 20
117.848
 30
0.000000
  70
    32
  0
VERTEX
  8
0
  5
972
 10
33.0481
 20
117.800
 30
0.000000
  70
    32
  0
VERTEX
  8
0
  5
973
 10
33.0019
 20
117.753
 30
0.000000
  70
    32
  0
VERTEX
  8
0
  5
974
 10
32.9629
 20
117.705
 30
0.000000
  70
    32
  0
VERTEX
  8
0
  5
975
 10
32.9311
 20
117.656
 30
0.000000
  70
    32
  0
VERTEX
  8
0
  5
976
 10
32.9066
 20
117.608
 30
0.000000
  70
    32
  0
VERTEX
  8
0
  5
977
 10
32.8893
 20
117.559
 30
0.000000
  70
    32
  0
VERTEX
  8
0
  5
978
 10
32.8793
 20
117.510
 30
0.000000
  70
    32
  0
VERTEX
  8
0
  5
979
 10
32.8766
 20
117.461
 30
0.000000
  70
    32
  0
VERTEX
  8
0
  5
97A
 10
32.8812
 20
117.412
 30
0.000000
  70
    32
  0
VERTEX
  8
0
  5
97B
 10
32.8932
 20
117.363
 30
0.000000
  70
    32
  0
VERTEX
  8
0
  5
97C
 10
32.9124
 20
117.314
 30
0.000000
  70
    32
  0
VERTEX
  8
0
  5
97D
 10
32.9390
 20
117.265
 30
0.000000
  70
    32
  0
VERTEX
  8
0
  5
97E
 10
32.9727
 20
117.217
 30
0.000000
  70
    32
  0
VERTEX
  8
0
  5
97F
 10
33.0136
 20
117.169
 30
0.000000
  70
    32
  0
VERTEX
  8
0
  5
980
 10
33.0617
 20
117.121
 30
0.000000
  70
    32
  0
VERTEX
  8
0
  5
981
 10
33.1169
 20
117.074
 30
0.000000
  70
    32
  0
VERTEX
  8
0
  5
982
 10
33.1790
 20
117.028
 30
0.000000
  70
    32
  0
VERTEX
  8
0
  5
983
 10
33.2480
 20
116.981
 30
0.000000
  70
    32
  0
VERTEX
  8
0
  5
984
 10
33.3239
 20
116.936
 30
0.000000
  70
    32
  0
VERTEX
  8
0
  5
985
 10
33.4065
 20
116.891
 30
0.000000
  70
    32
  0
VERTEX
  8
0
  5
986
 10
33.4958
 20
116.847
 30
0.000000
  70
    32
  0
VERTEX
  8
0
  5
987
 10
33.5915
 20
116.804
 30
0.000000
  70
    32
  0
VERTEX
  8
0
  5
988
 10
33.6935
 20
116.762
 30
0.000000
  70
    32
  0
VERTEX
  8
0
  5
989
 10
33.8019
 20
116.721
 30
0.000000
  70
    32
  0
VERTEX
  8
0
  5
98A
 10
33.9163
 20
116.680
 30
0.000000
  70
    32
  0
VERTEX
  8
0
  5
98B
 10
34.0366
 20
116.641
 30
0.000000
  70
    32
  0
VERTEX
  8
0
  5
98C
 10
34.1627
 20
116.603
 30
0.000000
  70
    32
  0
VERTEX
  8
0
  5
98D
 10
34.2945
 20
116.566
 30
0.000000
  70
    32
  0
VERTEX
  8
0
  5
98E
 10
34.4316
 20
116.530
 30
0.000000
  70
    32
  0
VERTEX
  8
0
  5
98F
 10
34.5741
 20
116.496
 30
0.000000
  70
    32
  0
VERTEX
  8
0
  5
990
 10
34.7215
 20
116.462
 30
0.000000
  70
    32
  0
VERTEX
  8
0
  5
991
 10
34.8739
 20
116.430
 30
0.000000
  70
    32
  0
VERTEX
  8
0
  5
992
 10
35.0309
 20
116.400
 30
0.000000
  70
    32
  0
VERTEX
  8
0
  5
993
 10
35.1924
 20
116.371
 30
0.000000
  70
    32
  0
VERTEX
  8
0
  5
994
 10
35.3581
 20
116.343
 30
0.000000
  70
    32
  0
VERTEX
  8
0
  5
995
 10
35.5279
 20
116.317
 30
0.000000
  70
    32
  0
VERTEX
  8
0
  5
996
 10
35.7015
 20
116.292
 30
0.000000
  70
    32
  0
VERTEX
  8
0
  5
997
 10
35.8786
 20
116.269
 30
0.000000
  70
    32
  0
VERTEX
  8
0
  5
998
 10
36.0591
 20
116.247
 30
0.000000
  70
    32
  0
VERTEX
  8
0
  5
999
 10
36.2426
 20
116.227
 30
0.000000
  70
    32
  0
VERTEX
  8
0
  5
99A
 10
36.4290
 20
116.209
 30
0.000000
  70
    32
  0
VERTEX
  8
0
  5
99B
 10
36.6181
 20
116.192
 30
0.000000
  70
    32
  0
VERTEX
  8
0
  5
99C
 10
36.8094
 20
116.177
 30
0.000000
  70
    32
  0
VERTEX
  8
0
  5
99D
 10
37.0029
 20
116.164
 30
0.000000
  70
    32
  0
VERTEX
  8
0
  5
99E
 10
37.1982
 20
116.153
 30
0.000000
  70
    32
  0
VERTEX
  8
0
  5
99F
 10
37.3952
 20
116.143
 30
0.000000
  70
    32
  0
VERTEX
  8
0
  5
9A0
 10
37.5934
 20
116.135
 30
0.000000
  70
    32
  0
VERTEX
  8
0
  5
9A1
 10
37.7927
 20
116.129
 30
0.000000
  70
    32
  0
VERTEX
  8
0
  5
9A2
 10
37.9928
 20
116.124
 30
0.000000
  70
    32
  0
VERTEX
  8
0
  5
9A3
 10
38.1934
 20
116.121
 30
0.000000
  70
    32
  0
VERTEX
  8
0
  5
9A4
 10
38.3943
 20
116.121
 30
0.000000
  70
    32
  0
VERTEX
  8
0
  5
9A5
 10
38.5952
 20
116.121
 30
0.000000
  70
    32
  0
VERTEX
  8
0
  5
9A6
 10
38.7958
 20
116.124
 30
0.000000
  70
    32
  0
VERTEX
  8
0
  5
9A7
 10
38.9959
 20
116.129
 30
0.000000
  70
    32
  0
VERTEX
  8
0
  5
9A8
 10
39.1952
 20
116.135
 30
0.000000
  70
    32
  0
VERTEX
  8
0
  5
9A9
 10
39.3934
 20
116.143
 30
0.000000
  70
    32
  0
VERTEX
  8
0
  5
9AA
 10
39.5904
 20
116.153
 30
0.000000
  70
    32
  0
VERTEX
  8
0
  5
9AB
 10
39.7857
 20
116.164
 30
0.000000
  70
    32
  0
VERTEX
  8
0
  5
9AC
 10
39.9792
 20
116.177
 30
0.000000
  70
    32
  0
VERTEX
  8
0
  5
9AD
 10
40.1705
 20
116.192
 30
0.000000
  70
    32
  0
VERTEX
  8
0
  5
9AE
 10
40.3596
 20
116.209
 30
0.000000
  70
    32
  0
VERTEX
  8
0
  5
9AF
 10
40.5460
 20
116.227
 30
0.000000
  70
    32
  0
VERTEX
  8
0
  5
9B0
 10
40.7295
 20
116.247
 30
0.000000
  70
    32
  0
VERTEX
  8
0
  5
9B1
 10
40.9100
 20
116.269
 30
0.000000
  70
    32
  0
VERTEX
  8
0
  5
9B2
 10
41.0871
 20
116.292
 30
0.000000
  70
    32
  0
VERTEX
  8
0
  5
9B3
 10
41.2607
 20
116.317
 30
0.000000
  70
    32
  0
VERTEX
  8
0
  5
9B4
 10
41.4304
 20
116.343
 30
0.000000
  70
    32
  0
VERTEX
  8
0
  5
9B5
 10
41.5962
 20
116.371
 30
0.000000
  70
    32
  0
VERTEX
  8
0
  5
9B6
 10
41.7577
 20
116.400
 30
0.000000
  70
    32
  0
VERTEX
  8
0
  5
9B7
 10
41.9147
 20
116.430
 30
0.000000
  70
    32
  0
VERTEX
  8
0
  5
9B8
 10
42.0671
 20
116.462
 30
0.000000
  70
    32
  0
VERTEX
  8
0
  5
9B9
 10
42.2145
 20
116.496
 30
0.000000
  70
    32
  0
VERTEX
  8
0
  5
9BA
 10
42.3570
 20
116.530
 30
0.000000
  70
    32
  0
VERTEX
  8
0
  5
9BB
 10
42.4941
 20
116.566
 30
0.000000
  70
    32
  0
VERTEX
  8
0
  5
9BC
 10
42.6259
 20
116.603
 30
0.000000
  70
    32
  0
VERTEX
  8
0
  5
9BD
 10
42.7520
 20
116.641
 30
0.000000
  70
    32
  0
VERTEX
  8
0
  5
9BE
 10
42.8723
 20
116.680
 30
0.000000
  70
    32
  0
VERTEX
  8
0
  5
9BF
 10
42.9867
 20
116.721
 30
0.000000
  70
    32
  0
VERTEX
  8
0
  5
9C0
 10
43.0951
 20
116.762
 30
0.000000
  70
    32
  0
VERTEX
  8
0
  5
9C1
 10
43.1971
 20
116.804
 30
0.000000
  70
    32
  0
VERTEX
  8
0
  5
9C2
 10
43.2928
 20
116.847
 30
0.000000
  70
    32
  0
VERTEX
  8
0
  5
9C3
 10
43.3821
 20
116.891
 30
0.000000
  70
    32
  0
VERTEX
  8
0
  5
9C4
 10
43.4647
 20
116.936
 30
0.000000
  70
    32
  0
VERTEX
  8
0
  5
9C5
 10
43.5405
 20
116.981
 30
0.000000
  70
    32
  0
VERTEX
  8
0
  5
9C6
 10
43.6096
 20
117.028
 30
0.000000
  70
    32
  0
VERTEX
  8
0
  5
9C7
 10
43.6717
 20
117.074
 30
0.000000
  70
    32
  0
VERTEX
  8
0
  5
9C8
 10
43.7269
 20
117.121
 30
0.000000
  70
    32
  0
VERTEX
  8
0
  5
9C9
 10
43.7750
 20
117.169
 30
0.000000
  70
    32
  0
VERTEX
  8
0
  5
9CA
 10
43.8159
 20
117.217
 30
0.000000
  70
    32
  0
VERTEX
  8
0
  5
9CB
 10
43.8496
 20
117.265
 30
0.000000
  70
    32
  0
VERTEX
  8
0
  5
9CC
 10
43.8762
 20
117.314
 30
0.000000
  70
    32
  0
VERTEX
  8
0
  5
9CD
 10
43.8954
 20
117.363
 30
0.000000
  70
    32
  0
VERTEX
  8
0
  5
9CE
 10
43.9074
 20
117.412
 30
0.000000
  70
    32
  0
VERTEX
  8
0
  5
9CF
 10
43.9120
 20
117.461
 30
0.000000
  70
    32
  0
VERTEX
  8
0
  5
9D0
 10
43.9093
 20
117.510
 30
0.000000
  70
    32
  0
VERTEX
  8
0
  5
9D1
 10
43.8993
 20
117.559
 30
0.000000
  70
    32
  0
VERTEX
  8
0
  5
9D2
 10
43.8820
 20
117.608
 30
0.000000
  70
    32
  0
VERTEX
  8
0
  5
9D3
 10
43.8575
 20
117.656
 30
0.000000
  70
    32
  0
VERTEX
  8
0
  5
9D4
 10
43.8257
 20
117.705
 30
0.000000
  70
    32
  0
VERTEX
  8
0
  5
9D5
 10
43.7866
 20
117.753
 30
0.000000
  70
    32
  0
VERTEX
  8
0
  5
9D6
 10
43.7405
 20
117.800
 30
0.000000
  70
    32
  0
VERTEX
  8
0
  5
9D7
 10
43.6872
 20
117.848
 30
0.000000
  70
    32
  0
VERTEX
  8
0
  5
9D8
 10
43.6270
 20
117.894
 30
0.000000
  70
    32
  0
VERTEX
  8
0
  5
9D9
 10
43.5598
 20
117.941
 30
0.000000
  70
    32
  0
VERTEX
  8
0
  5
9DA
 10
43.4857
 20
117.986
 30
0.000000
  70
    32
  0
VERTEX
  8
0
  5
9DB
 10
43.4049
 20
118.031
 30
0.000000
  70
    32
  0
VERTEX
  8
0
  5
9DC
 10
43.3174
 20
118.075
 30
0.000000
  70
    32
  0
VERTEX
  8
0
  5
9DD
 10
43.2234
 20
118.119
 30
0.000000
  70
    32
  0
VERTEX
  8
0
  5
9DE
 10
43.1231
 20
118.161
 30
0.000000
  70
    32
  0
VERTEX
  8
0
  5
9DF
 10
43.0164
 20
118.203
 30
0.000000
  70
    32
  0
VERTEX
  8
0
  5
9E0
 10
42.9036
 20
118.243
 30
0.000000
  70
    32
  0
VERTEX
  8
0
  5
9E1
 10
42.7849
 20
118.283
 30
0.000000
  70
    32
  0
VERTEX
  8
0
  5
9E2
 10
42.6603
 20
118.321
 30
0.000000
  70
    32
  0
VERTEX
  8
0
  5
9E3
 10
42.5300
 20
118.359
 30
0.000000
  70
    32
  0
VERTEX
  8
0
  5
9E4
 10
42.3943
 20
118.395
 30
0.000000
  70
    32
  0
SEQEND
  8
0
  5
9E5
  0
POLYLINE
  5
423
  8
0
 10
34.394298929911614
 20
117.83152856647865
 30
0.0
 66
     1
 70
     8
  0
VERTEX
  8
0
  5
9E6
 10
34.3943
 20
117.832
 30
0.000000
  70
    32
  0
VERTEX
  8
0
  5
9E7
 10
34.3482
 20
117.803
 30
0.000000
  70
    32
  0
VERTEX
  8
0
  5
9E8
 10
34.3058
 20
117.775
 30
0.000000
  70
    32
  0
VERTEX
  8
0
  5
9E9
 10
34.2672
 20
117.746
 30
0.000000
  70
    32
  0
VERTEX
  8
0
  5
9EA
 10
34.2324
 20
117.717
 30
0.000000
  70
    32
  0
VERTEX
  8
0
  5
9EB
 10
34.2014
 20
117.687
 30
0.000000
  70
    32
  0
VERTEX
  8
0
  5
9EC
 10
34.1744
 20
117.658
 30
0.000000
  70
    32
  0
VERTEX
  8
0
  5
9ED
 10
34.1512
 20
117.628
 30
0.000000
  70
    32
  0
VERTEX
  8
0
  5
9EE
 10
34.1320
 20
117.598
 30
0.000000
  70
    32
  0
VERTEX
  8
0
  5
9EF
 10
34.1167
 20
117.568
 30
0.000000
  70
    32
  0
VERTEX
  8
0
  5
9F0
 10
34.1053
 20
117.538
 30
0.000000
  70
    32
  0
VERTEX
  8
0
  5
9F1
 10
34.0979
 20
117.508
 30
0.000000
  70
    32
  0
VERTEX
  8
0
  5
9F2
 10
34.0945
 20
117.478
 30
0.000000
  70
    32
  0
VERTEX
  8
0
  5
9F3
 10
34.0951
 20
117.448
 30
0.000000
  70
    32
  0
VERTEX
  8
0
  5
9F4
 10
34.0997
 20
117.418
 30
0.000000
  70
    32
  0
VERTEX
  8
0
  5
9F5
 10
34.1082
 20
117.387
 30
0.000000
  70
    32
  0
VERTEX
  8
0
  5
9F6
 10
34.1207
 20
117.357
 30
0.000000
  70
    32
  0
VERTEX
  8
0
  5
9F7
 10
34.1372
 20
117.327
 30
0.000000
  70
    32
  0
VERTEX
  8
0
  5
9F8
 10
34.1575
 20
117.298
 30
0.000000
  70
    32
  0
VERTEX
  8
0
  5
9F9
 10
34.1818
 20
117.268
 30
0.000000
  70
    32
  0
VERTEX
  8
0
  5
9FA
 10
34.2100
 20
117.238
 30
0.000000
  70
    32
  0
VERTEX
  8
0
  5
9FB
 10
34.2421
 20
117.209
 30
0.000000
  70
    32
  0
VERTEX
  8
0
  5
9FC
 10
34.2780
 20
117.180
 30
0.000000
  70
    32
  0
VERTEX
  8
0
  5
9FD
 10
34.3177
 20
117.151
 30
0.000000
  70
    32
  0
VERTEX
  8
0
  5
9FE
 10
34.3612
 20
117.123
 30
0.000000
  70
    32
  0
VERTEX
  8
0
  5
9FF
 10
34.4085
 20
117.095
 30
0.000000
  70
    32
  0
VERTEX
  8
0
  5
A00
 10
34.4594
 20
117.067
 30
0.000000
  70
    32
  0
VERTEX
  8
0
  5
A01
 10
34.5139
 20
117.039
 30
0.000000
  70
    32
  0
VERTEX
  8
0
  5
A02
 10
34.5720
 20
117.012
 30
0.000000
  70
    32
  0
VERTEX
  8
0
  5
A03
 10
34.6337
 20
116.986
 30
0.000000
  70
    32
  0
VERTEX
  8
0
  5
A04
 10
34.6989
 20
116.960
 30
0.000000
  70
    32
  0
VERTEX
  8
0
  5
A05
 10
34.7674
 20
116.934
 30
0.000000
  70
    32
  0
VERTEX
  8
0
  5
A06
 10
34.8394
 20
116.909
 30
0.000000
  70
    32
  0
VERTEX
  8
0
  5
A07
 10
34.9146
 20
116.884
 30
0.000000
  70
    32
  0
VERTEX
  8
0
  5
A08
 10
34.9930
 20
116.860
 30
0.000000
  70
    32
  0
VERTEX
  8
0
  5
A09
 10
35.0746
 20
116.836
 30
0.000000
  70
    32
  0
VERTEX
  8
0
  5
A0A
 10
35.1592
 20
116.813
 30
0.000000
  70
    32
  0
VERTEX
  8
0
  5
A0B
 10
35.2469
 20
116.791
 30
0.000000
  70
    32
  0
VERTEX
  8
0
  5
A0C
 10
35.3374
 20
116.769
 30
0.000000
  70
    32
  0
VERTEX
  8
0
  5
A0D
 10
35.4308
 20
116.748
 30
0.000000
  70
    32
  0
VERTEX
  8
0
  5
A0E
 10
35.5269
 20
116.727
 30
0.000000
  70
    32
  0
VERTEX
  8
0
  5
A0F
 10
35.6257
 20
116.708
 30
0.000000
  70
    32
  0
VERTEX
  8
0
  5
A10
 10
35.7270
 20
116.689
 30
0.000000
  70
    32
  0
VERTEX
  8
0
  5
A11
 10
35.8308
 20
116.670
 30
0.000000
  70
    32
  0
VERTEX
  8
0
  5
A12
 10
35.9370
 20
116.653
 30
0.000000
  70
    32
  0
VERTEX
  8
0
  5
A13
 10
36.0454
 20
116.636
 30
0.000000
  70
    32
  0
VERTEX
  8
0
  5
A14
 10
36.1560
 20
116.620
 30
0.000000
  70
    32
  0
VERTEX
  8
0
  5
A15
 10
36.2687
 20
116.604
 30
0.000000
  70
    32
  0
VERTEX
  8
0
  5
A16
 10
36.3834
 20
116.590
 30
0.000000
  70
    32
  0
VERTEX
  8
0
  5
A17
 10
36.4999
 20
116.576
 30
0.000000
  70
    32
  0
VERTEX
  8
0
  5
A18
 10
36.6182
 20
116.563
 30
0.000000
  70
    32
  0
VERTEX
  8
0
  5
A19
 10
36.7381
 20
116.551
 30
0.000000
  70
    32
  0
VERTEX
  8
0
  5
A1A
 10
36.8595
 20
116.540
 30
0.000000
  70
    32
  0
VERTEX
  8
0
  5
A1B
 10
36.9824
 20
116.530
 30
0.000000
  70
    32
  0
VERTEX
  8
0
  5
A1C
 10
37.1065
 20
116.520
 30
0.000000
  70
    32
  0
VERTEX
  8
0
  5
A1D
 10
37.2319
 20
116.511
 30
0.000000
  70
    32
  0
VERTEX
  8
0
  5
A1E
 10
37.3583
 20
116.504
 30
0.000000
  70
    32
  0
VERTEX
  8
0
  5
A1F
 10
37.4857
 20
116.497
 30
0.000000
  70
    32
  0
VERTEX
  8
0
  5
A20
 10
37.6139
 20
116.491
 30
0.000000
  70
    32
  0
VERTEX
  8
0
  5
A21
 10
37.7429
 20
116.486
 30
0.000000
  70
    32
  0
VERTEX
  8
0
  5
A22
 10
37.8725
 20
116.482
 30
0.000000
  70
    32
  0
VERTEX
  8
0
  5
A23
 10
38.0025
 20
116.479
 30
0.000000
  70
    32
  0
VERTEX
  8
0
  5
A24
 10
38.1329
 20
116.476
 30
0.000000
  70
    32
  0
VERTEX
  8
0
  5
A25
 10
38.2635
 20
116.475
 30
0.000000
  70
    32
  0
VERTEX
  8
0
  5
A26
 10
38.3943
 20
116.474
 30
0.000000
  70
    32
  0
VERTEX
  8
0
  5
A27
 10
38.5251
 20
116.475
 30
0.000000
  70
    32
  0
VERTEX
  8
0
  5
A28
 10
38.6557
 20
116.476
 30
0.000000
  70
    32
  0
VERTEX
  8
0
  5
A29
 10
38.7861
 20
116.479
 30
0.000000
  70
    32
  0
VERTEX
  8
0
  5
A2A
 10
38.9161
 20
116.482
 30
0.000000
  70
    32
  0
VERTEX
  8
0
  5
A2B
 10
39.0457
 20
116.486
 30
0.000000
  70
    32
  0
VERTEX
  8
0
  5
A2C
 10
39.1747
 20
116.491
 30
0.000000
  70
    32
  0
VERTEX
  8
0
  5
A2D
 10
39.3029
 20
116.497
 30
0.000000
  70
    32
  0
VERTEX
  8
0
  5
A2E
 10
39.4303
 20
116.504
 30
0.000000
  70
    32
  0
VERTEX
  8
0
  5
A2F
 10
39.5567
 20
116.511
 30
0.000000
  70
    32
  0
VERTEX
  8
0
  5
A30
 10
39.6821
 20
116.520
 30
0.000000
  70
    32
  0
VERTEX
  8
0
  5
A31
 10
39.8062
 20
116.530
 30
0.000000
  70
    32
  0
VERTEX
  8
0
  5
A32
 10
39.9291
 20
116.540
 30
0.000000
  70
    32
  0
VERTEX
  8
0
  5
A33
 10
40.0505
 20
116.551
 30
0.000000
  70
    32
  0
VERTEX
  8
0
  5
A34
 10
40.1704
 20
116.563
 30
0.000000
  70
    32
  0
VERTEX
  8
0
  5
A35
 10
40.2887
 20
116.576
 30
0.000000
  70
    32
  0
VERTEX
  8
0
  5
A36
 10
40.4052
 20
116.590
 30
0.000000
  70
    32
  0
VERTEX
  8
0
  5
A37
 10
40.5199
 20
116.604
 30
0.000000
  70
    32
  0
VERTEX
  8
0
  5
A38
 10
40.6326
 20
116.620
 30
0.000000
  70
    32
  0
VERTEX
  8
0
  5
A39
 10
40.7432
 20
116.636
 30
0.000000
  70
    32
  0
VERTEX
  8
0
  5
A3A
 10
40.8516
 20
116.653
 30
0.000000
  70
    32
  0
VERTEX
  8
0
  5
A3B
 10
40.9578
 20
116.670
 30
0.000000
  70
    32
  0
VERTEX
  8
0
  5
A3C
 10
41.0616
 20
116.689
 30
0.000000
  70
    32
  0
VERTEX
  8
0
  5
A3D
 10
41.1629
 20
116.708
 30
0.000000
  70
    32
  0
VERTEX
  8
0
  5
A3E
 10
41.2617
 20
116.727
 30
0.000000
  70
    32
  0
VERTEX
  8
0
  5
A3F
 10
41.3578
 20
116.748
 30
0.000000
  70
    32
  0
VERTEX
  8
0
  5
A40
 10
41.4512
 20
116.769
 30
0.000000
  70
    32
  0
VERTEX
  8
0
  5
A41
 10
41.5417
 20
116.791
 30
0.000000
  70
    32
  0
VERTEX
  8
0
  5
A42
 10
41.6294
 20
116.813
 30
0.000000
  70
    32
  0
VERTEX
  8
0
  5
A43
 10
41.7140
 20
116.836
 30
0.000000
  70
    32
  0
VERTEX
  8
0
  5
A44
 10
41.7956
 20
116.860
 30
0.000000
  70
    32
  0
VERTEX
  8
0
  5
A45
 10
41.8740
 20
116.884
 30
0.000000
  70
    32
  0
VERTEX
  8
0
  5
A46
 10
41.9492
 20
116.909
 30
0.000000
  70
    32
  0
VERTEX
  8
0
  5
A47
 10
42.0212
 20
116.934
 30
0.000000
  70
    32
  0
VERTEX
  8
0
  5
A48
 10
42.0897
 20
116.960
 30
0.000000
  70
    32
  0
VERTEX
  8
0
  5
A49
 10
42.1549
 20
116.986
 30
0.000000
  70
    32
  0
VERTEX
  8
0
  5
A4A
 10
42.2166
 20
117.012
 30
0.000000
  70
    32
  0
VERTEX
  8
0
  5
A4B
 10
42.2747
 20
117.039
 30
0.000000
  70
    32
  0
VERTEX
  8
0
  5
A4C
 10
42.3292
 20
117.067
 30
0.000000
  70
    32
  0
VERTEX
  8
0
  5
A4D
 10
42.3801
 20
117.095
 30
0.000000
  70
    32
  0
VERTEX
  8
0
  5
A4E
 10
42.4274
 20
117.123
 30
0.000000
  70
    32
  0
VERTEX
  8
0
  5
A4F
 10
42.4709
 20
117.151
 30
0.000000
  70
    32
  0
VERTEX
  8
0
  5
A50
 10
42.5106
 20
117.180
 30
0.000000
  70
    32
  0
VERTEX
  8
0
  5
A51
 10
42.5465
 20
117.209
 30
0.000000
  70
    32
  0
VERTEX
  8
0
  5
A52
 10
42.5786
 20
117.238
 30
0.000000
  70
    32
  0
VERTEX
  8
0
  5
A53
 10
42.6068
 20
117.268
 30
0.000000
  70
    32
  0
VERTEX
  8
0
  5
A54
 10
42.6311
 20
117.298
 30
0.000000
  70
    32
  0
VERTEX
  8
0
  5
A55
 10
42.6514
 20
117.327
 30
0.000000
  70
    32
  0
VERTEX
  8
0
  5
A56
 10
42.6679
 20
117.357
 30
0.000000
  70
    32
  0
VERTEX
  8
0
  5
A57
 10
42.6804
 20
117.387
 30
0.000000
  70
    32
  0
VERTEX
  8
0
  5
A58
 10
42.6889
 20
117.418
 30
0.000000
  70
    32
  0
VERTEX
  8
0
  5
A59
 10
42.6935
 20
117.448
 30
0.000000
  70
    32
  0
VERTEX
  8
0
  5
A5A
 10
42.6940
 20
117.478
 30
0.000000
  70
    32
  0
VERTEX
  8
0
  5
A5B
 10
42.6907
 20
117.508
 30
0.000000
  70
    32
  0
VERTEX
  8
0
  5
A5C
 10
42.6833
 20
117.538
 30
0.000000
  70
    32
  0
VERTEX
  8
0
  5
A5D
 10
42.6719
 20
117.568
 30
0.000000
  70
    32
  0
VERTEX
  8
0
  5
A5E
 10
42.6566
 20
117.598
 30
0.000000
  70
    32
  0
VERTEX
  8
0
  5
A5F
 10
42.6374
 20
117.628
 30
0.000000
  70
    32
  0
VERTEX
  8
0
  5
A60
 10
42.6142
 20
117.658
 30
0.000000
  70
    32
  0
VERTEX
  8
0
  5
A61
 10
42.5872
 20
117.687
 30
0.000000
  70
    32
  0
VERTEX
  8
0
  5
A62
 10
42.5562
 20
117.717
 30
0.000000
  70
    32
  0
VERTEX
  8
0
  5
A63
 10
42.5214
 20
117.746
 30
0.000000
  70
    32
  0
VERTEX
  8
0
  5
A64
 10
42.4828
 20
117.775
 30
0.000000
  70
    32
  0
VERTEX
  8
0
  5
A65
 10
42.4404
 20
117.803
 30
0.000000
  70
    32
  0
VERTEX
  8
0
  5
A66
 10
42.3943
 20
117.832
 30
0.000000
  70
    32
  0
SEQEND
  8
0
  5
A67
  0
ARC
  5
424
  8
0
 10
90.128504515817212
 20
112.28747030003289
 30
0.0
 40
2.0
 50
270.0
 51
289.99999999999949
  0
ARC
  5
425
  8
0
 10
83.067023178027796
 20
164.94397312882941
 30
0.0
 40
2.7567916134521511
 50
175.97735839169451
 51
184.02264160830549
  0
ARC
  5
426
  8
0
 10
83.067023178027796
 20
164.94397312882941
 30
0.0
 40
2.7567916134521511
 50
190.97839132993971
 51
349.02160867006029
  0
ARC
  5
427
  8
0
 10
83.067023178027796
 20
164.94397312882941
 30
0.0
 40
2.7567916134521511
 50
10.978391329936191
 51
169.02160867006029
  0
LINE
  5
428
  8
0
 10
80.317023178027853
 20
165.4689731288293
 30
0.0
 11
80.317023178027853
 21
164.41897312882941
 31
0.0
  0
LINE
  5
429
  8
0
 10
85.817023178027796
 20
165.4689731288293
 30
0.0
 11
85.817023178027796
 21
164.41897312882941
 31
0.0
  0
ARC
  5
42A
  8
0
 10
83.067023178027796
 20
164.94397312882941
 30
0.0
 40
2.7567916134521511
 50
355.97735839170429
 51
4.0226416082990033
  0
LINE
  5
42B
  8
0
 10
84.456240078893813
 20
164.41897312882941
 30
0.0
 11
85.817023178027796
 21
164.41897312882941
 31
0.0
  0
LINE
  5
42C
  8
0
 10
84.456240078893913
 20
165.4689731288293
 30
0.0
 11
85.817023178027796
 21
165.4689731288293
 31
0.0
  0
LINE
  5
42D
  8
0
 10
80.317023178027796
 20
165.4689731288293
 30
0.0
 11
81.677806277161778
 21
165.4689731288293
 31
0.0
  0
LINE
  5
42E
  8
0
 10
80.317023178027796
 20
164.41897312882941
 30
0.0
 11
81.677806277161878
 21
164.41897312882941
 31
0.0
  0
ARC
  5
42F
  8
0
 10
84.897685084039779
 20
166.00090627306071
 30
0.0
 40
0.6912500000000011
 50
163.3417582272229
 51
256.65824177277881
  0
ARC
  5
430
  8
0
 10
84.647023178027837
 20
164.94397312882941
 30
0.0
 40
0.3950000000000004
 50
283.34175822722119
 51
76.658241772778837
  0
ARC
  5
431
  8
0
 10
84.897685084039779
 20
163.8870399845982
 30
0.0
 40
0.6912500000000003
 50
103.34175822722121
 51
196.65824177277699
  0
ARC
  5
432
  8
0
 10
83.857023178027816
 20
163.5756529908501
 30
0.0
 40
0.3949999999999998
 50
223.34175822722349
 51
16.658241772777039
  0
ARC
  5
433
  8
0
 10
83.067023178027867
 20
162.83010684036699
 30
0.0
 40
0.6912500000000003
 50
43.341758227223458
 51
136.6582417727754
  0
ARC
  5
434
  8
0
 10
82.277023178027832
 20
163.5756529908501
 30
0.0
 40
0.3950000000000001
 50
163.3417582272229
 51
316.65824177277648
  0
ARC
  5
435
  8
0
 10
81.236361272015927
 20
163.8870399845982
 30
0.0
 40
0.691250000000001
 50
343.3417582272229
 51
76.658241772778837
  0
ARC
  5
436
  8
0
 10
83.857023178027816
 20
166.31229326680889
 30
0.0
 40
0.3950000000000002
 50
343.3417582272229
 51
136.65824177277651
  0
ARC
  5
437
  8
0
 10
83.067023178027867
 20
167.0578394172918
 30
0.0
 40
0.6912499999999989
 50
223.34175822722349
 51
316.65824177277648
  0
ARC
  5
438
  8
0
 10
82.277023178027832
 20
166.31229326680889
 30
0.0
 40
0.3949999999999998
 50
43.341758227223458
 51
196.65824177277699
  0
ARC
  5
439
  8
0
 10
81.236361272015927
 20
166.00090627306071
 30
0.0
 40
0.6912500000000005
 50
283.34175822722119
 51
16.658241772777039
  0
ARC
  5
43A
  8
0
 10
81.487023178027854
 20
164.94397312882941
 30
0.0
 40
0.3949999999999999
 50
103.34175822722121
 51
256.65824177277881
  0
CIRCLE
  5
43B
  8
0
 10
83.067023178027796
 20
164.94397312882941
 30
0.0
 40
4.0
  0
LINE
  5
449
  8
0
 10
88.067023178027796
 20
95.488827396351667
 30
0.0
 11
87.767023178024544
 21
95.188827396348415
 31
0.0
  0
LINE
  5
44A
  8
0
 10
88.067023178027796
 20
99.188827396348415
 30
0.0
 11
88.067023178027796
 21
95.488827396351667
 31
0.0
  0
LINE
  5
44B
  8
0
 10
78.367023178031047
 20
95.188827396348415
 30
0.0
 11
87.767023178024544
 21
95.188827396348415
 31
0.0
  0
LINE
  5
44C
  8
0
 10
78.067023178027725
 20
99.188827396348358
 30
0.0
 11
78.067023178027796
 21
95.488827396351667
 31
0.0
  0
LINE
  5
44D
  8
0
 10
78.067023178027796
 20
95.488827396351667
 30
0.0
 11
78.367023178031047
 21
95.188827396348415
 31
0.0
  0
LINE
  5
44E
  8
0
 10
78.067023178027853
 20
95.488827396351667
 30
0.0
 11
88.067023178027796
 21
95.488827396351667
 31
0.0
  0
ARC
  5
44F
  8
0
 10
83.067023178027796
 20
111.6788273963484
 30
0.0
 40
8.0
 50
110.15731621557489
 51
120.0000000000005
  0
LINE
  5
450
  8
0
 10
79.067023178027966
 20
118.607030626624
 30
0.0
 11
87.067023178027839
 21
118.6070306266239
 31
0.0
  0
ARC
  5
451
  8
0
 10
83.067023178027796
 20
111.6788273963484
 30
0.0
 40
8.0
 50
59.99999999999946
 51
69.842683784425077
  0
LINE
  5
452
  8
0
 10
85.823814791480004
 20
119.1888273963484
 30
0.0
 11
80.310231564575687
 21
119.1888273963484
 31
0.0
  0
LINE
  5
453
  8
0
 10
79.067023178027966
 20
118.607030626624
 30
0.0
 11
79.067023178027867
 21
116.5469561510843
 31
0.0
  0
LINE
  5
454
  8
0
 10
87.067023178027839
 20
118.6070306266239
 30
0.0
 11
87.067023178027839
 21
118.41123519701441
 31
0.0
  0
ARC
  5
455
  8
0
 10
38.394298929911542
 20
111.6788273963484
 30
0.0
 40
8.0
 50
110.15731621557489
 51
120.0000000000005
  0
LINE
  5
456
  8
0
 10
34.394298929911663
 20
118.607030626624
 30
0.0
 11
42.394298929911542
 21
118.6070306266239
 31
0.0
  0
ARC
  5
457
  8
0
 10
38.394298929911542
 20
111.6788273963484
 30
0.0
 40
8.0
 50
59.99999999999946
 51
69.842683784425077
  0
LINE
  5
458
  8
0
 10
41.151090543363694
 20
119.1888273963484
 30
0.0
 11
35.637507316459512
 21
119.1888273963484
 31
0.0
  0
LINE
  5
459
  8
0
 10
34.394298929911663
 20
118.607030626624
 30
0.0
 11
34.394298929911599
 21
117.1029208449515
 31
0.0
  0
LINE
  5
45A
  8
0
 10
42.394298929911542
 20
118.6070306266239
 30
0.0
 11
42.394298929911542
 21
117.1029208449515
 31
0.0
  0
ARC
  5
45B
  8
0
 10
80.177104357108576
 20
164.94397312882941
 30
0.0
 40
8.3687692516683168
 50
325.13222729606071
 51
34.86777270394289
  0
LINE
  5
469
  8
0
 10
33.394298929911663
 20
95.488827396351667
 30
0.0
 11
43.394298929911599
 21
95.488827396351667
 31
0.0
  0
LINE
  5
46A
  8
0
 10
33.694298929914851
 20
95.188827396348415
 30
0.0
 11
43.094298929908341
 21
95.188827396348415
 31
0.0
  0
LINE
  5
46B
  8
0
 10
43.394298929911599
 20
99.188827396348415
 30
0.0
 11
43.394298929911599
 21
95.488827396351667
 31
0.0
  0
LINE
  5
46C
  8
0
 10
43.394298929911599
 20
95.488827396351667
 30
0.0
 11
43.094298929908341
 21
95.188827396348415
 31
0.0
  0
LINE
  5
46D
  8
0
 10
33.394298929911599
 20
95.488827396351667
 30
0.0
 11
33.694298929914851
 21
95.188827396348415
 31
0.0
  0
LINE
  5
46E
  8
0
 10
33.394298929911542
 20
99.188827396348358
 30
0.0
 11
33.394298929911599
 21
95.488827396351667
 31
0.0
  0
LINE
  5
46F
  8
0
 10
165.73974742614379
 20
99.188827396348358
 30
0.0
 11
165.73974742614379
 21
95.488827396351667
 31
0.0
  0
LINE
  5
470
  8
0
 10
165.73974742614379
 20
95.488827396351667
 30
0.0
 11
165.4397474261406
 21
95.188827396348415
 31
0.0
  0
LINE
  5
471
  8
0
 10
155.73974742614379
 20
95.488827396351667
 30
0.0
 11
156.0397474261471
 21
95.188827396348415
 31
0.0
  0
LINE
  5
472
  8
0
 10
155.73974742614379
 20
99.188827396348415
 30
0.0
 11
155.73974742614379
 21
95.488827396351667
 31
0.0
  0
LINE
  5
473
  8
0
 10
165.4397474261406
 20
95.188827396348415
 30
0.0
 11
156.0397474261471
 21
95.188827396348415
 31
0.0
  0
LINE
  5
474
  8
0
 10
165.73974742614371
 20
95.488827396351667
 30
0.0
 11
155.73974742614379
 21
95.488827396351667
 31
0.0
  0
LINE
  5
482
  8
0
 10
156.73974742614379
 20
118.6070306266239
 30
0.0
 11
156.73974742614379
 21
118.39480714077111
 31
0.0
  0
LINE
  5
483
  8
0
 10
164.73974742614371
 20
118.607030626624
 30
0.0
 11
164.73974742614371
 21
118.3948071409872
 31
0.0
  0
ARC
  5
484
  8
0
 10
160.73974742614379
 20
111.6788273963484
 30
0.0
 40
8.0
 50
116.49764134031579
 51
120.0000000000005
  0
LINE
  5
485
  8
0
 10
164.73974742614371
 20
118.607030626624
 30
0.0
 11
164.3560309665738
 21
118.6070306266239
 31
0.0
  0
ARC
  5
486
  8
0
 10
160.73974742614379
 20
111.6788273963484
 30
0.0
 40
8.0
 50
59.99999999999946
 51
63.458958911078348
  0
LINE
  5
487
  8
1
 10
168.48974742614379
 20
122.9388273963484
 30
0.0
 11
152.98974742614379
 21
122.9388273963484
 31
0.0
  0
LINE
  5
488
  8
1
 10
160.73974742614379
 20
130.68882739634839
 30
0.0
 11
160.73974742614379
 21
67.688827396348358
 31
0.0
  0
LINE
  5
489
  8
0
 10
167.05474742614379
 20
99.388827396348404
 30
0.0
 11
154.4247474261438
 21
99.388827396348475
 31
0.0
  0
LINE
  5
48A
  8
0
 10
166.8547474261438
 20
99.188827396348415
 30
0.0
 11
154.62474742614381
 21
99.188827396348415
 31
0.0
  0
LINE
  5
48B
  8
0
 10
166.8547474261438
 20
99.188827396348415
 30
0.0
 11
167.05474742614379
 21
99.388827396348404
 31
0.0
  0
LINE
  5
48C
  8
0
 10
154.62474742614381
 20
99.188827396348415
 30
0.0
 11
154.4247474261438
 21
99.388827396348404
 31
0.0
  0
POLYLINE
  5
48D
  8
0
 10
156.11104592425693
 20
113.03549472873306
 30
0.0
 66
     1
 70
     8
  0
VERTEX
  8
0
  5
A68
 10
156.111
 20
113.035
 30
0.000000
  70
    32
  0
VERTEX
  8
0
  5
A69
 10
156.090
 20
112.973
 30
0.000000
  70
    32
  0
VERTEX
  8
0
  5
A6A
 10
156.072
 20
112.910
 30
0.000000
  70
    32
  0
VERTEX
  8
0
  5
A6B
 10
156.057
 20
112.846
 30
0.000000
  70
    32
  0
VERTEX
  8
0
  5
A6C
 10
156.047
 20
112.783
 30
0.000000
  70
    32
  0
VERTEX
  8
0
  5
A6D
 10
156.039
 20
112.719
 30
0.000000
  70
    32
  0
VERTEX
  8
0
  5
A6E
 10
156.035
 20
112.655
 30
0.000000
  70
    32
  0
VERTEX
  8
0
  5
A6F
 10
156.035
 20
112.592
 30
0.000000
  70
    32
  0
VERTEX
  8
0
  5
A70
 10
156.038
 20
112.528
 30
0.000000
  70
    32
  0
VERTEX
  8
0
  5
A71
 10
156.045
 20
112.464
 30
0.000000
  70
    32
  0
VERTEX
  8
0
  5
A72
 10
156.055
 20
112.401
 30
0.000000
  70
    32
  0
VERTEX
  8
0
  5
A73
 10
156.069
 20
112.337
 30
0.000000
  70
    32
  0
VERTEX
  8
0
  5
A74
 10
156.086
 20
112.274
 30
0.000000
  70
    32
  0
VERTEX
  8
0
  5
A75
 10
156.107
 20
112.211
 30
0.000000
  70
    32
  0
VERTEX
  8
0
  5
A76
 10
156.131
 20
112.149
 30
0.000000
  70
    32
  0
VERTEX
  8
0
  5
A77
 10
156.159
 20
112.086
 30
0.000000
  70
    32
  0
VERTEX
  8
0
  5
A78
 10
156.190
 20
112.025
 30
0.000000
  70
    32
  0
VERTEX
  8
0
  5
A79
 10
156.224
 20
111.963
 30
0.000000
  70
    32
  0
VERTEX
  8
0
  5
A7A
 10
156.262
 20
111.902
 30
0.000000
  70
    32
  0
VERTEX
  8
0
  5
A7B
 10
156.303
 20
111.842
 30
0.000000
  70
    32
  0
VERTEX
  8
0
  5
A7C
 10
156.348
 20
111.782
 30
0.000000
  70
    32
  0
VERTEX
  8
0
  5
A7D
 10
156.395
 20
111.723
 30
0.000000
  70
    32
  0
VERTEX
  8
0
  5
A7E
 10
156.447
 20
111.664
 30
0.000000
  70
    32
  0
VERTEX
  8
0
  5
A7F
 10
156.501
 20
111.606
 30
0.000000
  70
    32
  0
VERTEX
  8
0
  5
A80
 10
156.558
 20
111.549
 30
0.000000
  70
    32
  0
VERTEX
  8
0
  5
A81
 10
156.619
 20
111.493
 30
0.000000
  70
    32
  0
VERTEX
  8
0
  5
A82
 10
156.682
 20
111.438
 30
0.000000
  70
    32
  0
VERTEX
  8
0
  5
A83
 10
156.749
 20
111.383
 30
0.000000
  70
    32
  0
VERTEX
  8
0
  5
A84
 10
156.819
 20
111.330
 30
0.000000
  70
    32
  0
VERTEX
  8
0
  5
A85
 10
156.891
 20
111.277
 30
0.000000
  70
    32
  0
VERTEX
  8
0
  5
A86
 10
156.967
 20
111.225
 30
0.000000
  70
    32
  0
VERTEX
  8
0
  5
A87
 10
157.045
 20
111.175
 30
0.000000
  70
    32
  0
VERTEX
  8
0
  5
A88
 10
157.126
 20
111.125
 30
0.000000
  70
    32
  0
VERTEX
  8
0
  5
A89
 10
157.210
 20
111.077
 30
0.000000
  70
    32
  0
VERTEX
  8
0
  5
A8A
 10
157.296
 20
111.030
 30
0.000000
  70
    32
  0
VERTEX
  8
0
  5
A8B
 10
157.385
 20
110.984
 30
0.000000
  70
    32
  0
VERTEX
  8
0
  5
A8C
 10
157.477
 20
110.939
 30
0.000000
  70
    32
  0
VERTEX
  8
0
  5
A8D
 10
157.571
 20
110.895
 30
0.000000
  70
    32
  0
VERTEX
  8
0
  5
A8E
 10
157.667
 20
110.853
 30
0.000000
  70
    32
  0
VERTEX
  8
0
  5
A8F
 10
157.766
 20
110.812
 30
0.000000
  70
    32
  0
VERTEX
  8
0
  5
A90
 10
157.867
 20
110.772
 30
0.000000
  70
    32
  0
VERTEX
  8
0
  5
A91
 10
157.969
 20
110.734
 30
0.000000
  70
    32
  0
VERTEX
  8
0
  5
A92
 10
158.075
 20
110.697
 30
0.000000
  70
    32
  0
VERTEX
  8
0
  5
A93
 10
158.182
 20
110.662
 30
0.000000
  70
    32
  0
VERTEX
  8
0
  5
A94
 10
158.291
 20
110.628
 30
0.000000
  70
    32
  0
VERTEX
  8
0
  5
A95
 10
158.401
 20
110.596
 30
0.000000
  70
    32
  0
VERTEX
  8
0
  5
A96
 10
158.514
 20
110.565
 30
0.000000
  70
    32
  0
VERTEX
  8
0
  5
A97
 10
158.628
 20
110.535
 30
0.000000
  70
    32
  0
VERTEX
  8
0
  5
A98
 10
158.744
 20
110.508
 30
0.000000
  70
    32
  0
VERTEX
  8
0
  5
A99
 10
158.861
 20
110.481
 30
0.000000
  70
    32
  0
VERTEX
  8
0
  5
A9A
 10
158.980
 20
110.457
 30
0.000000
  70
    32
  0
VERTEX
  8
0
  5
A9B
 10
159.100
 20
110.434
 30
0.000000
  70
    32
  0
VERTEX
  8
0
  5
A9C
 10
159.221
 20
110.412
 30
0.000000
  70
    32
  0
VERTEX
  8
0
  5
A9D
 10
159.343
 20
110.392
 30
0.000000
  70
    32
  0
VERTEX
  8
0
  5
A9E
 10
159.467
 20
110.374
 30
0.000000
  70
    32
  0
VERTEX
  8
0
  5
A9F
 10
159.591
 20
110.358
 30
0.000000
  70
    32
  0
VERTEX
  8
0
  5
AA0
 10
159.717
 20
110.343
 30
0.000000
  70
    32
  0
VERTEX
  8
0
  5
AA1
 10
159.842
 20
110.330
 30
0.000000
  70
    32
  0
VERTEX
  8
0
  5
AA2
 10
159.969
 20
110.319
 30
0.000000
  70
    32
  0
VERTEX
  8
0
  5
AA3
 10
160.096
 20
110.309
 30
0.000000
  70
    32
  0
VERTEX
  8
0
  5
AA4
 10
160.224
 20
110.302
 30
0.000000
  70
    32
  0
VERTEX
  8
0
  5
AA5
 10
160.352
 20
110.295
 30
0.000000
  70
    32
  0
VERTEX
  8
0
  5
AA6
 10
160.481
 20
110.291
 30
0.000000
  70
    32
  0
VERTEX
  8
0
  5
AA7
 10
160.609
 20
110.288
 30
0.000000
  70
    32
  0
VERTEX
  8
0
  5
AA8
 10
160.738
 20
110.287
 30
0.000000
  70
    32
  0
VERTEX
  8
0
  5
AA9
 10
160.867
 20
110.288
 30
0.000000
  70
    32
  0
VERTEX
  8
0
  5
AAA
 10
160.995
 20
110.291
 30
0.000000
  70
    32
  0
VERTEX
  8
0
  5
AAB
 10
161.124
 20
110.295
 30
0.000000
  70
    32
  0
VERTEX
  8
0
  5
AAC
 10
161.252
 20
110.301
 30
0.000000
  70
    32
  0
VERTEX
  8
0
  5
AAD
 10
161.379
 20
110.309
 30
0.000000
  70
    32
  0
VERTEX
  8
0
  5
AAE
 10
161.507
 20
110.319
 30
0.000000
  70
    32
  0
VERTEX
  8
0
  5
AAF
 10
161.633
 20
110.330
 30
0.000000
  70
    32
  0
VERTEX
  8
0
  5
AB0
 10
161.759
 20
110.343
 30
0.000000
  70
    32
  0
VERTEX
  8
0
  5
AB1
 10
161.885
 20
110.358
 30
0.000000
  70
    32
  0
VERTEX
  8
0
  5
AB2
 10
162.009
 20
110.374
 30
0.000000
  70
    32
  0
VERTEX
  8
0
  5
AB3
 10
162.133
 20
110.392
 30
0.000000
  70
    32
  0
VERTEX
  8
0
  5
AB4
 10
162.255
 20
110.412
 30
0.000000
  70
    32
  0
VERTEX
  8
0
  5
AB5
 10
162.376
 20
110.433
 30
0.000000
  70
    32
  0
VERTEX
  8
0
  5
AB6
 10
162.496
 20
110.456
 30
0.000000
  70
    32
  0
VERTEX
  8
0
  5
AB7
 10
162.615
 20
110.481
 30
0.000000
  70
    32
  0
VERTEX
  8
0
  5
AB8
 10
162.732
 20
110.507
 30
0.000000
  70
    32
  0
VERTEX
  8
0
  5
AB9
 10
162.848
 20
110.535
 30
0.000000
  70
    32
  0
VERTEX
  8
0
  5
ABA
 10
162.962
 20
110.564
 30
0.000000
  70
    32
  0
VERTEX
  8
0
  5
ABB
 10
163.075
 20
110.595
 30
0.000000
  70
    32
  0
VERTEX
  8
0
  5
ABC
 10
163.186
 20
110.627
 30
0.000000
  70
    32
  0
VERTEX
  8
0
  5
ABD
 10
163.295
 20
110.661
 30
0.000000
  70
    32
  0
VERTEX
  8
0
  5
ABE
 10
163.402
 20
110.696
 30
0.000000
  70
    32
  0
VERTEX
  8
0
  5
ABF
 10
163.507
 20
110.733
 30
0.000000
  70
    32
  0
VERTEX
  8
0
  5
AC0
 10
163.610
 20
110.771
 30
0.000000
  70
    32
  0
VERTEX
  8
0
  5
AC1
 10
163.711
 20
110.811
 30
0.000000
  70
    32
  0
VERTEX
  8
0
  5
AC2
 10
163.810
 20
110.852
 30
0.000000
  70
    32
  0
VERTEX
  8
0
  5
AC3
 10
163.906
 20
110.894
 30
0.000000
  70
    32
  0
VERTEX
  8
0
  5
AC4
 10
164.000
 20
110.938
 30
0.000000
  70
    32
  0
VERTEX
  8
0
  5
AC5
 10
164.092
 20
110.982
 30
0.000000
  70
    32
  0
VERTEX
  8
0
  5
AC6
 10
164.181
 20
111.028
 30
0.000000
  70
    32
  0
VERTEX
  8
0
  5
AC7
 10
164.267
 20
111.076
 30
0.000000
  70
    32
  0
VERTEX
  8
0
  5
AC8
 10
164.351
 20
111.124
 30
0.000000
  70
    32
  0
VERTEX
  8
0
  5
AC9
 10
164.432
 20
111.173
 30
0.000000
  70
    32
  0
VERTEX
  8
0
  5
ACA
 10
164.511
 20
111.224
 30
0.000000
  70
    32
  0
VERTEX
  8
0
  5
ACB
 10
164.586
 20
111.276
 30
0.000000
  70
    32
  0
VERTEX
  8
0
  5
ACC
 10
164.659
 20
111.328
 30
0.000000
  70
    32
  0
VERTEX
  8
0
  5
ACD
 10
164.728
 20
111.382
 30
0.000000
  70
    32
  0
VERTEX
  8
0
  5
ACE
 10
164.795
 20
111.436
 30
0.000000
  70
    32
  0
VERTEX
  8
0
  5
ACF
 10
164.859
 20
111.492
 30
0.000000
  70
    32
  0
VERTEX
  8
0
  5
AD0
 10
164.920
 20
111.548
 30
0.000000
  70
    32
  0
VERTEX
  8
0
  5
AD1
 10
164.977
 20
111.605
 30
0.000000
  70
    32
  0
VERTEX
  8
0
  5
AD2
 10
165.031
 20
111.663
 30
0.000000
  70
    32
  0
VERTEX
  8
0
  5
AD3
 10
165.083
 20
111.721
 30
0.000000
  70
    32
  0
VERTEX
  8
0
  5
AD4
 10
165.131
 20
111.780
 30
0.000000
  70
    32
  0
VERTEX
  8
0
  5
AD5
 10
165.175
 20
111.840
 30
0.000000
  70
    32
  0
VERTEX
  8
0
  5
AD6
 10
165.216
 20
111.900
 30
0.000000
  70
    32
  0
VERTEX
  8
0
  5
AD7
 10
165.254
 20
111.961
 30
0.000000
  70
    32
  0
VERTEX
  8
0
  5
AD8
 10
165.289
 20
112.023
 30
0.000000
  70
    32
  0
VERTEX
  8
0
  5
AD9
 10
165.320
 20
112.085
 30
0.000000
  70
    32
  0
VERTEX
  8
0
  5
ADA
 10
165.348
 20
112.147
 30
0.000000
  70
    32
  0
VERTEX
  8
0
  5
ADB
 10
165.372
 20
112.209
 30
0.000000
  70
    32
  0
VERTEX
  8
0
  5
ADC
 10
165.393
 20
112.272
 30
0.000000
  70
    32
  0
VERTEX
  8
0
  5
ADD
 10
165.410
 20
112.336
 30
0.000000
  70
    32
  0
VERTEX
  8
0
  5
ADE
 10
165.424
 20
112.399
 30
0.000000
  70
    32
  0
VERTEX
  8
0
  5
ADF
 10
165.434
 20
112.462
 30
0.000000
  70
    32
  0
VERTEX
  8
0
  5
AE0
 10
165.441
 20
112.526
 30
0.000000
  70
    32
  0
VERTEX
  8
0
  5
AE1
 10
165.444
 20
112.590
 30
0.000000
  70
    32
  0
VERTEX
  8
0
  5
AE2
 10
165.444
 20
112.654
 30
0.000000
  70
    32
  0
VERTEX
  8
0
  5
AE3
 10
165.440
 20
112.717
 30
0.000000
  70
    32
  0
VERTEX
  8
0
  5
AE4
 10
165.433
 20
112.781
 30
0.000000
  70
    32
  0
VERTEX
  8
0
  5
AE5
 10
165.422
 20
112.844
 30
0.000000
  70
    32
  0
VERTEX
  8
0
  5
AE6
 10
165.408
 20
112.908
 30
0.000000
  70
    32
  0
VERTEX
  8
0
  5
AE7
 10
165.390
 20
112.971
 30
0.000000
  70
    32
  0
VERTEX
  8
0
  5
AE8
 10
165.369
 20
113.034
 30
0.000000
  70
    32
  0
SEQEND
  8
0
  5
AE9
  0
LINE
  5
48E
  8
0
 10
157.20960666242121
 20
119.0528775525773
 30
0.0
 11
156.03474742614381
 21
112.6175685676376
 31
0.0
  0
LINE
  5
48F
  8
0
 10
164.27426493791199
 20
119.05685805605169
 30
0.0
 11
165.44474742614381
 21
112.6175685676376
 31
0.0
  0
LINE
  5
490
  8
0
 10
35.486743389185051
 20
122.75602510498631
 30
0.0
 11
34.834517484721182
 21
118.8431805466669
 31
0.0
  0
LINE
  5
491
  8
0
 10
41.288916296314483
 20
122.7839664376333
 30
0.0
 11
41.962373984495912
 21
118.8390536780278
 31
0.0
  0
LINE
  5
492
  8
0
 10
157.12821082266461
 20
118.6070306266238
 30
0.0
 11
156.73974742614379
 21
118.6070306266239
 31
0.0
  0
LINE
  5
493
  8
0
 10
88.542877610359966
 20
30.54130185335811
 30
0.0
 11
113.62315589811109
 21
32.072807051264647
 31
0.0
  0
LINE
  5
494
  8
0
 10
88.542877610360136
 20
39.920633089167382
 30
0.0
 11
113.6231558981108
 21
38.389127891261012
 31
0.0
  0
LINE
  5
495
  8
1
 10
83.067023178027796
 20
25.730967471262769
 30
0.0
 11
83.067023178027796
 21
44.730967471262943
 31
0.0
  0
LINE
  5
496
  8
1
 10
117.8170231780278
 20
27.480967471262939
 30
0.0
 11
117.8170231780278
 21
42.98096747126317
 31
0.0
  0
LINE
  5
497
  8
1
 10
73.567023178027625
 20
35.230967471262829
 30
0.0
 11
125.5670231780278
 21
35.230967471262829
 31
0.0
  0
CIRCLE
  5
498
  8
0
 10
83.067023178027796
 20
35.230967471262829
 30
0.0
 40
4.6999999999967619
  0
CIRCLE
  5
499
  8
0
 10
83.067023178027796
 20
35.230967471262829
 30
0.0
 40
5.0000000000000142
  0
CIRCLE
  5
49A
  8
0
 10
83.067023178027796
 20
35.230967471262829
 30
0.0
 40
6.114999999999994
  0
CIRCLE
  5
49B
  8
0
 10
83.067023178027796
 20
35.230967471262829
 30
0.0
 40
6.3150000000000537
  0
LINE
  5
49E
  8
0
 10
165.44474742614381
 20
112.6175685676376
 30
0.0
 11
165.44474742614381
 21
110.28747030003289
 31
0.0
  0
LINE
  5
49F
  8
0
 10
156.03474742614381
 20
112.6175685676376
 30
0.0
 11
156.03474742614381
 21
110.28747030003289
 31
0.0
  0
CIRCLE
  5
4A0
  8
0
 10
83.067023178027796
 20
35.230967471262829
 30
0.0
 40
6.5
  0
ARC
  5
4A1
  8
0
 10
117.8170231780278
 20
164.94397312882961
 30
0.0
 40
5.25
 50
216.5296072297381
 51
143.4703927702688
  0
ARC
  5
4A2
  8
0
 10
117.8170231780278
 20
122.9388273963484
 30
0.0
 40
5.25
 50
229.18816710386841
 51
163.8161874100102
  0
CIRCLE
  5
4A3
  8
0
 10
160.73974742614379
 20
122.9388273963484
 30
0.0
 40
5.25
  0
ARC
  5
4A4
  8
0
 10
38.394298929911599
 20
122.9388273963484
 30
0.0
 40
5.25
 50
312.27144163832031
 51
227.81484309981681
  0
ARC
  5
4A6
  8
0
 10
83.067023178027796
 20
164.94397312882941
 30
0.0
 40
7.0
 50
44.574934021774617
 51
315.42506597822882
  0
ARC
  5
4A7
  8
0
 10
88.587605156125505
 20
170.38324464467621
 30
0.0
 40
0.75
 50
224.5749340217746
 51
266.4244989917849
  0
ARC
  5
4A8
  8
0
 10
88.58760515612569
 20
159.5047016129827
 30
0.0
 40
0.75
 50
93.575501008213422
 51
135.42506597822879
  0
CIRCLE
  5
4A9
  8
0
 10
83.067023178027796
 20
35.230967471262829
 30
0.0
 40
7.0
  0
ARC
  5
4AA
  8
0
 10
88.588590554070393
 20
40.669238677429568
 30
0.0
 40
0.75
 50
224.5645531582521
 51
266.50562247270852
  0
ARC
  5
4AB
  8
0
 10
88.588590554070194
 20
29.792696265095909
 30
0.0
 40
0.75
 50
93.494377527289913
 51
135.4354468417479
  0
ARC
  5
4AC
  8
0
 10
90.067023178027924
 20
109.9874703000329
 30
0.0
 40
0.3
 50
90.0
 51
180.0
  0
LINE
  5
4AD
  8
0
 10
89.767023178027912
 20
109.9874703000329
 30
0.0
 11
89.382023178027922
 21
99.388827396348404
 31
0.0
  0
ARC
  5
4AE
  8
0
 10
167.7047474261438
 20
109.9874703000329
 30
0.0
 40
0.3
 50
90.0
 51
180.0
  0
ARC
  5
4AF
  8
0
 10
153.77474742614379
 20
109.9874703000329
 30
0.0
 40
0.3
 50
0.0
 51
90.0
  0
LINE
  5
4B0
  8
0
 10
154.0747474261438
 20
109.9874703000329
 30
0.0
 11
167.40474742614381
 21
109.9874703000329
 31
0.0
  0
LINE
  5
4B1
  8
0
 10
153.77474742614379
 20
110.28747030003289
 30
0.0
 11
167.7047474261438
 21
110.28747030003289
 31
0.0
  0
LINE
  5
4B2
  8
0
 10
167.7047474261438
 20
110.28747030003289
 30
0.0
 11
167.7047474261438
 21
110.6088273963484
 31
0.0
  0
LINE
  5
4B3
  8
0
 10
153.77474742614379
 20
110.28747030003289
 30
0.0
 11
153.77474742614379
 21
110.6088273963484
 31
0.0
  0
LINE
  5
4B4
  8
0
 10
167.40474742614381
 20
109.9874703000329
 30
0.0
 11
167.05474742614379
 21
99.388827396348404
 31
0.0
  0
LINE
  5
4B5
  8
0
 10
154.0747474261438
 20
109.9874703000329
 30
0.0
 11
154.4247474261438
 21
99.388827396348404
 31
0.0
  0
ARC
  5
4B6
  8
0
 10
170.95407884655489
 20
110.00755545616011
 30
0.0
 40
17.411070463754861
 50
154.63114496590421
 51
171.37855684221199
  0
POLYLINE
  5
4B7
  8
0
 10
157.10509438798175
 20
118.48041001096165
 30
0.0
 66
     1
 70
     8
  0
VERTEX
  8
0
  5
AEA
 10
157.105
 20
118.480
 30
0.000000
  70
    32
  0
VERTEX
  8
0
  5
AEB
 10
157.078
 20
118.474
 30
0.000000
  70
    32
  0
VERTEX
  8
0
  5
AEC
 10
157.050
 20
118.469
 30
0.000000
  70
    32
  0
VERTEX
  8
0
  5
AED
 10
157.023
 20
118.463
 30
0.000000
  70
    32
  0
VERTEX
  8
0
  5
AEE
 10
156.996
 20
118.456
 30
0.000000
  70
    32
  0
VERTEX
  8
0
  5
AEF
 10
156.969
 20
118.450
 30
0.000000
  70
    32
  0
VERTEX
  8
0
  5
AF0
 10
156.942
 20
118.444
 30
0.000000
  70
    32
  0
VERTEX
  8
0
  5
AF1
 10
156.916
 20
118.438
 30
0.000000
  70
    32
  0
VERTEX
  8
0
  5
AF2
 10
156.889
 20
118.432
 30
0.000000
  70
    32
  0
VERTEX
  8
0
  5
AF3
 10
156.863
 20
118.426
 30
0.000000
  70
    32
  0
VERTEX
  8
0
  5
AF4
 10
156.837
 20
118.419
 30
0.000000
  70
    32
  0
VERTEX
  8
0
  5
AF5
 10
156.811
 20
118.413
 30
0.000000
  70
    32
  0
VERTEX
  8
0
  5
AF6
 10
156.786
 20
118.406
 30
0.000000
  70
    32
  0
VERTEX
  8
0
  5
AF7
 10
156.760
 20
118.400
 30
0.000000
  70
    32
  0
VERTEX
  8
0
  5
AF8
 10
156.735
 20
118.394
 30
0.000000
  70
    32
  0
VERTEX
  8
0
  5
AF9
 10
156.710
 20
118.387
 30
0.000000
  70
    32
  0
VERTEX
  8
0
  5
AFA
 10
156.685
 20
118.380
 30
0.000000
  70
    32
  0
VERTEX
  8
0
  5
AFB
 10
156.660
 20
118.374
 30
0.000000
  70
    32
  0
VERTEX
  8
0
  5
AFC
 10
156.635
 20
118.367
 30
0.000000
  70
    32
  0
VERTEX
  8
0
  5
AFD
 10
156.611
 20
118.360
 30
0.000000
  70
    32
  0
VERTEX
  8
0
  5
AFE
 10
156.586
 20
118.354
 30
0.000000
  70
    32
  0
VERTEX
  8
0
  5
AFF
 10
156.562
 20
118.347
 30
0.000000
  70
    32
  0
VERTEX
  8
0
  5
B00
 10
156.538
 20
118.340
 30
0.000000
  70
    32
  0
VERTEX
  8
0
  5
B01
 10
156.515
 20
118.333
 30
0.000000
  70
    32
  0
VERTEX
  8
0
  5
B02
 10
156.491
 20
118.326
 30
0.000000
  70
    32
  0
VERTEX
  8
0
  5
B03
 10
156.468
 20
118.320
 30
0.000000
  70
    32
  0
VERTEX
  8
0
  5
B04
 10
156.445
 20
118.313
 30
0.000000
  70
    32
  0
VERTEX
  8
0
  5
B05
 10
156.422
 20
118.306
 30
0.000000
  70
    32
  0
VERTEX
  8
0
  5
B06
 10
156.399
 20
118.299
 30
0.000000
  70
    32
  0
VERTEX
  8
0
  5
B07
 10
156.376
 20
118.292
 30
0.000000
  70
    32
  0
VERTEX
  8
0
  5
B08
 10
156.354
 20
118.284
 30
0.000000
  70
    32
  0
VERTEX
  8
0
  5
B09
 10
156.332
 20
118.277
 30
0.000000
  70
    32
  0
VERTEX
  8
0
  5
B0A
 10
156.310
 20
118.270
 30
0.000000
  70
    32
  0
VERTEX
  8
0
  5
B0B
 10
156.288
 20
118.263
 30
0.000000
  70
    32
  0
VERTEX
  8
0
  5
B0C
 10
156.267
 20
118.256
 30
0.000000
  70
    32
  0
VERTEX
  8
0
  5
B0D
 10
156.245
 20
118.248
 30
0.000000
  70
    32
  0
VERTEX
  8
0
  5
B0E
 10
156.224
 20
118.241
 30
0.000000
  70
    32
  0
VERTEX
  8
0
  5
B0F
 10
156.203
 20
118.234
 30
0.000000
  70
    32
  0
VERTEX
  8
0
  5
B10
 10
156.182
 20
118.226
 30
0.000000
  70
    32
  0
VERTEX
  8
0
  5
B11
 10
156.162
 20
118.219
 30
0.000000
  70
    32
  0
VERTEX
  8
0
  5
B12
 10
156.141
 20
118.211
 30
0.000000
  70
    32
  0
VERTEX
  8
0
  5
B13
 10
156.121
 20
118.204
 30
0.000000
  70
    32
  0
VERTEX
  8
0
  5
B14
 10
156.101
 20
118.196
 30
0.000000
  70
    32
  0
VERTEX
  8
0
  5
B15
 10
156.081
 20
118.189
 30
0.000000
  70
    32
  0
VERTEX
  8
0
  5
B16
 10
156.062
 20
118.181
 30
0.000000
  70
    32
  0
VERTEX
  8
0
  5
B17
 10
156.042
 20
118.174
 30
0.000000
  70
    32
  0
VERTEX
  8
0
  5
B18
 10
156.023
 20
118.166
 30
0.000000
  70
    32
  0
VERTEX
  8
0
  5
B19
 10
156.004
 20
118.158
 30
0.000000
  70
    32
  0
VERTEX
  8
0
  5
B1A
 10
155.985
 20
118.151
 30
0.000000
  70
    32
  0
VERTEX
  8
0
  5
B1B
 10
155.967
 20
118.143
 30
0.000000
  70
    32
  0
VERTEX
  8
0
  5
B1C
 10
155.949
 20
118.135
 30
0.000000
  70
    32
  0
VERTEX
  8
0
  5
B1D
 10
155.930
 20
118.127
 30
0.000000
  70
    32
  0
VERTEX
  8
0
  5
B1E
 10
155.913
 20
118.120
 30
0.000000
  70
    32
  0
VERTEX
  8
0
  5
B1F
 10
155.895
 20
118.112
 30
0.000000
  70
    32
  0
VERTEX
  8
0
  5
B20
 10
155.877
 20
118.104
 30
0.000000
  70
    32
  0
VERTEX
  8
0
  5
B21
 10
155.860
 20
118.096
 30
0.000000
  70
    32
  0
VERTEX
  8
0
  5
B22
 10
155.843
 20
118.088
 30
0.000000
  70
    32
  0
VERTEX
  8
0
  5
B23
 10
155.826
 20
118.080
 30
0.000000
  70
    32
  0
VERTEX
  8
0
  5
B24
 10
155.810
 20
118.072
 30
0.000000
  70
    32
  0
VERTEX
  8
0
  5
B25
 10
155.793
 20
118.064
 30
0.000000
  70
    32
  0
VERTEX
  8
0
  5
B26
 10
155.777
 20
118.056
 30
0.000000
  70
    32
  0
VERTEX
  8
0
  5
B27
 10
155.761
 20
118.048
 30
0.000000
  70
    32
  0
VERTEX
  8
0
  5
B28
 10
155.746
 20
118.040
 30
0.000000
  70
    32
  0
VERTEX
  8
0
  5
B29
 10
155.730
 20
118.032
 30
0.000000
  70
    32
  0
VERTEX
  8
0
  5
B2A
 10
155.715
 20
118.023
 30
0.000000
  70
    32
  0
VERTEX
  8
0
  5
B2B
 10
155.700
 20
118.015
 30
0.000000
  70
    32
  0
VERTEX
  8
0
  5
B2C
 10
155.685
 20
118.007
 30
0.000000
  70
    32
  0
VERTEX
  8
0
  5
B2D
 10
155.670
 20
117.999
 30
0.000000
  70
    32
  0
VERTEX
  8
0
  5
B2E
 10
155.656
 20
117.991
 30
0.000000
  70
    32
  0
VERTEX
  8
0
  5
B2F
 10
155.642
 20
117.982
 30
0.000000
  70
    32
  0
VERTEX
  8
0
  5
B30
 10
155.628
 20
117.974
 30
0.000000
  70
    32
  0
VERTEX
  8
0
  5
B31
 10
155.614
 20
117.966
 30
0.000000
  70
    32
  0
VERTEX
  8
0
  5
B32
 10
155.601
 20
117.957
 30
0.000000
  70
    32
  0
VERTEX
  8
0
  5
B33
 10
155.587
 20
117.949
 30
0.000000
  70
    32
  0
VERTEX
  8
0
  5
B34
 10
155.574
 20
117.941
 30
0.000000
  70
    32
  0
VERTEX
  8
0
  5
B35
 10
155.562
 20
117.932
 30
0.000000
  70
    32
  0
VERTEX
  8
0
  5
B36
 10
155.549
 20
117.924
 30
0.000000
  70
    32
  0
VERTEX
  8
0
  5
B37
 10
155.537
 20
117.915
 30
0.000000
  70
    32
  0
VERTEX
  8
0
  5
B38
 10
155.525
 20
117.907
 30
0.000000
  70
    32
  0
VERTEX
  8
0
  5
B39
 10
155.513
 20
117.899
 30
0.000000
  70
    32
  0
VERTEX
  8
0
  5
B3A
 10
155.501
 20
117.890
 30
0.000000
  70
    32
  0
VERTEX
  8
0
  5
B3B
 10
155.490
 20
117.882
 30
0.000000
  70
    32
  0
VERTEX
  8
0
  5
B3C
 10
155.478
 20
117.873
 30
0.000000
  70
    32
  0
VERTEX
  8
0
  5
B3D
 10
155.467
 20
117.864
 30
0.000000
  70
    32
  0
VERTEX
  8
0
  5
B3E
 10
155.457
 20
117.856
 30
0.000000
  70
    32
  0
VERTEX
  8
0
  5
B3F
 10
155.446
 20
117.847
 30
0.000000
  70
    32
  0
VERTEX
  8
0
  5
B40
 10
155.436
 20
117.839
 30
0.000000
  70
    32
  0
VERTEX
  8
0
  5
B41
 10
155.426
 20
117.830
 30
0.000000
  70
    32
  0
VERTEX
  8
0
  5
B42
 10
155.416
 20
117.821
 30
0.000000
  70
    32
  0
VERTEX
  8
0
  5
B43
 10
155.407
 20
117.813
 30
0.000000
  70
    32
  0
VERTEX
  8
0
  5
B44
 10
155.397
 20
117.804
 30
0.000000
  70
    32
  0
VERTEX
  8
0
  5
B45
 10
155.388
 20
117.795
 30
0.000000
  70
    32
  0
VERTEX
  8
0
  5
B46
 10
155.380
 20
117.787
 30
0.000000
  70
    32
  0
VERTEX
  8
0
  5
B47
 10
155.371
 20
117.778
 30
0.000000
  70
    32
  0
VERTEX
  8
0
  5
B48
 10
155.363
 20
117.769
 30
0.000000
  70
    32
  0
VERTEX
  8
0
  5
B49
 10
155.354
 20
117.761
 30
0.000000
  70
    32
  0
VERTEX
  8
0
  5
B4A
 10
155.347
 20
117.752
 30
0.000000
  70
    32
  0
VERTEX
  8
0
  5
B4B
 10
155.339
 20
117.743
 30
0.000000
  70
    32
  0
VERTEX
  8
0
  5
B4C
 10
155.332
 20
117.734
 30
0.000000
  70
    32
  0
VERTEX
  8
0
  5
B4D
 10
155.324
 20
117.725
 30
0.000000
  70
    32
  0
VERTEX
  8
0
  5
B4E
 10
155.317
 20
117.717
 30
0.000000
  70
    32
  0
VERTEX
  8
0
  5
B4F
 10
155.311
 20
117.708
 30
0.000000
  70
    32
  0
VERTEX
  8
0
  5
B50
 10
155.304
 20
117.699
 30
0.000000
  70
    32
  0
VERTEX
  8
0
  5
B51
 10
155.298
 20
117.690
 30
0.000000
  70
    32
  0
VERTEX
  8
0
  5
B52
 10
155.292
 20
117.681
 30
0.000000
  70
    32
  0
VERTEX
  8
0
  5
B53
 10
155.286
 20
117.673
 30
0.000000
  70
    32
  0
VERTEX
  8
0
  5
B54
 10
155.281
 20
117.664
 30
0.000000
  70
    32
  0
VERTEX
  8
0
  5
B55
 10
155.276
 20
117.655
 30
0.000000
  70
    32
  0
VERTEX
  8
0
  5
B56
 10
155.271
 20
117.646
 30
0.000000
  70
    32
  0
VERTEX
  8
0
  5
B57
 10
155.266
 20
117.637
 30
0.000000
  70
    32
  0
VERTEX
  8
0
  5
B58
 10
155.262
 20
117.628
 30
0.000000
  70
    32
  0
VERTEX
  8
0
  5
B59
 10
155.257
 20
117.619
 30
0.000000
  70
    32
  0
VERTEX
  8
0
  5
B5A
 10
155.253
 20
117.610
 30
0.000000
  70
    32
  0
VERTEX
  8
0
  5
B5B
 10
155.249
 20
117.601
 30
0.000000
  70
    32
  0
VERTEX
  8
0
  5
B5C
 10
155.246
 20
117.592
 30
0.000000
  70
    32
  0
VERTEX
  8
0
  5
B5D
 10
155.243
 20
117.584
 30
0.000000
  70
    32
  0
VERTEX
  8
0
  5
B5E
 10
155.240
 20
117.575
 30
0.000000
  70
    32
  0
VERTEX
  8
0
  5
B5F
 10
155.237
 20
117.566
 30
0.000000
  70
    32
  0
VERTEX
  8
0
  5
B60
 10
155.234
 20
117.557
 30
0.000000
  70
    32
  0
VERTEX
  8
0
  5
B61
 10
155.232
 20
117.548
 30
0.000000
  70
    32
  0
VERTEX
  8
0
  5
B62
 10
155.230
 20
117.539
 30
0.000000
  70
    32
  0
VERTEX
  8
0
  5
B63
 10
155.228
 20
117.530
 30
0.000000
  70
    32
  0
VERTEX
  8
0
  5
B64
 10
155.226
 20
117.521
 30
0.000000
  70
    32
  0
VERTEX
  8
0
  5
B65
 10
155.225
 20
117.512
 30
0.000000
  70
    32
  0
VERTEX
  8
0
  5
B66
 10
155.224
 20
117.503
 30
0.000000
  70
    32
  0
VERTEX
  8
0
  5
B67
 10
155.223
 20
117.494
 30
0.000000
  70
    32
  0
VERTEX
  8
0
  5
B68
 10
155.222
 20
117.485
 30
0.000000
  70
    32
  0
VERTEX
  8
0
  5
B69
 10
155.222
 20
117.476
 30
0.000000
  70
    32
  0
VERTEX
  8
0
  5
B6A
 10
155.222
 20
117.467
 30
0.000000
  70
    32
  0
SEQEND
  8
0
  5
B6B
  0
LINE
  5
4B8
  8
0
 10
167.7047474261438
 20
110.6088273963484
 30
0.0
 11
167.73974742614379
 21
112.6175685676377
 31
0.0
  0
LINE
  5
4B9
  8
0
 10
153.77474742614379
 20
110.6088273963484
 30
0.0
 11
153.73974742614379
 21
112.6175685676377
 31
0.0
  0
ARC
  5
4BA
  8
0
 10
150.52541600573269
 20
110.00755545616011
 30
0.0
 40
17.411070463754879
 50
8.6214431577879918
 51
25.368855034095731
  0
POLYLINE
  5
4BB
  8
0
 10
166.25750770966965
 20
117.46722470571504
 30
0.0
 66
     1
 70
     8
  0
VERTEX
  8
0
  5
B6C
 10
166.258
 20
117.467
 30
0.000000
  70
    32
  0
VERTEX
  8
0
  5
B6D
 10
166.257
 20
117.476
 30
0.000000
  70
    32
  0
VERTEX
  8
0
  5
B6E
 10
166.257
 20
117.485
 30
0.000000
  70
    32
  0
VERTEX
  8
0
  5
B6F
 10
166.256
 20
117.494
 30
0.000000
  70
    32
  0
VERTEX
  8
0
  5
B70
 10
166.256
 20
117.503
 30
0.000000
  70
    32
  0
VERTEX
  8
0
  5
B71
 10
166.254
 20
117.512
 30
0.000000
  70
    32
  0
VERTEX
  8
0
  5
B72
 10
166.253
 20
117.521
 30
0.000000
  70
    32
  0
VERTEX
  8
0
  5
B73
 10
166.252
 20
117.530
 30
0.000000
  70
    32
  0
VERTEX
  8
0
  5
B74
 10
166.250
 20
117.539
 30
0.000000
  70
    32
  0
VERTEX
  8
0
  5
B75
 10
166.248
 20
117.548
 30
0.000000
  70
    32
  0
VERTEX
  8
0
  5
B76
 10
166.245
 20
117.557
 30
0.000000
  70
    32
  0
VERTEX
  8
0
  5
B77
 10
166.243
 20
117.566
 30
0.000000
  70
    32
  0
VERTEX
  8
0
  5
B78
 10
166.240
 20
117.574
 30
0.000000
  70
    32
  0
VERTEX
  8
0
  5
B79
 10
166.237
 20
117.583
 30
0.000000
  70
    32
  0
VERTEX
  8
0
  5
B7A
 10
166.234
 20
117.592
 30
0.000000
  70
    32
  0
VERTEX
  8
0
  5
B7B
 10
166.230
 20
117.601
 30
0.000000
  70
    32
  0
VERTEX
  8
0
  5
B7C
 10
166.226
 20
117.610
 30
0.000000
  70
    32
  0
VERTEX
  8
0
  5
B7D
 10
166.222
 20
117.619
 30
0.000000
  70
    32
  0
VERTEX
  8
0
  5
B7E
 10
166.218
 20
117.628
 30
0.000000
  70
    32
  0
VERTEX
  8
0
  5
B7F
 10
166.214
 20
117.637
 30
0.000000
  70
    32
  0
VERTEX
  8
0
  5
B80
 10
166.209
 20
117.646
 30
0.000000
  70
    32
  0
VERTEX
  8
0
  5
B81
 10
166.204
 20
117.655
 30
0.000000
  70
    32
  0
VERTEX
  8
0
  5
B82
 10
166.199
 20
117.663
 30
0.000000
  70
    32
  0
VERTEX
  8
0
  5
B83
 10
166.193
 20
117.672
 30
0.000000
  70
    32
  0
VERTEX
  8
0
  5
B84
 10
166.187
 20
117.681
 30
0.000000
  70
    32
  0
VERTEX
  8
0
  5
B85
 10
166.182
 20
117.690
 30
0.000000
  70
    32
  0
VERTEX
  8
0
  5
B86
 10
166.175
 20
117.699
 30
0.000000
  70
    32
  0
VERTEX
  8
0
  5
B87
 10
166.169
 20
117.708
 30
0.000000
  70
    32
  0
VERTEX
  8
0
  5
B88
 10
166.162
 20
117.716
 30
0.000000
  70
    32
  0
VERTEX
  8
0
  5
B89
 10
166.155
 20
117.725
 30
0.000000
  70
    32
  0
VERTEX
  8
0
  5
B8A
 10
166.148
 20
117.734
 30
0.000000
  70
    32
  0
VERTEX
  8
0
  5
B8B
 10
166.141
 20
117.743
 30
0.000000
  70
    32
  0
VERTEX
  8
0
  5
B8C
 10
166.133
 20
117.751
 30
0.000000
  70
    32
  0
VERTEX
  8
0
  5
B8D
 10
166.125
 20
117.760
 30
0.000000
  70
    32
  0
VERTEX
  8
0
  5
B8E
 10
166.117
 20
117.769
 30
0.000000
  70
    32
  0
VERTEX
  8
0
  5
B8F
 10
166.109
 20
117.778
 30
0.000000
  70
    32
  0
VERTEX
  8
0
  5
B90
 10
166.100
 20
117.786
 30
0.000000
  70
    32
  0
VERTEX
  8
0
  5
B91
 10
166.092
 20
117.795
 30
0.000000
  70
    32
  0
VERTEX
  8
0
  5
B92
 10
166.083
 20
117.804
 30
0.000000
  70
    32
  0
VERTEX
  8
0
  5
B93
 10
166.073
 20
117.812
 30
0.000000
  70
    32
  0
VERTEX
  8
0
  5
B94
 10
166.064
 20
117.821
 30
0.000000
  70
    32
  0
VERTEX
  8
0
  5
B95
 10
166.054
 20
117.830
 30
0.000000
  70
    32
  0
VERTEX
  8
0
  5
B96
 10
166.044
 20
117.838
 30
0.000000
  70
    32
  0
VERTEX
  8
0
  5
B97
 10
166.034
 20
117.847
 30
0.000000
  70
    32
  0
VERTEX
  8
0
  5
B98
 10
166.023
 20
117.855
 30
0.000000
  70
    32
  0
VERTEX
  8
0
  5
B99
 10
166.013
 20
117.864
 30
0.000000
  70
    32
  0
VERTEX
  8
0
  5
B9A
 10
166.002
 20
117.872
 30
0.000000
  70
    32
  0
VERTEX
  8
0
  5
B9B
 10
165.991
 20
117.881
 30
0.000000
  70
    32
  0
VERTEX
  8
0
  5
B9C
 10
165.979
 20
117.889
 30
0.000000
  70
    32
  0
VERTEX
  8
0
  5
B9D
 10
165.968
 20
117.898
 30
0.000000
  70
    32
  0
VERTEX
  8
0
  5
B9E
 10
165.956
 20
117.906
 30
0.000000
  70
    32
  0
VERTEX
  8
0
  5
B9F
 10
165.944
 20
117.915
 30
0.000000
  70
    32
  0
VERTEX
  8
0
  5
BA0
 10
165.931
 20
117.923
 30
0.000000
  70
    32
  0
VERTEX
  8
0
  5
BA1
 10
165.919
 20
117.932
 30
0.000000
  70
    32
  0
VERTEX
  8
0
  5
BA2
 10
165.906
 20
117.940
 30
0.000000
  70
    32
  0
VERTEX
  8
0
  5
BA3
 10
165.893
 20
117.948
 30
0.000000
  70
    32
  0
VERTEX
  8
0
  5
BA4
 10
165.880
 20
117.957
 30
0.000000
  70
    32
  0
VERTEX
  8
0
  5
BA5
 10
165.866
 20
117.965
 30
0.000000
  70
    32
  0
VERTEX
  8
0
  5
BA6
 10
165.853
 20
117.973
 30
0.000000
  70
    32
  0
VERTEX
  8
0
  5
BA7
 10
165.839
 20
117.982
 30
0.000000
  70
    32
  0
VERTEX
  8
0
  5
BA8
 10
165.825
 20
117.990
 30
0.000000
  70
    32
  0
VERTEX
  8
0
  5
BA9
 10
165.810
 20
117.998
 30
0.000000
  70
    32
  0
VERTEX
  8
0
  5
BAA
 10
165.796
 20
118.006
 30
0.000000
  70
    32
  0
VERTEX
  8
0
  5
BAB
 10
165.781
 20
118.015
 30
0.000000
  70
    32
  0
VERTEX
  8
0
  5
BAC
 10
165.766
 20
118.023
 30
0.000000
  70
    32
  0
VERTEX
  8
0
  5
BAD
 10
165.751
 20
118.031
 30
0.000000
  70
    32
  0
VERTEX
  8
0
  5
BAE
 10
165.735
 20
118.039
 30
0.000000
  70
    32
  0
VERTEX
  8
0
  5
BAF
 10
165.720
 20
118.047
 30
0.000000
  70
    32
  0
VERTEX
  8
0
  5
BB0
 10
165.704
 20
118.055
 30
0.000000
  70
    32
  0
VERTEX
  8
0
  5
BB1
 10
165.688
 20
118.063
 30
0.000000
  70
    32
  0
VERTEX
  8
0
  5
BB2
 10
165.671
 20
118.071
 30
0.000000
  70
    32
  0
VERTEX
  8
0
  5
BB3
 10
165.655
 20
118.079
 30
0.000000
  70
    32
  0
VERTEX
  8
0
  5
BB4
 10
165.638
 20
118.087
 30
0.000000
  70
    32
  0
VERTEX
  8
0
  5
BB5
 10
165.621
 20
118.095
 30
0.000000
  70
    32
  0
VERTEX
  8
0
  5
BB6
 10
165.604
 20
118.103
 30
0.000000
  70
    32
  0
VERTEX
  8
0
  5
BB7
 10
165.586
 20
118.111
 30
0.000000
  70
    32
  0
VERTEX
  8
0
  5
BB8
 10
165.569
 20
118.119
 30
0.000000
  70
    32
  0
VERTEX
  8
0
  5
BB9
 10
165.551
 20
118.127
 30
0.000000
  70
    32
  0
VERTEX
  8
0
  5
BBA
 10
165.533
 20
118.134
 30
0.000000
  70
    32
  0
VERTEX
  8
0
  5
BBB
 10
165.515
 20
118.142
 30
0.000000
  70
    32
  0
VERTEX
  8
0
  5
BBC
 10
165.496
 20
118.150
 30
0.000000
  70
    32
  0
VERTEX
  8
0
  5
BBD
 10
165.477
 20
118.158
 30
0.000000
  70
    32
  0
VERTEX
  8
0
  5
BBE
 10
165.459
 20
118.165
 30
0.000000
  70
    32
  0
VERTEX
  8
0
  5
BBF
 10
165.439
 20
118.173
 30
0.000000
  70
    32
  0
VERTEX
  8
0
  5
BC0
 10
165.420
 20
118.180
 30
0.000000
  70
    32
  0
VERTEX
  8
0
  5
BC1
 10
165.401
 20
118.188
 30
0.000000
  70
    32
  0
VERTEX
  8
0
  5
BC2
 10
165.381
 20
118.196
 30
0.000000
  70
    32
  0
VERTEX
  8
0
  5
BC3
 10
165.361
 20
118.203
 30
0.000000
  70
    32
  0
VERTEX
  8
0
  5
BC4
 10
165.341
 20
118.211
 30
0.000000
  70
    32
  0
VERTEX
  8
0
  5
BC5
 10
165.320
 20
118.218
 30
0.000000
  70
    32
  0
VERTEX
  8
0
  5
BC6
 10
165.300
 20
118.225
 30
0.000000
  70
    32
  0
VERTEX
  8
0
  5
BC7
 10
165.279
 20
118.233
 30
0.000000
  70
    32
  0
VERTEX
  8
0
  5
BC8
 10
165.258
 20
118.240
 30
0.000000
  70
    32
  0
VERTEX
  8
0
  5
BC9
 10
165.237
 20
118.247
 30
0.000000
  70
    32
  0
VERTEX
  8
0
  5
BCA
 10
165.216
 20
118.255
 30
0.000000
  70
    32
  0
VERTEX
  8
0
  5
BCB
 10
165.194
 20
118.262
 30
0.000000
  70
    32
  0
VERTEX
  8
0
  5
BCC
 10
165.172
 20
118.269
 30
0.000000
  70
    32
  0
VERTEX
  8
0
  5
BCD
 10
165.151
 20
118.276
 30
0.000000
  70
    32
  0
VERTEX
  8
0
  5
BCE
 10
165.128
 20
118.283
 30
0.000000
  70
    32
  0
VERTEX
  8
0
  5
BCF
 10
165.106
 20
118.291
 30
0.000000
  70
    32
  0
VERTEX
  8
0
  5
BD0
 10
165.084
 20
118.298
 30
0.000000
  70
    32
  0
VERTEX
  8
0
  5
BD1
 10
165.061
 20
118.305
 30
0.000000
  70
    32
  0
VERTEX
  8
0
  5
BD2
 10
165.038
 20
118.312
 30
0.000000
  70
    32
  0
VERTEX
  8
0
  5
BD3
 10
165.015
 20
118.319
 30
0.000000
  70
    32
  0
VERTEX
  8
0
  5
BD4
 10
164.992
 20
118.325
 30
0.000000
  70
    32
  0
VERTEX
  8
0
  5
BD5
 10
164.968
 20
118.332
 30
0.000000
  70
    32
  0
VERTEX
  8
0
  5
BD6
 10
164.945
 20
118.339
 30
0.000000
  70
    32
  0
VERTEX
  8
0
  5
BD7
 10
164.921
 20
118.346
 30
0.000000
  70
    32
  0
VERTEX
  8
0
  5
BD8
 10
164.897
 20
118.353
 30
0.000000
  70
    32
  0
VERTEX
  8
0
  5
BD9
 10
164.872
 20
118.359
 30
0.000000
  70
    32
  0
VERTEX
  8
0
  5
BDA
 10
164.848
 20
118.366
 30
0.000000
  70
    32
  0
VERTEX
  8
0
  5
BDB
 10
164.824
 20
118.373
 30
0.000000
  70
    32
  0
VERTEX
  8
0
  5
BDC
 10
164.799
 20
118.379
 30
0.000000
  70
    32
  0
VERTEX
  8
0
  5
BDD
 10
164.774
 20
118.386
 30
0.000000
  70
    32
  0
VERTEX
  8
0
  5
BDE
 10
164.749
 20
118.392
 30
0.000000
  70
    32
  0
VERTEX
  8
0
  5
BDF
 10
164.723
 20
118.399
 30
0.000000
  70
    32
  0
VERTEX
  8
0
  5
BE0
 10
164.698
 20
118.405
 30
0.000000
  70
    32
  0
VERTEX
  8
0
  5
BE1
 10
164.672
 20
118.412
 30
0.000000
  70
    32
  0
VERTEX
  8
0
  5
BE2
 10
164.647
 20
118.418
 30
0.000000
  70
    32
  0
VERTEX
  8
0
  5
BE3
 10
164.621
 20
118.424
 30
0.000000
  70
    32
  0
VERTEX
  8
0
  5
BE4
 10
164.594
 20
118.431
 30
0.000000
  70
    32
  0
VERTEX
  8
0
  5
BE5
 10
164.568
 20
118.437
 30
0.000000
  70
    32
  0
VERTEX
  8
0
  5
BE6
 10
164.542
 20
118.443
 30
0.000000
  70
    32
  0
VERTEX
  8
0
  5
BE7
 10
164.515
 20
118.449
 30
0.000000
  70
    32
  0
VERTEX
  8
0
  5
BE8
 10
164.488
 20
118.455
 30
0.000000
  70
    32
  0
VERTEX
  8
0
  5
BE9
 10
164.461
 20
118.461
 30
0.000000
  70
    32
  0
VERTEX
  8
0
  5
BEA
 10
164.434
 20
118.467
 30
0.000000
  70
    32
  0
VERTEX
  8
0
  5
BEB
 10
164.407
 20
118.473
 30
0.000000
  70
    32
  0
VERTEX
  8
0
  5
BEC
 10
164.379
 20
118.479
 30
0.000000
  70
    32
  0
SEQEND
  8
0
  5
BED
  0
ARC
  5
4BC
  8
0
 10
117.8170231780278
 20
35.230967471263057
 30
0.0
 40
5.25
 50
216.98130218967731
 51
143.01869781032721
  0
ARC
  5
4BD
  8
0
 10
107.4648954366485
 20
35.230967471262488
 30
0.0
 40
6.920848874932501
 50
332.8497427383636
 51
27.150257261643631
  0
ARC
  5
4C8
  8
0
 10
119.1173571849192
 20
164.9439731288297
 30
0.0
 40
6.342289468737067
 50
150.48020170722231
 51
209.51979829278471
  0
ARC
  5
4D9
  8
0
 10
91.397478937534075
 20
115.1119098095312
 30
0.0
 40
23.308990811180479
 50
9.5157240665613934
 51
23.488630447318432
  0
INSERT
  5
5D5
  8
0
  2
STDGX5
 10
205.74764554292929
 20
101.0373445703065
 30
0.0
 41
0.5
 42
0.5
 43
0.5
  0
INSERT
  5
5D6
  8
0
  2
STDGX5
 10
205.74764554292929
 20
101.0373445703065
 30
0.0
 41
0.5
 42
0.5
 43
0.5
  0
INSERT
  5
5D7
  8
0
  2
STDGX5
 10
343.24764554292932
 20
101.0373445703065
 30
0.0
 41
0.5
 42
0.5
 43
0.5
  0
INSERT
  5
5D8
  8
0
  2
STDGX5
 10
343.24764554292932
 20
101.0373445703065
 30
0.0
 41
0.5
 42
0.5
 43
0.5
  0
ARC
  5
6E0
  8
0
 10
35.694298929911611
 20
94.988827396348398
 30
0.0
 40
0.2
 50
0.0
 51
90.0
  0
ARC
  5
6E1
  8
0
 10
41.094298929911581
 20
94.988827396348398
 30
0.0
 40
0.2
 50
90.0
 51
180.0
  0
LINE
  5
6E2
  8
0
 10
35.894298929911599
 20
94.988827396348398
 30
0.0
 11
35.894298929911599
 21
71.088827396348364
 31
0.0
  0
LINE
  5
6E3
  8
3
 10
36.327298929911422
 20
94.238849396671185
 30
0.0
 11
36.327298929911422
 21
70.655827396348542
 31
0.0
  0
LINE
  5
6E4
  8
3
 10
40.461298929911827
 20
94.238849396671185
 30
0.0
 11
40.461298929911827
 21
70.655827396348599
 31
0.0
  0
LINE
  5
6E5
  8
0
 10
40.894298929911599
 20
94.988827396348398
 30
0.0
 11
40.894298929911599
 21
71.088827396348364
 31
0.0
  0
LINE
  5
6E6
  8
0
 10
39.994298929911622
 20
70.188827396348358
 30
0.0
 11
36.794298929911577
 21
70.188827396348358
 31
0.0
  0
LINE
  5
6E7
  8
0
 10
40.894298929911713
 20
94.238849396671185
 30
0.0
 11
35.89429892991172
 21
94.238849396671185
 31
0.0
  0
LINE
  5
6E8
  8
3
 10
40.461298929911948
 20
94.238849396671185
 30
0.0
 11
40.894298929911713
 21
94.988827396348114
 31
0.0
  0
LINE
  5
6E9
  8
0
 10
40.894298929911599
 20
71.088827396348364
 30
0.0
 11
39.994298929911622
 21
70.188827396348358
 31
0.0
  0
LINE
  5
6EA
  8
0
 10
36.794298929911577
 20
70.188827396348358
 30
0.0
 11
35.894298929911599
 21
71.088827396348364
 31
0.0
  0
LINE
  5
6EB
  8
0
 10
40.894298929911599
 20
71.088827396348393
 30
0.0
 11
35.894298929911599
 21
71.088827396348393
 31
0.0
  0
LINE
  5
6EC
  8
3
 10
36.327298929911542
 20
94.238849396671185
 30
0.0
 11
35.89429892991172
 21
94.988827396348114
 31
0.0
  0
LINE
  5
6F0
  8
3
 10
81.000023178027789
 20
94.238849396671185
 30
0.0
 11
80.567023178027966
 21
94.988827396348114
 31
0.0
  0
LINE
  5
6F1
  8
0
 10
85.567023178027867
 20
71.088827396348393
 30
0.0
 11
80.567023178027867
 21
71.088827396348393
 31
0.0
  0
LINE
  5
6F2
  8
0
 10
81.467023178027816
 20
70.188827396348358
 30
0.0
 11
80.567023178027867
 21
71.088827396348364
 31
0.0
  0
LINE
  5
6F3
  8
0
 10
85.567023178027867
 20
71.088827396348364
 30
0.0
 11
84.667023178027875
 21
70.188827396348358
 31
0.0
  0
LINE
  5
6F4
  8
3
 10
85.134023178028187
 20
94.238849396671185
 30
0.0
 11
85.567023178027966
 21
94.988827396348114
 31
0.0
  0
LINE
  5
6F5
  8
0
 10
85.567023178027966
 20
94.238849396671185
 30
0.0
 11
80.567023178027966
 21
94.238849396671185
 31
0.0
  0
LINE
  5
6F6
  8
0
 10
84.667023178027875
 20
70.188827396348358
 30
0.0
 11
81.467023178027816
 21
70.188827396348358
 31
0.0
  0
LINE
  5
6F7
  8
0
 10
85.567023178027867
 20
94.988827396348398
 30
0.0
 11
85.567023178027867
 21
71.088827396348364
 31
0.0
  0
LINE
  5
6F8
  8
3
 10
85.134023178028087
 20
94.238849396671185
 30
0.0
 11
85.134023178028087
 21
70.655827396348599
 31
0.0
  0
LINE
  5
6F9
  8
3
 10
81.000023178027675
 20
94.238849396671185
 30
0.0
 11
81.000023178027675
 21
70.655827396348542
 31
0.0
  0
LINE
  5
6FA
  8
0
 10
80.567023178027867
 20
94.988827396348398
 30
0.0
 11
80.567023178027867
 21
71.088827396348364
 31
0.0
  0
ARC
  5
6FB
  8
0
 10
85.767023178027841
 20
94.988827396348398
 30
0.0
 40
0.2
 50
90.0
 51
180.0
  0
ARC
  5
6FC
  8
0
 10
80.367023178027864
 20
94.988827396348398
 30
0.0
 40
0.2
 50
0.0
 51
90.0
  0
ARC
  5
6FD
  8
0
 10
158.0397474261438
 20
94.988827396348398
 30
0.0
 40
0.2
 50
0.0
 51
90.0
  0
ARC
  5
6FE
  8
0
 10
163.43974742614381
 20
94.988827396348398
 30
0.0
 40
0.2
 50
90.0
 51
180.0
  0
LINE
  5
6FF
  8
0
 10
158.23974742614379
 20
94.988827396348398
 30
0.0
 11
158.23974742614379
 21
71.088827396348364
 31
0.0
  0
LINE
  5
700
  8
3
 10
158.67274742614359
 20
94.238849396671185
 30
0.0
 11
158.67274742614359
 21
70.655827396348542
 31
0.0
  0
LINE
  5
701
  8
3
 10
162.806747426144
 20
94.238849396671185
 30
0.0
 11
162.806747426144
 21
70.655827396348599
 31
0.0
  0
LINE
  5
702
  8
0
 10
163.23974742614379
 20
94.988827396348398
 30
0.0
 11
163.23974742614379
 21
71.088827396348364
 31
0.0
  0
LINE
  5
703
  8
0
 10
162.33974742614379
 20
70.188827396348358
 30
0.0
 11
159.1397474261438
 21
70.188827396348358
 31
0.0
  0
LINE
  5
704
  8
0
 10
163.23974742614391
 20
94.238849396671185
 30
0.0
 11
158.23974742614391
 21
94.238849396671185
 31
0.0
  0
LINE
  5
705
  8
3
 10
162.8067474261442
 20
94.238849396671185
 30
0.0
 11
163.23974742614391
 21
94.988827396348114
 31
0.0
  0
LINE
  5
706
  8
0
 10
163.23974742614379
 20
71.088827396348364
 30
0.0
 11
162.33974742614379
 21
70.188827396348358
 31
0.0
  0
LINE
  5
707
  8
0
 10
159.1397474261438
 20
70.188827396348358
 30
0.0
 11
158.23974742614379
 21
71.088827396348364
 31
0.0
  0
LINE
  5
708
  8
0
 10
163.23974742614379
 20
71.088827396348393
 30
0.0
 11
158.23974742614379
 21
71.088827396348393
 31
0.0
  0
LINE
  5
709
  8
3
 10
158.6727474261437
 20
94.238849396671185
 30
0.0
 11
158.23974742614391
 21
94.988827396348114
 31
0.0
  0
CIRCLE
  5
70C
  8
3
 10
83.067023178027796
 20
35.230967471262829
 30
0.0
 40
2.067000000000291
  0
CIRCLE
  5
70D
  8
0
 10
83.067023178027796
 20
35.230967471262829
 30
0.0
 40
2.5000000000000848
  0
TEXT
  5
7CB
  8
0
 62
     3
 10
0.0
 20
0.0
 30
0.0
 40
10.0
  1
KR5X25-SUS
  7
STANDARD1
  0
ENDSEC
  0
EOF
