  0
SECTION
  2
HEADER
  9
$ACADVER
  1
AC1009
  9
$INSBASE
 10
0.0
 20
0.0
 30
0.0
  9
$EXTMIN
 10
0.0
 20
-2.960436562073669
 30
0.0
  9
$EXTMAX
 10
168.48974742614379
 20
164.4439731288295
 30
0.0
  9
$LIMMIN
 10
0.0
 20
0.0
  9
$LIMMAX
 10
187.5
 20
135.0
  9
$ORTHOMODE
 70
     1
  9
$REGENMODE
 70
     1
  9
$FILLMODE
 70
     1
  9
$QTEXTMODE
 70
     0
  9
$MIRRTEXT
 70
     0
  9
$DRAGMODE
 70
     2
  9
$LTSCALE
 40
5.0
  9
$OSMODE
 70
  3071
  9
$ATTMODE
 70
     1
  9
$TEXTSIZE
 40
0.2
  9
$TRACEWID
 40
0.05
  9
$TEXTSTYLE
  7
STANDARD
  9
$CLAYER
  8
0
  9
$CELTYPE
  6
BYLAYER
  9
$CECOLOR
 62
   256
  9
$DIMSCALE
 40
0.5
  9
$DIMASZ
 40
3.0
  9
$DIMEXO
 40
2.0
  9
$DIMDLI
 40
0.38
  9
$DIMRND
 40
0.0
  9
$DIMDLE
 40
0.0
  9
$DIMEXE
 40
2.0
  9
$DIMTP
 40
0.0
  9
$DIMTM
 40
0.0
  9
$DIMTXT
 40
3.2000000000000002
  9
$DIMCEN
 40
0.0
  9
$DIMTSZ
 40
0.0
  9
$DIMTOL
 70
     0
  9
$DIMLIM
 70
     0
  9
$DIMTIH
 70
     0
  9
$DIMTOH
 70
     0
  9
$DIMSE1
 70
     0
  9
$DIMSE2
 70
     0
  9
$DIMTAD
 70
     1
  9
$DIMZIN
 70
     0
  9
$DIMBLK
  1

  9
$DIMASO
 70
     1
  9
$DIMSHO
 70
     0
  9
$DIMPOST
  1

  9
$DIMAPOST
  1

  9
$DIMALT
 70
     0
  9
$DIMALTD
 70
     2
  9
$DIMALTF
 40
25.399999999999999
  9
$DIMLFAC
 40
1.0
  9
$DIMTOFL
 70
     0
  9
$DIMTVP
 40
1.6000000000000001
  9
$DIMTIX
 70
     1
  9
$DIMSOXD
 70
     0
  9
$DIMSAH
 70
     0
  9
$DIMBLK1
  1

  9
$DIMBLK2
  1

  9
$DIMSTYLE
  2
STANDARD
  9
$DIMCLRD
 70
     0
  9
$DIMCLRE
 70
     0
  9
$DIMCLRT
 70
     0
  9
$DIMTFAC
 40
1.0
  9
$DIMGAP
 40
0.09
  9
$LUNITS
 70
     2
  9
$LUPREC
 70
     4
  9
$SKETCHINC
 40
0.1
  9
$FILLETRAD
 40
5.0
  9
$AUNITS
 70
     0
  9
$AUPREC
 70
     0
  9
$MENU
  1
E:\r13\win\SUPPORT\ACAD
  9
$ELEVATION
 40
0.0
  9
$PELEVATION
 40
0.0
  9
$THICKNESS
 40
0.0
  9
$LIMCHECK
 70
     0
  9
$BLIPMODE
 70
     0
  9
$CHAMFERA
 40
0.0
  9
$CHAMFERB
 40
0.0
  9
$SKPOLY
 70
     0
  9
$TDCREATE
 40
2449840.613715278
  9
$TDUPDATE
 40
2456597.4909065971
  9
$TDINDWG
 40
0.0281596759
  9
$TDUSRTIMER
 40
0.0281596759
  9
$USRTIMER
 70
     1
  9
$ANGBASE
 50
0.0
  9
$ANGDIR
 70
     0
  9
$PDMODE
 70
     0
  9
$PDSIZE
 40
0.0
  9
$PLINEWID
 40
0.0
  9
$COORDS
 70
     1
  9
$SPLFRAME
 70
     0
  9
$SPLINETYPE
 70
     6
  9
$SPLINESEGS
 70
     8
  9
$ATTDIA
 70
     0
  9
$ATTREQ
 70
     1
  9
$HANDLING
 70
     1
  9
$HANDSEED
  5
D00
  9
$SURFTAB1
 70
     6
  9
$SURFTAB2
 70
     6
  9
$SURFTYPE
 70
     6
  9
$SURFU
 70
     6
  9
$SURFV
 70
     6
  9
$UCSNAME
  2

  9
$UCSORG
 10
0.0
 20
0.0
 30
0.0
  9
$UCSXDIR
 10
1.0
 20
0.0
 30
0.0
  9
$UCSYDIR
 10
0.0
 20
1.0
 30
0.0
  9
$PUCSNAME
  2

  9
$PUCSORG
 10
0.0
 20
0.0
 30
0.0
  9
$PUCSXDIR
 10
1.0
 20
0.0
 30
0.0
  9
$PUCSYDIR
 10
0.0
 20
1.0
 30
0.0
  9
$USERI1
 70
     0
  9
$USERI2
 70
     1
  9
$USERI3
 70
     1
  9
$USERI4
 70
     0
  9
$USERI5
 70
     0
  9
$USERR1
 40
0.0
  9
$USERR2
 40
0.0
  9
$USERR3
 40
0.0
  9
$USERR4
 40
0.0
  9
$USERR5
 40
0.0
  9
$WORLDVIEW
 70
     1
  9
$SHADEDGE
 70
     3
  9
$SHADEDIF
 70
    70
  9
$TILEMODE
 70
     1
  9
$MAXACTVP
 70
    16
  9
$PLIMCHECK
 70
     0
  9
$PEXTMIN
 10
1.0000000000000000E+020
 20
1.0000000000000000E+020
 30
1.0000000000000000E+020
  9
$PEXTMAX
 10
-1.0000000000000000E+020
 20
-1.0000000000000000E+020
 30
-1.0000000000000000E+020
  9
$PLIMMIN
 10
0.0
 20
0.0
  9
$PLIMMAX
 10
12.0
 20
9.0
  9
$UNITMODE
 70
     0
  9
$VISRETAIN
 70
     0
  9
$PLINEGEN
 70
     0
  9
$PSLTSCALE
 70
     0
  0
ENDSEC
  0
SECTION
  2
TABLES
  0
TABLE
  2
VPORT
 70
     1
  0
VPORT
  2
*ACTIVE
 70
     0
 10
0.0
 20
0.0
 11
1.0
 21
1.0
 12
93.747139195326156
 22
98.741194152564802
 13
0.0
 23
0.0
 14
5.0
 24
5.0
 15
5.0
 25
5.0
 16
0.0
 26
0.0
 36
1.0
 17
0.0
 27
0.0
 37
0.0
 40
205.3384829506941
 41
1.9089595375722539
 42
50.0
 43
0.0
 44
0.0
 50
0.0
 51
0.0
 71
     0
 72
   500
 73
     1
 74
     0
 75
     0
 76
     0
 77
     0
 78
     0
  0
ENDTAB
  0
TABLE
  2
LTYPE
 70
     3
  0
LTYPE
  2
CONTINUOUS
 70
     0
  3
Solid Line
 72
    65
 73
     0
 40
0.0
  0
LTYPE
  2
CENTER
 70
     0
  3
____ _ ____ _ ____ _ ____ _ ____ _ ____ _ ____
 72
    65
 73
     4
 40
2.0
 49
1.25
 49
-0.25
 49
0.25
 49
-0.25
  0
LTYPE
  2
PHANTOM2
 70
     0
  3
___ _ _ ___ _ _ ___ _ _ ___ _ _
 72
    65
 73
     6
 40
1.25
 49
0.625
 49
-0.125
 49
0.125
 49
-0.125
 49
0.125
 49
-0.125
  0
ENDTAB
  0
TABLE
  2
LAYER
 70
     3
  0
LAYER
  2
0
 70
     0
 62
     7
  6
CONTINUOUS
  0
LAYER
  2
1
 70
     0
 62
     1
  6
CENTER
  0
LAYER
  2
3
 70
     0
 62
     3
  6
CONTINUOUS
  0
ENDTAB
  0
TABLE
  2
STYLE
 70
     2
  0
STYLE
  2
STANDARD
 70
     0
 40
0.0
 41
1.0
 50
0.0
 71
     0
 42
0.2
  3
TXT
  4
BIGFONT
  0
STYLE
  2
STANDARD1
 70
     0
 40
0.0
 41
1.0
 50
0.0
 71
     0
 42
3.0
  3
txt
  4

  0
ENDTAB
  0
TABLE
  2
VIEW
 70
     1
  0
VIEW
  2
ALL
 70
     0
 40
175.0
 10
143.23529411764699
 20
87.5
 41
0.0
 11
0.0
 21
0.0
 31
1.0
 12
0.0
 22
0.0
 32
0.0
 42
0.0
 43
0.0
 44
0.0
 50
0.0
 71
     0
  0
ENDTAB
  0
TABLE
  2
UCS
 70
     0
  0
ENDTAB
  0
TABLE
  2
APPID
 70
     3
  0
APPID
  2
ACAD
 70
     0
  0
APPID
  2
ACAD_MLEADERVER
 70
     0
  0
APPID
  2
ACAD_NAV_VCDISPLAY
 70
     0
  0
ENDTAB
  0
TABLE
  2
DIMSTYLE
 70
     1
  0
DIMSTYLE
  2
STANDARD
 70
     0
  3

  4

  5

  6

  7

 40
1.0
 41
0.18
 42
0.0625
 43
0.38
 44
0.18
 45
0.0
 46
0.0
 47
0.0
 48
0.0
140
0.18
141
0.09
142
0.0
143
25.399999999999999
144
1.0
145
0.0
146
1.0
147
0.09
 71
     0
 72
     0
 73
     1
 74
     1
 75
     0
 76
     0
 77
     0
 78
     0
170
     0
171
     2
172
     0
173
     0
174
     0
175
     0
176
     0
177
     0
178
     0
  0
ENDTAB
  0
ENDSEC
  0
SECTION
  2
BLOCKS
  0
BLOCK
  8
0
  2
$MODEL_SPACE
 70
     0
 10
0.0
 20
0.0
 30
0.0
  3
$MODEL_SPACE
  1

  0
ENDBLK
  5
35B
  8
0
  0
BLOCK
 67
     1
  8
0
  2
$PAPER_SPACE
 70
     0
 10
0.0
 20
0.0
 30
0.0
  3
$PAPER_SPACE
  1

  0
ENDBLK
  5
359
 67
     1
  8
0
  0
BLOCK
  8
0
  2
STDGX5
 70
     0
 10
0.0
 20
0.0
 30
0.0
  3
STDGX5
  1

  0
ENDBLK
  5
26F
  8
0
  0
ENDSEC
  0
SECTION
  2
ENTITIES
  0
INSERT
  5
308
  8
0
  2
STDGX5
 10
0.0
 20
0.0
 30
0.0
 41
0.5
 42
0.5
 43
0.5
  0
INSERT
  5
309
  8
0
  2
STDGX5
 10
0.0
 20
0.0
 30
0.0
 41
0.5
 42
0.5
 43
0.5
  0
INSERT
  5
30A
  8
0
  2
STDGX5
 10
137.5
 20
0.0
 30
0.0
 41
0.5
 42
0.5
 43
0.5
  0
INSERT
  5
30B
  8
0
  2
STDGX5
 10
137.5
 20
0.0
 30
0.0
 41
0.5
 42
0.5
 43
0.5
  0
LINE
  5
3AF
  8
1
 10
73.567023178027625
 20
154.94397312882941
 30
0.0
 11
125.5670231780278
 21
154.94397312882941
 31
0.0
  0
LINE
  5
3B0
  8
1
 10
117.8170231780278
 20
162.69397312882981
 30
0.0
 11
117.8170231780278
 21
147.1939731288295
 31
0.0
  0
LINE
  5
3B1
  8
1
 10
83.067023178027796
 20
164.4439731288295
 30
0.0
 11
83.067023178027796
 21
145.4439731288293
 31
0.0
  0
LINE
  5
3B2
  8
1
 10
83.067023178027796
 20
111.6888273963484
 30
0.0
 11
83.067023178027881
 21
72.688827396348358
 31
0.0
  0
LINE
  5
3B3
  8
0
 10
76.367023178027807
 20
99.987470300032953
 30
0.0
 11
76.752023178027798
 21
89.388827396348404
 31
0.0
  0
LINE
  5
3B4
  8
0
 10
76.752023178027798
 20
89.388827396348404
 30
0.0
 11
89.382023178027794
 21
89.388827396348475
 31
0.0
  0
LINE
  5
3B5
  8
0
 10
76.952023178027787
 20
89.188827396348415
 30
0.0
 11
89.182023178027805
 21
89.188827396348415
 31
0.0
  0
LINE
  5
3B6
  8
0
 10
76.952023178027787
 20
89.188827396348415
 30
0.0
 11
76.752023178027798
 21
89.388827396348404
 31
0.0
  0
LINE
  5
3B7
  8
0
 10
89.182023178027805
 20
89.188827396348415
 30
0.0
 11
89.382023178027794
 21
89.388827396348404
 31
0.0
  0
LINE
  5
3B8
  8
1
 10
83.06702317802781
 20
102.6723299882638
 30
0.0
 11
125.2479180293633
 21
115.1398048402117
 31
0.0
  0
LINE
  5
3B9
  8
0
 10
90.812544802468551
 20
100.4080850584611
 30
0.0
 11
114.38574431158101
 21
108.96531190742979
 31
0.0
  0
LINE
  5
3BA
  8
0
 10
76.367023178027807
 20
99.987470300032953
 30
0.0
 11
89.767023178027912
 21
99.98747030003301
 31
0.0
  0
ARC
  5
3BB
  8
0
 10
76.067023178027796
 20
99.987470300032953
 30
0.0
 40
0.3
 50
0.0
 51
90.0
  0
LINE
  5
3BC
  8
0
 10
76.067023178027796
 20
100.28747030003289
 30
0.0
 11
90.128504515817212
 21
100.28747030003289
 31
0.0
  0
LINE
  5
3BD
  8
1
 10
115.61590425657241
 20
120.3696803415769
 30
0.0
 11
120.0181420994832
 21
105.50797445112001
 31
0.0
  0
LINE
  5
3BE
  8
0
 10
87.043458277894544
 20
150.15967771339189
 30
0.0
 11
113.5983889203564
 21
151.81897312882941
 31
0.0
  0
LINE
  5
3BF
  8
0
 10
87.043458277894445
 20
159.72826854426711
 30
0.0
 11
113.598388920356
 21
158.06897312882941
 31
0.0
  0
ARC
  5
3C0
  8
0
 10
45.359298929911603
 20
99.987470300032953
 30
0.0
 40
0.3
 50
90.0
 51
180.0
  0
ARC
  5
3C1
  8
0
 10
31.429298929911599
 20
99.987470300032953
 30
0.0
 40
0.3
 50
0.0
 51
90.0
  0
LINE
  5
3C2
  8
0
 10
31.729298929911611
 20
99.987470300032953
 30
0.0
 11
45.059298929911591
 21
99.987470300032953
 31
0.0
  0
LINE
  5
3C3
  8
0
 10
44.509298929911608
 20
89.188827396348415
 30
0.0
 11
44.709298929911597
 21
89.388827396348404
 31
0.0
  0
LINE
  5
3C4
  8
0
 10
45.059298929911591
 20
99.987470300032953
 30
0.0
 11
44.709298929911597
 21
89.388827396348404
 31
0.0
  0
LINE
  5
3C5
  8
0
 10
32.27929892991159
 20
89.188827396348415
 30
0.0
 11
32.079298929911602
 21
89.388827396348404
 31
0.0
  0
LINE
  5
3C6
  8
0
 10
32.27929892991159
 20
89.188827396348415
 30
0.0
 11
44.509298929911608
 21
89.188827396348415
 31
0.0
  0
LINE
  5
3C7
  8
0
 10
32.079298929911602
 20
89.388827396348404
 30
0.0
 11
44.709298929911597
 21
89.388827396348475
 31
0.0
  0
LINE
  5
3C8
  8
0
 10
31.729298929911611
 20
99.987470300032953
 30
0.0
 11
32.079298929911602
 21
89.388827396348404
 31
0.0
  0
LINE
  5
3C9
  8
1
 10
38.394298929911599
 20
120.6888273963484
 30
0.0
 11
38.394298929911599
 21
72.688827396348358
 31
0.0
  0
LINE
  5
3CA
  8
1
 10
30.644298929911599
 20
112.9388273963484
 30
0.0
 11
46.144298929911599
 21
112.9388273963484
 31
0.0
  0
POLYLINE
  5
3CB
  8
3
 66
     1
 10
0.0
 20
0.0
 30
0.0
 70
     1
  0
VERTEX
  5
3CC
  8
3
 10
93.141040044284978
 20
153.41218531744559
 30
0.0
  0
VERTEX
  5
3CD
  8
3
 10
93.542031617945611
 20
153.62604749006471
 30
0.0
  0
VERTEX
  5
3CE
  8
3
 10
93.542031617945611
 20
152.98980752652301
 30
0.0
  0
VERTEX
  5
3CF
  8
3
 10
93.996488734761044
 20
152.98980752652301
 30
0.0
  0
VERTEX
  5
3D0
  8
3
 10
93.996488734761044
 20
153.76238462510929
 30
0.0
  0
VERTEX
  5
3D1
  8
3
 10
94.110103013964917
 20
153.8078303367908
 30
0.0
  0
VERTEX
  5
3D2
  8
3
 10
94.110103013964917
 20
153.51243321086079
 30
0.0
 42
0.5661903789690232
  0
VERTEX
  5
3D3
  8
3
 10
94.277182836323576
 20
153.41218531744559
 30
0.0
  0
VERTEX
  5
3D4
  8
3
 10
94.678174409984194
 20
153.62604749006471
 30
0.0
  0
VERTEX
  5
3D5
  8
3
 10
94.678174409984194
 20
152.98980752652301
 30
0.0
  0
VERTEX
  5
3D6
  8
3
 10
95.132631526799571
 20
152.98980752652301
 30
0.0
  0
VERTEX
  5
3D7
  8
3
 10
95.132631526799571
 20
153.76238462510929
 30
0.0
  0
VERTEX
  5
3D8
  8
3
 10
95.246245806003444
 20
153.8078303367908
 30
0.0
  0
VERTEX
  5
3D9
  8
3
 10
95.246245806003444
 20
153.51243321086079
 30
0.0
 42
0.5661903789690179
  0
VERTEX
  5
3DA
  8
3
 10
95.413325628362074
 20
153.41218531744559
 30
0.0
  0
VERTEX
  5
3DB
  8
3
 10
95.837040057863476
 20
153.63816634651309
 30
0.0
  0
VERTEX
  5
3DC
  8
3
 10
95.837040057863476
 20
154.20040427995579
 30
0.0
 42
0.0094958374053504
  0
VERTEX
  5
3DD
  8
3
 10
95.700702922818877
 20
154.12595031856159
 30
0.0
  0
VERTEX
  5
3DE
  8
3
 10
95.700702922818877
 20
154.4213474444916
 30
0.0
 42
0.4912422865174231
  0
VERTEX
  5
3DF
  8
3
 10
95.558356158968252
 20
154.53126854694719
 30
0.0
 42
0.0273475274774147
  0
VERTEX
  5
3E0
  8
3
 10
95.132631526799571
 20
154.3947316130363
 30
0.0
  0
VERTEX
  5
3E1
  8
3
 10
95.132631526799571
 20
154.53496172369549
 30
0.0
  0
VERTEX
  5
3E2
  8
3
 10
94.678174409984194
 20
154.53496172369549
 30
0.0
  0
VERTEX
  5
3E3
  8
3
 10
94.678174409984194
 20
154.18845896193261
 30
0.0
 42
0.0079266050657673
  0
VERTEX
  5
3E4
  8
3
 10
94.564560130780293
 20
154.12595031856159
 30
0.0
  0
VERTEX
  5
3E5
  8
3
 10
94.564560130780293
 20
154.4213474444916
 30
0.0
 42
0.491242286517397
  0
VERTEX
  5
3E6
  8
3
 10
94.422213366929725
 20
154.53126854694719
 30
0.0
 42
0.0273475274774148
  0
VERTEX
  5
3E7
  8
3
 10
93.996488734761044
 20
154.3947316130363
 30
0.0
  0
VERTEX
  5
3E8
  8
3
 10
93.996488734761044
 20
154.53496172369549
 30
0.0
  0
VERTEX
  5
3E9
  8
3
 10
93.542031617945611
 20
154.53496172369549
 30
0.0
  0
VERTEX
  5
3EA
  8
3
 10
93.542031617945611
 20
154.18845896193261
 30
0.0
 42
0.0079266050657672
  0
VERTEX
  5
3EB
  8
3
 10
93.428417338741795
 20
154.12595031856159
 30
0.0
  0
VERTEX
  5
3EC
  8
3
 10
93.428417338741795
 20
154.53496172369549
 30
0.0
  0
VERTEX
  5
3ED
  8
3
 10
92.973960221926333
 20
154.53496172369549
 30
0.0
  0
VERTEX
  5
3EE
  8
3
 10
92.973960221926333
 20
154.18845896193261
 30
0.0
 42
0.0079266050657673
  0
VERTEX
  5
3EF
  8
3
 10
92.860345942722503
 20
154.12595031856159
 30
0.0
  0
VERTEX
  5
3F0
  8
3
 10
92.860345942722503
 20
154.44407030033241
 30
0.0
 42
0.4142135623730951
  0
VERTEX
  5
3F1
  8
3
 10
92.769454519359442
 20
154.53496172369549
 30
0.0
  0
VERTEX
  5
3F2
  8
3
 10
92.557219905694296
 20
154.53496172369549
 30
0.0
  0
VERTEX
  5
3F3
  8
3
 10
93.188060736401269
 20
156.36705652631679
 30
0.0
 42
-0.3201025237009698
  0
VERTEX
  5
3F4
  8
3
 10
93.295485147841873
 20
156.44368161432021
 30
0.0
  0
VERTEX
  5
3F5
  8
3
 10
93.428417338741795
 20
156.44368161432021
 30
0.0
  0
VERTEX
  5
3F6
  8
3
 10
93.428417338741795
 20
156.48912732600181
 30
0.0
  0
VERTEX
  5
3F7
  8
3
 10
94.445517108831893
 20
156.44047246400399
 30
0.0
 42
0.4282843006882171
  0
VERTEX
  5
3F8
  8
3
 10
94.564560130780293
 20
156.55395697039691
 30
0.0
  0
VERTEX
  5
3F9
  8
3
 10
94.564560130780293
 20
156.78786337505909
 30
0.0
 42
0.4282843006881943
  0
VERTEX
  5
3FA
  8
3
 10
94.445517108831893
 20
156.9013478814519
 30
0.0
  0
VERTEX
  5
3FB
  8
3
 10
93.428417338741795
 20
156.85269301945411
 30
0.0
  0
VERTEX
  5
3FC
  8
3
 10
93.428417338741795
 20
156.8981387311357
 30
0.0
  0
VERTEX
  5
3FD
  8
3
 10
93.100428639076824
 20
156.8981387311357
 30
0.0
 42
0.3201025237009531
  0
VERTEX
  5
3FE
  8
3
 10
92.885579816195659
 20
156.7448885551288
 30
0.0
  0
VERTEX
  5
3FF
  8
3
 10
92.155937411658613
 20
154.62585314705859
 30
0.0
  0
VERTEX
  5
400
  8
3
 10
92.155937411658613
 20
155.46823024081539
 30
0.0
 42
-0.2679491924311325
  0
VERTEX
  5
401
  8
3
 10
92.246828835021631
 20
155.62565880405251
 30
0.0
  0
VERTEX
  5
402
  8
3
 10
91.156131754664671
 20
155.62565880405251
 30
0.0
 42
-0.2679491924311324
  0
VERTEX
  5
403
  8
3
 10
91.247023178027746
 20
155.46823024081539
 30
0.0
  0
VERTEX
  5
404
  8
3
 10
91.247023178027746
 20
153.3988189316569
 30
0.0
  0
VERTEX
  5
405
  8
3
 10
92.155937411658613
 20
153.3988189316569
 30
0.0
  0
VERTEX
  5
406
  8
3
 10
92.155937411658613
 20
153.9441674718355
 30
0.0
  0
VERTEX
  5
407
  8
3
 10
92.269551690862428
 20
153.9441674718355
 30
0.0
  0
VERTEX
  5
408
  8
3
 10
92.269551690862428
 20
153.51243321086079
 30
0.0
 42
0.566190378969028
  0
VERTEX
  5
409
  8
3
 10
92.436631513221073
 20
153.41218531744559
 30
0.0
  0
VERTEX
  5
40A
  8
3
 10
92.973960221926333
 20
153.65788545294859
 30
0.0
  0
VERTEX
  5
40B
  8
3
 10
92.973960221926333
 20
153.51243321086079
 30
0.0
 42
0.566190378969059
  0
SEQEND
  5
40C
  8
3
  0
POLYLINE
  5
40D
  8
3
 66
     1
 10
0.0
 20
0.0
 30
0.0
 70
     1
  0
VERTEX
  5
40E
  8
3
 10
93.473863050423347
 20
154.98941884051089
 30
0.0
 42
1.0000000552842581
  0
VERTEX
  5
40F
  8
3
 10
92.928514510244838
 20
154.98941884051089
 30
0.0
 42
1.0000000552842581
  0
SEQEND
  5
410
  8
3
  0
LINE
  5
411
  8
0
 10
76.067023178027796
 20
100.28747030003289
 30
0.0
 11
76.067023178027739
 21
100.6088273963483
 31
0.0
  0
LINE
  5
412
  8
0
 10
31.429298929911599
 20
100.28747030003289
 30
0.0
 11
45.359298929911603
 21
100.28747030003289
 31
0.0
  0
POLYLINE
  5
413
  8
0
 10
31.394298929911599
 20
102.6175685676377
 30
0.0
 66
     1
 70
     8
  0
VERTEX
  8
0
  5
972
 10
31.3943
 20
102.618
 30
0.000000
  70
    32
  0
VERTEX
  8
0
  5
973
 10
31.3964
 20
102.568
 30
0.000000
  70
    32
  0
VERTEX
  8
0
  5
974
 10
31.4027
 20
102.519
 30
0.000000
  70
    32
  0
VERTEX
  8
0
  5
975
 10
31.4133
 20
102.470
 30
0.000000
  70
    32
  0
VERTEX
  8
0
  5
976
 10
31.4280
 20
102.421
 30
0.000000
  70
    32
  0
VERTEX
  8
0
  5
977
 10
31.4469
 20
102.372
 30
0.000000
  70
    32
  0
VERTEX
  8
0
  5
978
 10
31.4701
 20
102.323
 30
0.000000
  70
    32
  0
VERTEX
  8
0
  5
979
 10
31.4974
 20
102.274
 30
0.000000
  70
    32
  0
VERTEX
  8
0
  5
97A
 10
31.5288
 20
102.226
 30
0.000000
  70
    32
  0
VERTEX
  8
0
  5
97B
 10
31.5644
 20
102.177
 30
0.000000
  70
    32
  0
VERTEX
  8
0
  5
97C
 10
31.6041
 20
102.129
 30
0.000000
  70
    32
  0
VERTEX
  8
0
  5
97D
 10
31.6479
 20
102.082
 30
0.000000
  70
    32
  0
VERTEX
  8
0
  5
97E
 10
31.6957
 20
102.034
 30
0.000000
  70
    32
  0
VERTEX
  8
0
  5
97F
 10
31.7476
 20
101.987
 30
0.000000
  70
    32
  0
VERTEX
  8
0
  5
980
 10
31.8035
 20
101.941
 30
0.000000
  70
    32
  0
VERTEX
  8
0
  5
981
 10
31.8633
 20
101.895
 30
0.000000
  70
    32
  0
VERTEX
  8
0
  5
982
 10
31.9271
 20
101.849
 30
0.000000
  70
    32
  0
VERTEX
  8
0
  5
983
 10
31.9948
 20
101.804
 30
0.000000
  70
    32
  0
VERTEX
  8
0
  5
984
 10
32.0664
 20
101.759
 30
0.000000
  70
    32
  0
VERTEX
  8
0
  5
985
 10
32.1417
 20
101.714
 30
0.000000
  70
    32
  0
VERTEX
  8
0
  5
986
 10
32.2209
 20
101.671
 30
0.000000
  70
    32
  0
VERTEX
  8
0
  5
987
 10
32.3037
 20
101.627
 30
0.000000
  70
    32
  0
VERTEX
  8
0
  5
988
 10
32.3902
 20
101.585
 30
0.000000
  70
    32
  0
VERTEX
  8
0
  5
989
 10
32.4803
 20
101.543
 30
0.000000
  70
    32
  0
VERTEX
  8
0
  5
98A
 10
32.5740
 20
101.502
 30
0.000000
  70
    32
  0
VERTEX
  8
0
  5
98B
 10
32.6712
 20
101.461
 30
0.000000
  70
    32
  0
VERTEX
  8
0
  5
98C
 10
32.7718
 20
101.421
 30
0.000000
  70
    32
  0
VERTEX
  8
0
  5
98D
 10
32.8759
 20
101.382
 30
0.000000
  70
    32
  0
VERTEX
  8
0
  5
98E
 10
32.9832
 20
101.343
 30
0.000000
  70
    32
  0
VERTEX
  8
0
  5
98F
 10
33.0938
 20
101.306
 30
0.000000
  70
    32
  0
VERTEX
  8
0
  5
990
 10
33.2076
 20
101.269
 30
0.000000
  70
    32
  0
VERTEX
  8
0
  5
991
 10
33.3246
 20
101.232
 30
0.000000
  70
    32
  0
VERTEX
  8
0
  5
992
 10
33.4446
 20
101.197
 30
0.000000
  70
    32
  0
VERTEX
  8
0
  5
993
 10
33.5675
 20
101.163
 30
0.000000
  70
    32
  0
VERTEX
  8
0
  5
994
 10
33.6934
 20
101.129
 30
0.000000
  70
    32
  0
VERTEX
  8
0
  5
995
 10
33.8221
 20
101.097
 30
0.000000
  70
    32
  0
VERTEX
  8
0
  5
996
 10
33.9535
 20
101.065
 30
0.000000
  70
    32
  0
VERTEX
  8
0
  5
997
 10
34.0877
 20
101.034
 30
0.000000
  70
    32
  0
VERTEX
  8
0
  5
998
 10
34.2244
 20
101.004
 30
0.000000
  70
    32
  0
VERTEX
  8
0
  5
999
 10
34.3636
 20
100.975
 30
0.000000
  70
    32
  0
VERTEX
  8
0
  5
99A
 10
34.5053
 20
100.947
 30
0.000000
  70
    32
  0
VERTEX
  8
0
  5
99B
 10
34.6493
 20
100.920
 30
0.000000
  70
    32
  0
VERTEX
  8
0
  5
99C
 10
34.7956
 20
100.895
 30
0.000000
  70
    32
  0
VERTEX
  8
0
  5
99D
 10
34.9440
 20
100.870
 30
0.000000
  70
    32
  0
VERTEX
  8
0
  5
99E
 10
35.0945
 20
100.846
 30
0.000000
  70
    32
  0
VERTEX
  8
0
  5
99F
 10
35.2470
 20
100.823
 30
0.000000
  70
    32
  0
VERTEX
  8
0
  5
9A0
 10
35.4014
 20
100.802
 30
0.000000
  70
    32
  0
VERTEX
  8
0
  5
9A1
 10
35.5576
 20
100.781
 30
0.000000
  70
    32
  0
VERTEX
  8
0
  5
9A2
 10
35.7155
 20
100.762
 30
0.000000
  70
    32
  0
VERTEX
  8
0
  5
9A3
 10
35.8750
 20
100.743
 30
0.000000
  70
    32
  0
VERTEX
  8
0
  5
9A4
 10
36.0361
 20
100.726
 30
0.000000
  70
    32
  0
VERTEX
  8
0
  5
9A5
 10
36.1985
 20
100.710
 30
0.000000
  70
    32
  0
VERTEX
  8
0
  5
9A6
 10
36.3623
 20
100.695
 30
0.000000
  70
    32
  0
VERTEX
  8
0
  5
9A7
 10
36.5273
 20
100.682
 30
0.000000
  70
    32
  0
VERTEX
  8
0
  5
9A8
 10
36.6934
 20
100.669
 30
0.000000
  70
    32
  0
VERTEX
  8
0
  5
9A9
 10
36.8606
 20
100.658
 30
0.000000
  70
    32
  0
VERTEX
  8
0
  5
9AA
 10
37.0287
 20
100.647
 30
0.000000
  70
    32
  0
VERTEX
  8
0
  5
9AB
 10
37.1976
 20
100.638
 30
0.000000
  70
    32
  0
VERTEX
  8
0
  5
9AC
 10
37.3672
 20
100.631
 30
0.000000
  70
    32
  0
VERTEX
  8
0
  5
9AD
 10
37.5374
 20
100.624
 30
0.000000
  70
    32
  0
VERTEX
  8
0
  5
9AE
 10
37.7082
 20
100.619
 30
0.000000
  70
    32
  0
VERTEX
  8
0
  5
9AF
 10
37.8793
 20
100.614
 30
0.000000
  70
    32
  0
VERTEX
  8
0
  5
9B0
 10
38.0508
 20
100.611
 30
0.000000
  70
    32
  0
VERTEX
  8
0
  5
9B1
 10
38.2225
 20
100.609
 30
0.000000
  70
    32
  0
VERTEX
  8
0
  5
9B2
 10
38.3943
 20
100.609
 30
0.000000
  70
    32
  0
VERTEX
  8
0
  5
9B3
 10
38.5661
 20
100.609
 30
0.000000
  70
    32
  0
VERTEX
  8
0
  5
9B4
 10
38.7378
 20
100.611
 30
0.000000
  70
    32
  0
VERTEX
  8
0
  5
9B5
 10
38.9093
 20
100.614
 30
0.000000
  70
    32
  0
VERTEX
  8
0
  5
9B6
 10
39.0804
 20
100.619
 30
0.000000
  70
    32
  0
VERTEX
  8
0
  5
9B7
 10
39.2512
 20
100.624
 30
0.000000
  70
    32
  0
VERTEX
  8
0
  5
9B8
 10
39.4214
 20
100.631
 30
0.000000
  70
    32
  0
VERTEX
  8
0
  5
9B9
 10
39.5910
 20
100.638
 30
0.000000
  70
    32
  0
VERTEX
  8
0
  5
9BA
 10
39.7599
 20
100.647
 30
0.000000
  70
    32
  0
VERTEX
  8
0
  5
9BB
 10
39.9280
 20
100.658
 30
0.000000
  70
    32
  0
VERTEX
  8
0
  5
9BC
 10
40.0952
 20
100.669
 30
0.000000
  70
    32
  0
VERTEX
  8
0
  5
9BD
 10
40.2613
 20
100.682
 30
0.000000
  70
    32
  0
VERTEX
  8
0
  5
9BE
 10
40.4263
 20
100.695
 30
0.000000
  70
    32
  0
VERTEX
  8
0
  5
9BF
 10
40.5901
 20
100.710
 30
0.000000
  70
    32
  0
VERTEX
  8
0
  5
9C0
 10
40.7525
 20
100.726
 30
0.000000
  70
    32
  0
VERTEX
  8
0
  5
9C1
 10
40.9136
 20
100.743
 30
0.000000
  70
    32
  0
VERTEX
  8
0
  5
9C2
 10
41.0731
 20
100.762
 30
0.000000
  70
    32
  0
VERTEX
  8
0
  5
9C3
 10
41.2310
 20
100.781
 30
0.000000
  70
    32
  0
VERTEX
  8
0
  5
9C4
 10
41.3872
 20
100.802
 30
0.000000
  70
    32
  0
VERTEX
  8
0
  5
9C5
 10
41.5416
 20
100.823
 30
0.000000
  70
    32
  0
VERTEX
  8
0
  5
9C6
 10
41.6941
 20
100.846
 30
0.000000
  70
    32
  0
VERTEX
  8
0
  5
9C7
 10
41.8446
 20
100.870
 30
0.000000
  70
    32
  0
VERTEX
  8
0
  5
9C8
 10
41.9930
 20
100.895
 30
0.000000
  70
    32
  0
VERTEX
  8
0
  5
9C9
 10
42.1393
 20
100.920
 30
0.000000
  70
    32
  0
VERTEX
  8
0
  5
9CA
 10
42.2833
 20
100.947
 30
0.000000
  70
    32
  0
VERTEX
  8
0
  5
9CB
 10
42.4250
 20
100.975
 30
0.000000
  70
    32
  0
VERTEX
  8
0
  5
9CC
 10
42.5642
 20
101.004
 30
0.000000
  70
    32
  0
VERTEX
  8
0
  5
9CD
 10
42.7009
 20
101.034
 30
0.000000
  70
    32
  0
VERTEX
  8
0
  5
9CE
 10
42.8351
 20
101.065
 30
0.000000
  70
    32
  0
VERTEX
  8
0
  5
9CF
 10
42.9665
 20
101.097
 30
0.000000
  70
    32
  0
VERTEX
  8
0
  5
9D0
 10
43.0952
 20
101.129
 30
0.000000
  70
    32
  0
VERTEX
  8
0
  5
9D1
 10
43.2211
 20
101.163
 30
0.000000
  70
    32
  0
VERTEX
  8
0
  5
9D2
 10
43.3440
 20
101.197
 30
0.000000
  70
    32
  0
VERTEX
  8
0
  5
9D3
 10
43.4640
 20
101.232
 30
0.000000
  70
    32
  0
VERTEX
  8
0
  5
9D4
 10
43.5810
 20
101.269
 30
0.000000
  70
    32
  0
VERTEX
  8
0
  5
9D5
 10
43.6948
 20
101.306
 30
0.000000
  70
    32
  0
VERTEX
  8
0
  5
9D6
 10
43.8054
 20
101.343
 30
0.000000
  70
    32
  0
VERTEX
  8
0
  5
9D7
 10
43.9127
 20
101.382
 30
0.000000
  70
    32
  0
VERTEX
  8
0
  5
9D8
 10
44.0168
 20
101.421
 30
0.000000
  70
    32
  0
VERTEX
  8
0
  5
9D9
 10
44.1174
 20
101.461
 30
0.000000
  70
    32
  0
VERTEX
  8
0
  5
9DA
 10
44.2146
 20
101.502
 30
0.000000
  70
    32
  0
VERTEX
  8
0
  5
9DB
 10
44.3083
 20
101.543
 30
0.000000
  70
    32
  0
VERTEX
  8
0
  5
9DC
 10
44.3984
 20
101.585
 30
0.000000
  70
    32
  0
VERTEX
  8
0
  5
9DD
 10
44.4849
 20
101.627
 30
0.000000
  70
    32
  0
VERTEX
  8
0
  5
9DE
 10
44.5677
 20
101.671
 30
0.000000
  70
    32
  0
VERTEX
  8
0
  5
9DF
 10
44.6469
 20
101.714
 30
0.000000
  70
    32
  0
VERTEX
  8
0
  5
9E0
 10
44.7222
 20
101.759
 30
0.000000
  70
    32
  0
VERTEX
  8
0
  5
9E1
 10
44.7938
 20
101.804
 30
0.000000
  70
    32
  0
VERTEX
  8
0
  5
9E2
 10
44.8615
 20
101.849
 30
0.000000
  70
    32
  0
VERTEX
  8
0
  5
9E3
 10
44.9252
 20
101.895
 30
0.000000
  70
    32
  0
VERTEX
  8
0
  5
9E4
 10
44.9851
 20
101.941
 30
0.000000
  70
    32
  0
VERTEX
  8
0
  5
9E5
 10
45.0410
 20
101.987
 30
0.000000
  70
    32
  0
VERTEX
  8
0
  5
9E6
 10
45.0929
 20
102.034
 30
0.000000
  70
    32
  0
VERTEX
  8
0
  5
9E7
 10
45.1407
 20
102.082
 30
0.000000
  70
    32
  0
VERTEX
  8
0
  5
9E8
 10
45.1845
 20
102.129
 30
0.000000
  70
    32
  0
VERTEX
  8
0
  5
9E9
 10
45.2242
 20
102.177
 30
0.000000
  70
    32
  0
VERTEX
  8
0
  5
9EA
 10
45.2598
 20
102.226
 30
0.000000
  70
    32
  0
VERTEX
  8
0
  5
9EB
 10
45.2912
 20
102.274
 30
0.000000
  70
    32
  0
VERTEX
  8
0
  5
9EC
 10
45.3185
 20
102.323
 30
0.000000
  70
    32
  0
VERTEX
  8
0
  5
9ED
 10
45.3417
 20
102.372
 30
0.000000
  70
    32
  0
VERTEX
  8
0
  5
9EE
 10
45.3606
 20
102.421
 30
0.000000
  70
    32
  0
VERTEX
  8
0
  5
9EF
 10
45.3753
 20
102.470
 30
0.000000
  70
    32
  0
VERTEX
  8
0
  5
9F0
 10
45.3859
 20
102.519
 30
0.000000
  70
    32
  0
VERTEX
  8
0
  5
9F1
 10
45.3922
 20
102.568
 30
0.000000
  70
    32
  0
VERTEX
  8
0
  5
9F2
 10
45.3943
 20
102.618
 30
0.000000
  70
    32
  0
SEQEND
  8
0
  5
9F3
  0
POLYLINE
  5
414
  8
0
 10
41.288916296314468
 20
112.78396643763324
 30
0.0
 66
     1
 70
     8
  0
VERTEX
  8
0
  5
9F4
 10
41.2889
 20
112.784
 30
0.000000
  70
    32
  0
VERTEX
  8
0
  5
9F5
 10
41.2665
 20
112.830
 30
0.000000
  70
    32
  0
VERTEX
  8
0
  5
9F6
 10
41.2431
 20
112.876
 30
0.000000
  70
    32
  0
VERTEX
  8
0
  5
9F7
 10
41.2188
 20
112.922
 30
0.000000
  70
    32
  0
VERTEX
  8
0
  5
9F8
 10
41.1934
 20
112.967
 30
0.000000
  70
    32
  0
VERTEX
  8
0
  5
9F9
 10
41.1671
 20
113.012
 30
0.000000
  70
    32
  0
VERTEX
  8
0
  5
9FA
 10
41.1398
 20
113.056
 30
0.000000
  70
    32
  0
VERTEX
  8
0
  5
9FB
 10
41.1116
 20
113.100
 30
0.000000
  70
    32
  0
VERTEX
  8
0
  5
9FC
 10
41.0824
 20
113.144
 30
0.000000
  70
    32
  0
VERTEX
  8
0
  5
9FD
 10
41.0523
 20
113.187
 30
0.000000
  70
    32
  0
VERTEX
  8
0
  5
9FE
 10
41.0213
 20
113.229
 30
0.000000
  70
    32
  0
VERTEX
  8
0
  5
9FF
 10
40.9894
 20
113.271
 30
0.000000
  70
    32
  0
VERTEX
  8
0
  5
A00
 10
40.9566
 20
113.313
 30
0.000000
  70
    32
  0
VERTEX
  8
0
  5
A01
 10
40.9229
 20
113.353
 30
0.000000
  70
    32
  0
VERTEX
  8
0
  5
A02
 10
40.8883
 20
113.394
 30
0.000000
  70
    32
  0
VERTEX
  8
0
  5
A03
 10
40.8529
 20
113.434
 30
0.000000
  70
    32
  0
VERTEX
  8
0
  5
A04
 10
40.8166
 20
113.473
 30
0.000000
  70
    32
  0
VERTEX
  8
0
  5
A05
 10
40.7794
 20
113.512
 30
0.000000
  70
    32
  0
VERTEX
  8
0
  5
A06
 10
40.7415
 20
113.550
 30
0.000000
  70
    32
  0
VERTEX
  8
0
  5
A07
 10
40.7027
 20
113.587
 30
0.000000
  70
    32
  0
VERTEX
  8
0
  5
A08
 10
40.6632
 20
113.624
 30
0.000000
  70
    32
  0
VERTEX
  8
0
  5
A09
 10
40.6228
 20
113.660
 30
0.000000
  70
    32
  0
VERTEX
  8
0
  5
A0A
 10
40.5817
 20
113.695
 30
0.000000
  70
    32
  0
VERTEX
  8
0
  5
A0B
 10
40.5398
 20
113.730
 30
0.000000
  70
    32
  0
VERTEX
  8
0
  5
A0C
 10
40.4972
 20
113.764
 30
0.000000
  70
    32
  0
VERTEX
  8
0
  5
A0D
 10
40.4539
 20
113.798
 30
0.000000
  70
    32
  0
VERTEX
  8
0
  5
A0E
 10
40.4098
 20
113.831
 30
0.000000
  70
    32
  0
VERTEX
  8
0
  5
A0F
 10
40.3651
 20
113.863
 30
0.000000
  70
    32
  0
VERTEX
  8
0
  5
A10
 10
40.3196
 20
113.894
 30
0.000000
  70
    32
  0
VERTEX
  8
0
  5
A11
 10
40.2735
 20
113.925
 30
0.000000
  70
    32
  0
VERTEX
  8
0
  5
A12
 10
40.2268
 20
113.954
 30
0.000000
  70
    32
  0
VERTEX
  8
0
  5
A13
 10
40.1794
 20
113.983
 30
0.000000
  70
    32
  0
VERTEX
  8
0
  5
A14
 10
40.1314
 20
114.012
 30
0.000000
  70
    32
  0
VERTEX
  8
0
  5
A15
 10
40.0828
 20
114.039
 30
0.000000
  70
    32
  0
VERTEX
  8
0
  5
A16
 10
40.0336
 20
114.066
 30
0.000000
  70
    32
  0
VERTEX
  8
0
  5
A17
 10
39.9839
 20
114.092
 30
0.000000
  70
    32
  0
VERTEX
  8
0
  5
A18
 10
39.9336
 20
114.117
 30
0.000000
  70
    32
  0
VERTEX
  8
0
  5
A19
 10
39.8828
 20
114.142
 30
0.000000
  70
    32
  0
VERTEX
  8
0
  5
A1A
 10
39.8314
 20
114.165
 30
0.000000
  70
    32
  0
VERTEX
  8
0
  5
A1B
 10
39.7796
 20
114.188
 30
0.000000
  70
    32
  0
VERTEX
  8
0
  5
A1C
 10
39.7273
 20
114.210
 30
0.000000
  70
    32
  0
VERTEX
  8
0
  5
A1D
 10
39.6745
 20
114.231
 30
0.000000
  70
    32
  0
VERTEX
  8
0
  5
A1E
 10
39.6213
 20
114.251
 30
0.000000
  70
    32
  0
VERTEX
  8
0
  5
A1F
 10
39.5676
 20
114.270
 30
0.000000
  70
    32
  0
VERTEX
  8
0
  5
A20
 10
39.5136
 20
114.288
 30
0.000000
  70
    32
  0
VERTEX
  8
0
  5
A21
 10
39.4591
 20
114.306
 30
0.000000
  70
    32
  0
VERTEX
  8
0
  5
A22
 10
39.4043
 20
114.323
 30
0.000000
  70
    32
  0
VERTEX
  8
0
  5
A23
 10
39.3492
 20
114.338
 30
0.000000
  70
    32
  0
VERTEX
  8
0
  5
A24
 10
39.2937
 20
114.353
 30
0.000000
  70
    32
  0
VERTEX
  8
0
  5
A25
 10
39.2379
 20
114.367
 30
0.000000
  70
    32
  0
VERTEX
  8
0
  5
A26
 10
39.1818
 20
114.380
 30
0.000000
  70
    32
  0
VERTEX
  8
0
  5
A27
 10
39.1254
 20
114.393
 30
0.000000
  70
    32
  0
VERTEX
  8
0
  5
A28
 10
39.0688
 20
114.404
 30
0.000000
  70
    32
  0
VERTEX
  8
0
  5
A29
 10
39.0120
 20
114.414
 30
0.000000
  70
    32
  0
VERTEX
  8
0
  5
A2A
 10
38.9549
 20
114.424
 30
0.000000
  70
    32
  0
VERTEX
  8
0
  5
A2B
 10
38.8976
 20
114.432
 30
0.000000
  70
    32
  0
VERTEX
  8
0
  5
A2C
 10
38.8402
 20
114.440
 30
0.000000
  70
    32
  0
VERTEX
  8
0
  5
A2D
 10
38.7826
 20
114.447
 30
0.000000
  70
    32
  0
VERTEX
  8
0
  5
A2E
 10
38.7249
 20
114.453
 30
0.000000
  70
    32
  0
VERTEX
  8
0
  5
A2F
 10
38.6671
 20
114.457
 30
0.000000
  70
    32
  0
VERTEX
  8
0
  5
A30
 10
38.6091
 20
114.461
 30
0.000000
  70
    32
  0
VERTEX
  8
0
  5
A31
 10
38.5511
 20
114.464
 30
0.000000
  70
    32
  0
VERTEX
  8
0
  5
A32
 10
38.4931
 20
114.466
 30
0.000000
  70
    32
  0
VERTEX
  8
0
  5
A33
 10
38.4350
 20
114.467
 30
0.000000
  70
    32
  0
VERTEX
  8
0
  5
A34
 10
38.3769
 20
114.468
 30
0.000000
  70
    32
  0
VERTEX
  8
0
  5
A35
 10
38.3188
 20
114.467
 30
0.000000
  70
    32
  0
VERTEX
  8
0
  5
A36
 10
38.2607
 20
114.465
 30
0.000000
  70
    32
  0
VERTEX
  8
0
  5
A37
 10
38.2027
 20
114.463
 30
0.000000
  70
    32
  0
VERTEX
  8
0
  5
A38
 10
38.1447
 20
114.459
 30
0.000000
  70
    32
  0
VERTEX
  8
0
  5
A39
 10
38.0869
 20
114.455
 30
0.000000
  70
    32
  0
VERTEX
  8
0
  5
A3A
 10
38.0291
 20
114.449
 30
0.000000
  70
    32
  0
VERTEX
  8
0
  5
A3B
 10
37.9715
 20
114.443
 30
0.000000
  70
    32
  0
VERTEX
  8
0
  5
A3C
 10
37.9140
 20
114.436
 30
0.000000
  70
    32
  0
VERTEX
  8
0
  5
A3D
 10
37.8566
 20
114.427
 30
0.000000
  70
    32
  0
VERTEX
  8
0
  5
A3E
 10
37.7995
 20
114.418
 30
0.000000
  70
    32
  0
VERTEX
  8
0
  5
A3F
 10
37.7426
 20
114.408
 30
0.000000
  70
    32
  0
VERTEX
  8
0
  5
A40
 10
37.6859
 20
114.397
 30
0.000000
  70
    32
  0
VERTEX
  8
0
  5
A41
 10
37.6294
 20
114.385
 30
0.000000
  70
    32
  0
VERTEX
  8
0
  5
A42
 10
37.5732
 20
114.373
 30
0.000000
  70
    32
  0
VERTEX
  8
0
  5
A43
 10
37.5173
 20
114.359
 30
0.000000
  70
    32
  0
VERTEX
  8
0
  5
A44
 10
37.4617
 20
114.345
 30
0.000000
  70
    32
  0
VERTEX
  8
0
  5
A45
 10
37.4064
 20
114.329
 30
0.000000
  70
    32
  0
VERTEX
  8
0
  5
A46
 10
37.3514
 20
114.313
 30
0.000000
  70
    32
  0
VERTEX
  8
0
  5
A47
 10
37.2968
 20
114.296
 30
0.000000
  70
    32
  0
VERTEX
  8
0
  5
A48
 10
37.2426
 20
114.278
 30
0.000000
  70
    32
  0
VERTEX
  8
0
  5
A49
 10
37.1888
 20
114.259
 30
0.000000
  70
    32
  0
VERTEX
  8
0
  5
A4A
 10
37.1354
 20
114.239
 30
0.000000
  70
    32
  0
VERTEX
  8
0
  5
A4B
 10
37.0824
 20
114.218
 30
0.000000
  70
    32
  0
VERTEX
  8
0
  5
A4C
 10
37.0299
 20
114.197
 30
0.000000
  70
    32
  0
VERTEX
  8
0
  5
A4D
 10
36.9779
 20
114.174
 30
0.000000
  70
    32
  0
VERTEX
  8
0
  5
A4E
 10
36.9264
 20
114.151
 30
0.000000
  70
    32
  0
VERTEX
  8
0
  5
A4F
 10
36.8753
 20
114.127
 30
0.000000
  70
    32
  0
VERTEX
  8
0
  5
A50
 10
36.8248
 20
114.102
 30
0.000000
  70
    32
  0
VERTEX
  8
0
  5
A51
 10
36.7748
 20
114.077
 30
0.000000
  70
    32
  0
VERTEX
  8
0
  5
A52
 10
36.7254
 20
114.050
 30
0.000000
  70
    32
  0
VERTEX
  8
0
  5
A53
 10
36.6766
 20
114.023
 30
0.000000
  70
    32
  0
VERTEX
  8
0
  5
A54
 10
36.6283
 20
113.995
 30
0.000000
  70
    32
  0
VERTEX
  8
0
  5
A55
 10
36.5807
 20
113.966
 30
0.000000
  70
    32
  0
VERTEX
  8
0
  5
A56
 10
36.5337
 20
113.937
 30
0.000000
  70
    32
  0
VERTEX
  8
0
  5
A57
 10
36.4874
 20
113.906
 30
0.000000
  70
    32
  0
VERTEX
  8
0
  5
A58
 10
36.4417
 20
113.875
 30
0.000000
  70
    32
  0
VERTEX
  8
0
  5
A59
 10
36.3966
 20
113.844
 30
0.000000
  70
    32
  0
VERTEX
  8
0
  5
A5A
 10
36.3523
 20
113.811
 30
0.000000
  70
    32
  0
VERTEX
  8
0
  5
A5B
 10
36.3087
 20
113.778
 30
0.000000
  70
    32
  0
VERTEX
  8
0
  5
A5C
 10
36.2658
 20
113.744
 30
0.000000
  70
    32
  0
VERTEX
  8
0
  5
A5D
 10
36.2236
 20
113.709
 30
0.000000
  70
    32
  0
VERTEX
  8
0
  5
A5E
 10
36.1822
 20
113.674
 30
0.000000
  70
    32
  0
VERTEX
  8
0
  5
A5F
 10
36.1415
 20
113.638
 30
0.000000
  70
    32
  0
VERTEX
  8
0
  5
A60
 10
36.1016
 20
113.602
 30
0.000000
  70
    32
  0
VERTEX
  8
0
  5
A61
 10
36.0625
 20
113.565
 30
0.000000
  70
    32
  0
VERTEX
  8
0
  5
A62
 10
36.0243
 20
113.527
 30
0.000000
  70
    32
  0
VERTEX
  8
0
  5
A63
 10
35.9868
 20
113.488
 30
0.000000
  70
    32
  0
VERTEX
  8
0
  5
A64
 10
35.9502
 20
113.449
 30
0.000000
  70
    32
  0
VERTEX
  8
0
  5
A65
 10
35.9144
 20
113.410
 30
0.000000
  70
    32
  0
VERTEX
  8
0
  5
A66
 10
35.8795
 20
113.370
 30
0.000000
  70
    32
  0
VERTEX
  8
0
  5
A67
 10
35.8454
 20
113.329
 30
0.000000
  70
    32
  0
VERTEX
  8
0
  5
A68
 10
35.8122
 20
113.288
 30
0.000000
  70
    32
  0
VERTEX
  8
0
  5
A69
 10
35.7800
 20
113.246
 30
0.000000
  70
    32
  0
VERTEX
  8
0
  5
A6A
 10
35.7486
 20
113.204
 30
0.000000
  70
    32
  0
VERTEX
  8
0
  5
A6B
 10
35.7181
 20
113.161
 30
0.000000
  70
    32
  0
VERTEX
  8
0
  5
A6C
 10
35.6886
 20
113.118
 30
0.000000
  70
    32
  0
VERTEX
  8
0
  5
A6D
 10
35.6600
 20
113.074
 30
0.000000
  70
    32
  0
VERTEX
  8
0
  5
A6E
 10
35.6323
 20
113.030
 30
0.000000
  70
    32
  0
VERTEX
  8
0
  5
A6F
 10
35.6056
 20
112.985
 30
0.000000
  70
    32
  0
VERTEX
  8
0
  5
A70
 10
35.5799
 20
112.940
 30
0.000000
  70
    32
  0
VERTEX
  8
0
  5
A71
 10
35.5551
 20
112.895
 30
0.000000
  70
    32
  0
VERTEX
  8
0
  5
A72
 10
35.5313
 20
112.849
 30
0.000000
  70
    32
  0
VERTEX
  8
0
  5
A73
 10
35.5085
 20
112.803
 30
0.000000
  70
    32
  0
VERTEX
  8
0
  5
A74
 10
35.4867
 20
112.756
 30
0.000000
  70
    32
  0
SEQEND
  8
0
  5
A75
  0
LINE
  5
415
  8
0
 10
45.359298929911603
 20
100.28747030003289
 30
0.0
 11
45.359298929911603
 21
100.6088273963483
 31
0.0
  0
LINE
  5
416
  8
0
 10
45.359298929911603
 20
100.6088273963483
 30
0.0
 11
45.394298929911621
 21
102.6175685676377
 31
0.0
  0
LINE
  5
417
  8
0
 10
31.429298929911599
 20
100.6088273963483
 30
0.0
 11
31.394298929911571
 21
102.6175685676377
 31
0.0
  0
LINE
  5
418
  8
0
 10
31.429298929911599
 20
100.28747030003289
 30
0.0
 11
31.429298929911599
 21
100.6088273963483
 31
0.0
  0
ARC
  5
419
  8
0
 10
93.378291253971952
 20
99.930275199239304
 30
0.0
 40
17.324561624508821
 50
160.56565392324529
 51
177.75531843057121
  0
ARC
  5
41A
  8
0
 10
77.756886038036612
 20
105.4715548687317
 30
0.0
 40
0.75
 50
103.0000000000026
 51
162.6976205502385
  0
ARC
  5
41B
  8
0
 10
48.608630350322699
 20
100.00755545616011
 30
0.0
 40
17.411070463754861
 50
154.63114496590421
 51
171.37855684221199
  0
CIRCLE
  5
41C
  8
0
 10
83.067023178027796
 20
154.94397312882941
 30
0.0
 40
5.4788504307491053
  0
ARC
  5
41D
  8
0
 10
103.29496769056421
 20
106.9725511648482
 30
0.0
 40
15.0
 50
190.49432937773099
 51
206.46634483904461
  0
ARC
  5
41E
  8
0
 10
103.49951706387419
 20
105.4403756457224
 30
0.0
 40
15.0
 50
168.21851651757379
 51
184.50567062226779
  0
LINE
  5
41F
  8
0
 10
77.588172747278691
 20
106.20233241732051
 30
0.0
 11
112.77506771618209
 21
114.40210629005421
 31
0.0
  0
ARC
  5
420
  8
0
 10
88.619728996413926
 20
108.5439070322995
 30
0.0
 40
0.2
 50
348.21851651757731
 51
103.00000000000099
  0
ARC
  5
421
  8
0
 10
28.1799675095005
 20
100.00755545616011
 30
0.0
 40
17.411070463754879
 50
8.6214431577879918
 51
25.368855034095731
  0
POLYLINE
  5
422
  8
0
 10
34.394298929911635
 20
108.39480714077108
 30
0.0
 66
     1
 70
     8
  0
VERTEX
  8
0
  5
A76
 10
34.3943
 20
108.395
 30
0.000000
  70
    32
  0
VERTEX
  8
0
  5
A77
 10
34.2586
 20
108.359
 30
0.000000
  70
    32
  0
VERTEX
  8
0
  5
A78
 10
34.1283
 20
108.321
 30
0.000000
  70
    32
  0
VERTEX
  8
0
  5
A79
 10
34.0037
 20
108.283
 30
0.000000
  70
    32
  0
VERTEX
  8
0
  5
A7A
 10
33.8850
 20
108.243
 30
0.000000
  70
    32
  0
VERTEX
  8
0
  5
A7B
 10
33.7722
 20
108.203
 30
0.000000
  70
    32
  0
VERTEX
  8
0
  5
A7C
 10
33.6655
 20
108.161
 30
0.000000
  70
    32
  0
VERTEX
  8
0
  5
A7D
 10
33.5651
 20
108.119
 30
0.000000
  70
    32
  0
VERTEX
  8
0
  5
A7E
 10
33.4712
 20
108.075
 30
0.000000
  70
    32
  0
VERTEX
  8
0
  5
A7F
 10
33.3837
 20
108.031
 30
0.000000
  70
    32
  0
VERTEX
  8
0
  5
A80
 10
33.3029
 20
107.986
 30
0.000000
  70
    32
  0
VERTEX
  8
0
  5
A81
 10
33.2288
 20
107.941
 30
0.000000
  70
    32
  0
VERTEX
  8
0
  5
A82
 10
33.1616
 20
107.894
 30
0.000000
  70
    32
  0
VERTEX
  8
0
  5
A83
 10
33.1014
 20
107.848
 30
0.000000
  70
    32
  0
VERTEX
  8
0
  5
A84
 10
33.0481
 20
107.800
 30
0.000000
  70
    32
  0
VERTEX
  8
0
  5
A85
 10
33.0019
 20
107.753
 30
0.000000
  70
    32
  0
VERTEX
  8
0
  5
A86
 10
32.9629
 20
107.705
 30
0.000000
  70
    32
  0
VERTEX
  8
0
  5
A87
 10
32.9311
 20
107.656
 30
0.000000
  70
    32
  0
VERTEX
  8
0
  5
A88
 10
32.9066
 20
107.608
 30
0.000000
  70
    32
  0
VERTEX
  8
0
  5
A89
 10
32.8893
 20
107.559
 30
0.000000
  70
    32
  0
VERTEX
  8
0
  5
A8A
 10
32.8793
 20
107.510
 30
0.000000
  70
    32
  0
VERTEX
  8
0
  5
A8B
 10
32.8766
 20
107.461
 30
0.000000
  70
    32
  0
VERTEX
  8
0
  5
A8C
 10
32.8812
 20
107.412
 30
0.000000
  70
    32
  0
VERTEX
  8
0
  5
A8D
 10
32.8932
 20
107.363
 30
0.000000
  70
    32
  0
VERTEX
  8
0
  5
A8E
 10
32.9124
 20
107.314
 30
0.000000
  70
    32
  0
VERTEX
  8
0
  5
A8F
 10
32.9390
 20
107.265
 30
0.000000
  70
    32
  0
VERTEX
  8
0
  5
A90
 10
32.9727
 20
107.217
 30
0.000000
  70
    32
  0
VERTEX
  8
0
  5
A91
 10
33.0136
 20
107.169
 30
0.000000
  70
    32
  0
VERTEX
  8
0
  5
A92
 10
33.0617
 20
107.121
 30
0.000000
  70
    32
  0
VERTEX
  8
0
  5
A93
 10
33.1169
 20
107.074
 30
0.000000
  70
    32
  0
VERTEX
  8
0
  5
A94
 10
33.1790
 20
107.028
 30
0.000000
  70
    32
  0
VERTEX
  8
0
  5
A95
 10
33.2480
 20
106.981
 30
0.000000
  70
    32
  0
VERTEX
  8
0
  5
A96
 10
33.3239
 20
106.936
 30
0.000000
  70
    32
  0
VERTEX
  8
0
  5
A97
 10
33.4065
 20
106.891
 30
0.000000
  70
    32
  0
VERTEX
  8
0
  5
A98
 10
33.4958
 20
106.847
 30
0.000000
  70
    32
  0
VERTEX
  8
0
  5
A99
 10
33.5915
 20
106.804
 30
0.000000
  70
    32
  0
VERTEX
  8
0
  5
A9A
 10
33.6935
 20
106.762
 30
0.000000
  70
    32
  0
VERTEX
  8
0
  5
A9B
 10
33.8019
 20
106.721
 30
0.000000
  70
    32
  0
VERTEX
  8
0
  5
A9C
 10
33.9163
 20
106.680
 30
0.000000
  70
    32
  0
VERTEX
  8
0
  5
A9D
 10
34.0366
 20
106.641
 30
0.000000
  70
    32
  0
VERTEX
  8
0
  5
A9E
 10
34.1627
 20
106.603
 30
0.000000
  70
    32
  0
VERTEX
  8
0
  5
A9F
 10
34.2945
 20
106.566
 30
0.000000
  70
    32
  0
VERTEX
  8
0
  5
AA0
 10
34.4316
 20
106.530
 30
0.000000
  70
    32
  0
VERTEX
  8
0
  5
AA1
 10
34.5741
 20
106.496
 30
0.000000
  70
    32
  0
VERTEX
  8
0
  5
AA2
 10
34.7215
 20
106.462
 30
0.000000
  70
    32
  0
VERTEX
  8
0
  5
AA3
 10
34.8739
 20
106.430
 30
0.000000
  70
    32
  0
VERTEX
  8
0
  5
AA4
 10
35.0309
 20
106.400
 30
0.000000
  70
    32
  0
VERTEX
  8
0
  5
AA5
 10
35.1924
 20
106.371
 30
0.000000
  70
    32
  0
VERTEX
  8
0
  5
AA6
 10
35.3581
 20
106.343
 30
0.000000
  70
    32
  0
VERTEX
  8
0
  5
AA7
 10
35.5279
 20
106.317
 30
0.000000
  70
    32
  0
VERTEX
  8
0
  5
AA8
 10
35.7015
 20
106.292
 30
0.000000
  70
    32
  0
VERTEX
  8
0
  5
AA9
 10
35.8786
 20
106.269
 30
0.000000
  70
    32
  0
VERTEX
  8
0
  5
AAA
 10
36.0591
 20
106.247
 30
0.000000
  70
    32
  0
VERTEX
  8
0
  5
AAB
 10
36.2426
 20
106.227
 30
0.000000
  70
    32
  0
VERTEX
  8
0
  5
AAC
 10
36.4290
 20
106.209
 30
0.000000
  70
    32
  0
VERTEX
  8
0
  5
AAD
 10
36.6181
 20
106.192
 30
0.000000
  70
    32
  0
VERTEX
  8
0
  5
AAE
 10
36.8094
 20
106.177
 30
0.000000
  70
    32
  0
VERTEX
  8
0
  5
AAF
 10
37.0029
 20
106.164
 30
0.000000
  70
    32
  0
VERTEX
  8
0
  5
AB0
 10
37.1982
 20
106.153
 30
0.000000
  70
    32
  0
VERTEX
  8
0
  5
AB1
 10
37.3952
 20
106.143
 30
0.000000
  70
    32
  0
VERTEX
  8
0
  5
AB2
 10
37.5934
 20
106.135
 30
0.000000
  70
    32
  0
VERTEX
  8
0
  5
AB3
 10
37.7927
 20
106.129
 30
0.000000
  70
    32
  0
VERTEX
  8
0
  5
AB4
 10
37.9928
 20
106.124
 30
0.000000
  70
    32
  0
VERTEX
  8
0
  5
AB5
 10
38.1934
 20
106.121
 30
0.000000
  70
    32
  0
VERTEX
  8
0
  5
AB6
 10
38.3943
 20
106.121
 30
0.000000
  70
    32
  0
VERTEX
  8
0
  5
AB7
 10
38.5952
 20
106.121
 30
0.000000
  70
    32
  0
VERTEX
  8
0
  5
AB8
 10
38.7958
 20
106.124
 30
0.000000
  70
    32
  0
VERTEX
  8
0
  5
AB9
 10
38.9959
 20
106.129
 30
0.000000
  70
    32
  0
VERTEX
  8
0
  5
ABA
 10
39.1952
 20
106.135
 30
0.000000
  70
    32
  0
VERTEX
  8
0
  5
ABB
 10
39.3934
 20
106.143
 30
0.000000
  70
    32
  0
VERTEX
  8
0
  5
ABC
 10
39.5904
 20
106.153
 30
0.000000
  70
    32
  0
VERTEX
  8
0
  5
ABD
 10
39.7857
 20
106.164
 30
0.000000
  70
    32
  0
VERTEX
  8
0
  5
ABE
 10
39.9792
 20
106.177
 30
0.000000
  70
    32
  0
VERTEX
  8
0
  5
ABF
 10
40.1705
 20
106.192
 30
0.000000
  70
    32
  0
VERTEX
  8
0
  5
AC0
 10
40.3596
 20
106.209
 30
0.000000
  70
    32
  0
VERTEX
  8
0
  5
AC1
 10
40.5460
 20
106.227
 30
0.000000
  70
    32
  0
VERTEX
  8
0
  5
AC2
 10
40.7295
 20
106.247
 30
0.000000
  70
    32
  0
VERTEX
  8
0
  5
AC3
 10
40.9100
 20
106.269
 30
0.000000
  70
    32
  0
VERTEX
  8
0
  5
AC4
 10
41.0871
 20
106.292
 30
0.000000
  70
    32
  0
VERTEX
  8
0
  5
AC5
 10
41.2607
 20
106.317
 30
0.000000
  70
    32
  0
VERTEX
  8
0
  5
AC6
 10
41.4304
 20
106.343
 30
0.000000
  70
    32
  0
VERTEX
  8
0
  5
AC7
 10
41.5962
 20
106.371
 30
0.000000
  70
    32
  0
VERTEX
  8
0
  5
AC8
 10
41.7577
 20
106.400
 30
0.000000
  70
    32
  0
VERTEX
  8
0
  5
AC9
 10
41.9147
 20
106.430
 30
0.000000
  70
    32
  0
VERTEX
  8
0
  5
ACA
 10
42.0671
 20
106.462
 30
0.000000
  70
    32
  0
VERTEX
  8
0
  5
ACB
 10
42.2145
 20
106.496
 30
0.000000
  70
    32
  0
VERTEX
  8
0
  5
ACC
 10
42.3570
 20
106.530
 30
0.000000
  70
    32
  0
VERTEX
  8
0
  5
ACD
 10
42.4941
 20
106.566
 30
0.000000
  70
    32
  0
VERTEX
  8
0
  5
ACE
 10
42.6259
 20
106.603
 30
0.000000
  70
    32
  0
VERTEX
  8
0
  5
ACF
 10
42.7520
 20
106.641
 30
0.000000
  70
    32
  0
VERTEX
  8
0
  5
AD0
 10
42.8723
 20
106.680
 30
0.000000
  70
    32
  0
VERTEX
  8
0
  5
AD1
 10
42.9867
 20
106.721
 30
0.000000
  70
    32
  0
VERTEX
  8
0
  5
AD2
 10
43.0951
 20
106.762
 30
0.000000
  70
    32
  0
VERTEX
  8
0
  5
AD3
 10
43.1971
 20
106.804
 30
0.000000
  70
    32
  0
VERTEX
  8
0
  5
AD4
 10
43.2928
 20
106.847
 30
0.000000
  70
    32
  0
VERTEX
  8
0
  5
AD5
 10
43.3821
 20
106.891
 30
0.000000
  70
    32
  0
VERTEX
  8
0
  5
AD6
 10
43.4647
 20
106.936
 30
0.000000
  70
    32
  0
VERTEX
  8
0
  5
AD7
 10
43.5405
 20
106.981
 30
0.000000
  70
    32
  0
VERTEX
  8
0
  5
AD8
 10
43.6096
 20
107.028
 30
0.000000
  70
    32
  0
VERTEX
  8
0
  5
AD9
 10
43.6717
 20
107.074
 30
0.000000
  70
    32
  0
VERTEX
  8
0
  5
ADA
 10
43.7269
 20
107.121
 30
0.000000
  70
    32
  0
VERTEX
  8
0
  5
ADB
 10
43.7750
 20
107.169
 30
0.000000
  70
    32
  0
VERTEX
  8
0
  5
ADC
 10
43.8159
 20
107.217
 30
0.000000
  70
    32
  0
VERTEX
  8
0
  5
ADD
 10
43.8496
 20
107.265
 30
0.000000
  70
    32
  0
VERTEX
  8
0
  5
ADE
 10
43.8762
 20
107.314
 30
0.000000
  70
    32
  0
VERTEX
  8
0
  5
ADF
 10
43.8954
 20
107.363
 30
0.000000
  70
    32
  0
VERTEX
  8
0
  5
AE0
 10
43.9074
 20
107.412
 30
0.000000
  70
    32
  0
VERTEX
  8
0
  5
AE1
 10
43.9120
 20
107.461
 30
0.000000
  70
    32
  0
VERTEX
  8
0
  5
AE2
 10
43.9093
 20
107.510
 30
0.000000
  70
    32
  0
VERTEX
  8
0
  5
AE3
 10
43.8993
 20
107.559
 30
0.000000
  70
    32
  0
VERTEX
  8
0
  5
AE4
 10
43.8820
 20
107.608
 30
0.000000
  70
    32
  0
VERTEX
  8
0
  5
AE5
 10
43.8575
 20
107.656
 30
0.000000
  70
    32
  0
VERTEX
  8
0
  5
AE6
 10
43.8257
 20
107.705
 30
0.000000
  70
    32
  0
VERTEX
  8
0
  5
AE7
 10
43.7866
 20
107.753
 30
0.000000
  70
    32
  0
VERTEX
  8
0
  5
AE8
 10
43.7405
 20
107.800
 30
0.000000
  70
    32
  0
VERTEX
  8
0
  5
AE9
 10
43.6872
 20
107.848
 30
0.000000
  70
    32
  0
VERTEX
  8
0
  5
AEA
 10
43.6270
 20
107.894
 30
0.000000
  70
    32
  0
VERTEX
  8
0
  5
AEB
 10
43.5598
 20
107.941
 30
0.000000
  70
    32
  0
VERTEX
  8
0
  5
AEC
 10
43.4857
 20
107.986
 30
0.000000
  70
    32
  0
VERTEX
  8
0
  5
AED
 10
43.4049
 20
108.031
 30
0.000000
  70
    32
  0
VERTEX
  8
0
  5
AEE
 10
43.3174
 20
108.075
 30
0.000000
  70
    32
  0
VERTEX
  8
0
  5
AEF
 10
43.2234
 20
108.119
 30
0.000000
  70
    32
  0
VERTEX
  8
0
  5
AF0
 10
43.1231
 20
108.161
 30
0.000000
  70
    32
  0
VERTEX
  8
0
  5
AF1
 10
43.0164
 20
108.203
 30
0.000000
  70
    32
  0
VERTEX
  8
0
  5
AF2
 10
42.9036
 20
108.243
 30
0.000000
  70
    32
  0
VERTEX
  8
0
  5
AF3
 10
42.7849
 20
108.283
 30
0.000000
  70
    32
  0
VERTEX
  8
0
  5
AF4
 10
42.6603
 20
108.321
 30
0.000000
  70
    32
  0
VERTEX
  8
0
  5
AF5
 10
42.5300
 20
108.359
 30
0.000000
  70
    32
  0
VERTEX
  8
0
  5
AF6
 10
42.3943
 20
108.395
 30
0.000000
  70
    32
  0
SEQEND
  8
0
  5
AF7
  0
POLYLINE
  5
423
  8
0
 10
34.394298929911614
 20
107.83152856647865
 30
0.0
 66
     1
 70
     8
  0
VERTEX
  8
0
  5
AF8
 10
34.3943
 20
107.832
 30
0.000000
  70
    32
  0
VERTEX
  8
0
  5
AF9
 10
34.3482
 20
107.803
 30
0.000000
  70
    32
  0
VERTEX
  8
0
  5
AFA
 10
34.3058
 20
107.775
 30
0.000000
  70
    32
  0
VERTEX
  8
0
  5
AFB
 10
34.2672
 20
107.746
 30
0.000000
  70
    32
  0
VERTEX
  8
0
  5
AFC
 10
34.2324
 20
107.717
 30
0.000000
  70
    32
  0
VERTEX
  8
0
  5
AFD
 10
34.2014
 20
107.687
 30
0.000000
  70
    32
  0
VERTEX
  8
0
  5
AFE
 10
34.1744
 20
107.658
 30
0.000000
  70
    32
  0
VERTEX
  8
0
  5
AFF
 10
34.1512
 20
107.628
 30
0.000000
  70
    32
  0
VERTEX
  8
0
  5
B00
 10
34.1320
 20
107.598
 30
0.000000
  70
    32
  0
VERTEX
  8
0
  5
B01
 10
34.1167
 20
107.568
 30
0.000000
  70
    32
  0
VERTEX
  8
0
  5
B02
 10
34.1053
 20
107.538
 30
0.000000
  70
    32
  0
VERTEX
  8
0
  5
B03
 10
34.0979
 20
107.508
 30
0.000000
  70
    32
  0
VERTEX
  8
0
  5
B04
 10
34.0945
 20
107.478
 30
0.000000
  70
    32
  0
VERTEX
  8
0
  5
B05
 10
34.0951
 20
107.448
 30
0.000000
  70
    32
  0
VERTEX
  8
0
  5
B06
 10
34.0997
 20
107.418
 30
0.000000
  70
    32
  0
VERTEX
  8
0
  5
B07
 10
34.1082
 20
107.387
 30
0.000000
  70
    32
  0
VERTEX
  8
0
  5
B08
 10
34.1207
 20
107.357
 30
0.000000
  70
    32
  0
VERTEX
  8
0
  5
B09
 10
34.1372
 20
107.327
 30
0.000000
  70
    32
  0
VERTEX
  8
0
  5
B0A
 10
34.1575
 20
107.298
 30
0.000000
  70
    32
  0
VERTEX
  8
0
  5
B0B
 10
34.1818
 20
107.268
 30
0.000000
  70
    32
  0
VERTEX
  8
0
  5
B0C
 10
34.2100
 20
107.238
 30
0.000000
  70
    32
  0
VERTEX
  8
0
  5
B0D
 10
34.2421
 20
107.209
 30
0.000000
  70
    32
  0
VERTEX
  8
0
  5
B0E
 10
34.2780
 20
107.180
 30
0.000000
  70
    32
  0
VERTEX
  8
0
  5
B0F
 10
34.3177
 20
107.151
 30
0.000000
  70
    32
  0
VERTEX
  8
0
  5
B10
 10
34.3612
 20
107.123
 30
0.000000
  70
    32
  0
VERTEX
  8
0
  5
B11
 10
34.4085
 20
107.095
 30
0.000000
  70
    32
  0
VERTEX
  8
0
  5
B12
 10
34.4594
 20
107.067
 30
0.000000
  70
    32
  0
VERTEX
  8
0
  5
B13
 10
34.5139
 20
107.039
 30
0.000000
  70
    32
  0
VERTEX
  8
0
  5
B14
 10
34.5720
 20
107.012
 30
0.000000
  70
    32
  0
VERTEX
  8
0
  5
B15
 10
34.6337
 20
106.986
 30
0.000000
  70
    32
  0
VERTEX
  8
0
  5
B16
 10
34.6989
 20
106.960
 30
0.000000
  70
    32
  0
VERTEX
  8
0
  5
B17
 10
34.7674
 20
106.934
 30
0.000000
  70
    32
  0
VERTEX
  8
0
  5
B18
 10
34.8394
 20
106.909
 30
0.000000
  70
    32
  0
VERTEX
  8
0
  5
B19
 10
34.9146
 20
106.884
 30
0.000000
  70
    32
  0
VERTEX
  8
0
  5
B1A
 10
34.9930
 20
106.860
 30
0.000000
  70
    32
  0
VERTEX
  8
0
  5
B1B
 10
35.0746
 20
106.836
 30
0.000000
  70
    32
  0
VERTEX
  8
0
  5
B1C
 10
35.1592
 20
106.813
 30
0.000000
  70
    32
  0
VERTEX
  8
0
  5
B1D
 10
35.2469
 20
106.791
 30
0.000000
  70
    32
  0
VERTEX
  8
0
  5
B1E
 10
35.3374
 20
106.769
 30
0.000000
  70
    32
  0
VERTEX
  8
0
  5
B1F
 10
35.4308
 20
106.748
 30
0.000000
  70
    32
  0
VERTEX
  8
0
  5
B20
 10
35.5269
 20
106.727
 30
0.000000
  70
    32
  0
VERTEX
  8
0
  5
B21
 10
35.6257
 20
106.708
 30
0.000000
  70
    32
  0
VERTEX
  8
0
  5
B22
 10
35.7270
 20
106.689
 30
0.000000
  70
    32
  0
VERTEX
  8
0
  5
B23
 10
35.8308
 20
106.670
 30
0.000000
  70
    32
  0
VERTEX
  8
0
  5
B24
 10
35.9370
 20
106.653
 30
0.000000
  70
    32
  0
VERTEX
  8
0
  5
B25
 10
36.0454
 20
106.636
 30
0.000000
  70
    32
  0
VERTEX
  8
0
  5
B26
 10
36.1560
 20
106.620
 30
0.000000
  70
    32
  0
VERTEX
  8
0
  5
B27
 10
36.2687
 20
106.604
 30
0.000000
  70
    32
  0
VERTEX
  8
0
  5
B28
 10
36.3834
 20
106.590
 30
0.000000
  70
    32
  0
VERTEX
  8
0
  5
B29
 10
36.4999
 20
106.576
 30
0.000000
  70
    32
  0
VERTEX
  8
0
  5
B2A
 10
36.6182
 20
106.563
 30
0.000000
  70
    32
  0
VERTEX
  8
0
  5
B2B
 10
36.7381
 20
106.551
 30
0.000000
  70
    32
  0
VERTEX
  8
0
  5
B2C
 10
36.8595
 20
106.540
 30
0.000000
  70
    32
  0
VERTEX
  8
0
  5
B2D
 10
36.9824
 20
106.530
 30
0.000000
  70
    32
  0
VERTEX
  8
0
  5
B2E
 10
37.1065
 20
106.520
 30
0.000000
  70
    32
  0
VERTEX
  8
0
  5
B2F
 10
37.2319
 20
106.511
 30
0.000000
  70
    32
  0
VERTEX
  8
0
  5
B30
 10
37.3583
 20
106.504
 30
0.000000
  70
    32
  0
VERTEX
  8
0
  5
B31
 10
37.4857
 20
106.497
 30
0.000000
  70
    32
  0
VERTEX
  8
0
  5
B32
 10
37.6139
 20
106.491
 30
0.000000
  70
    32
  0
VERTEX
  8
0
  5
B33
 10
37.7429
 20
106.486
 30
0.000000
  70
    32
  0
VERTEX
  8
0
  5
B34
 10
37.8725
 20
106.482
 30
0.000000
  70
    32
  0
VERTEX
  8
0
  5
B35
 10
38.0025
 20
106.479
 30
0.000000
  70
    32
  0
VERTEX
  8
0
  5
B36
 10
38.1329
 20
106.476
 30
0.000000
  70
    32
  0
VERTEX
  8
0
  5
B37
 10
38.2635
 20
106.475
 30
0.000000
  70
    32
  0
VERTEX
  8
0
  5
B38
 10
38.3943
 20
106.474
 30
0.000000
  70
    32
  0
VERTEX
  8
0
  5
B39
 10
38.5251
 20
106.475
 30
0.000000
  70
    32
  0
VERTEX
  8
0
  5
B3A
 10
38.6557
 20
106.476
 30
0.000000
  70
    32
  0
VERTEX
  8
0
  5
B3B
 10
38.7861
 20
106.479
 30
0.000000
  70
    32
  0
VERTEX
  8
0
  5
B3C
 10
38.9161
 20
106.482
 30
0.000000
  70
    32
  0
VERTEX
  8
0
  5
B3D
 10
39.0457
 20
106.486
 30
0.000000
  70
    32
  0
VERTEX
  8
0
  5
B3E
 10
39.1747
 20
106.491
 30
0.000000
  70
    32
  0
VERTEX
  8
0
  5
B3F
 10
39.3029
 20
106.497
 30
0.000000
  70
    32
  0
VERTEX
  8
0
  5
B40
 10
39.4303
 20
106.504
 30
0.000000
  70
    32
  0
VERTEX
  8
0
  5
B41
 10
39.5567
 20
106.511
 30
0.000000
  70
    32
  0
VERTEX
  8
0
  5
B42
 10
39.6821
 20
106.520
 30
0.000000
  70
    32
  0
VERTEX
  8
0
  5
B43
 10
39.8062
 20
106.530
 30
0.000000
  70
    32
  0
VERTEX
  8
0
  5
B44
 10
39.9291
 20
106.540
 30
0.000000
  70
    32
  0
VERTEX
  8
0
  5
B45
 10
40.0505
 20
106.551
 30
0.000000
  70
    32
  0
VERTEX
  8
0
  5
B46
 10
40.1704
 20
106.563
 30
0.000000
  70
    32
  0
VERTEX
  8
0
  5
B47
 10
40.2887
 20
106.576
 30
0.000000
  70
    32
  0
VERTEX
  8
0
  5
B48
 10
40.4052
 20
106.590
 30
0.000000
  70
    32
  0
VERTEX
  8
0
  5
B49
 10
40.5199
 20
106.604
 30
0.000000
  70
    32
  0
VERTEX
  8
0
  5
B4A
 10
40.6326
 20
106.620
 30
0.000000
  70
    32
  0
VERTEX
  8
0
  5
B4B
 10
40.7432
 20
106.636
 30
0.000000
  70
    32
  0
VERTEX
  8
0
  5
B4C
 10
40.8516
 20
106.653
 30
0.000000
  70
    32
  0
VERTEX
  8
0
  5
B4D
 10
40.9578
 20
106.670
 30
0.000000
  70
    32
  0
VERTEX
  8
0
  5
B4E
 10
41.0616
 20
106.689
 30
0.000000
  70
    32
  0
VERTEX
  8
0
  5
B4F
 10
41.1629
 20
106.708
 30
0.000000
  70
    32
  0
VERTEX
  8
0
  5
B50
 10
41.2617
 20
106.727
 30
0.000000
  70
    32
  0
VERTEX
  8
0
  5
B51
 10
41.3578
 20
106.748
 30
0.000000
  70
    32
  0
VERTEX
  8
0
  5
B52
 10
41.4512
 20
106.769
 30
0.000000
  70
    32
  0
VERTEX
  8
0
  5
B53
 10
41.5417
 20
106.791
 30
0.000000
  70
    32
  0
VERTEX
  8
0
  5
B54
 10
41.6294
 20
106.813
 30
0.000000
  70
    32
  0
VERTEX
  8
0
  5
B55
 10
41.7140
 20
106.836
 30
0.000000
  70
    32
  0
VERTEX
  8
0
  5
B56
 10
41.7956
 20
106.860
 30
0.000000
  70
    32
  0
VERTEX
  8
0
  5
B57
 10
41.8740
 20
106.884
 30
0.000000
  70
    32
  0
VERTEX
  8
0
  5
B58
 10
41.9492
 20
106.909
 30
0.000000
  70
    32
  0
VERTEX
  8
0
  5
B59
 10
42.0212
 20
106.934
 30
0.000000
  70
    32
  0
VERTEX
  8
0
  5
B5A
 10
42.0897
 20
106.960
 30
0.000000
  70
    32
  0
VERTEX
  8
0
  5
B5B
 10
42.1549
 20
106.986
 30
0.000000
  70
    32
  0
VERTEX
  8
0
  5
B5C
 10
42.2166
 20
107.012
 30
0.000000
  70
    32
  0
VERTEX
  8
0
  5
B5D
 10
42.2747
 20
107.039
 30
0.000000
  70
    32
  0
VERTEX
  8
0
  5
B5E
 10
42.3292
 20
107.067
 30
0.000000
  70
    32
  0
VERTEX
  8
0
  5
B5F
 10
42.3801
 20
107.095
 30
0.000000
  70
    32
  0
VERTEX
  8
0
  5
B60
 10
42.4274
 20
107.123
 30
0.000000
  70
    32
  0
VERTEX
  8
0
  5
B61
 10
42.4709
 20
107.151
 30
0.000000
  70
    32
  0
VERTEX
  8
0
  5
B62
 10
42.5106
 20
107.180
 30
0.000000
  70
    32
  0
VERTEX
  8
0
  5
B63
 10
42.5465
 20
107.209
 30
0.000000
  70
    32
  0
VERTEX
  8
0
  5
B64
 10
42.5786
 20
107.238
 30
0.000000
  70
    32
  0
VERTEX
  8
0
  5
B65
 10
42.6068
 20
107.268
 30
0.000000
  70
    32
  0
VERTEX
  8
0
  5
B66
 10
42.6311
 20
107.298
 30
0.000000
  70
    32
  0
VERTEX
  8
0
  5
B67
 10
42.6514
 20
107.327
 30
0.000000
  70
    32
  0
VERTEX
  8
0
  5
B68
 10
42.6679
 20
107.357
 30
0.000000
  70
    32
  0
VERTEX
  8
0
  5
B69
 10
42.6804
 20
107.387
 30
0.000000
  70
    32
  0
VERTEX
  8
0
  5
B6A
 10
42.6889
 20
107.418
 30
0.000000
  70
    32
  0
VERTEX
  8
0
  5
B6B
 10
42.6935
 20
107.448
 30
0.000000
  70
    32
  0
VERTEX
  8
0
  5
B6C
 10
42.6940
 20
107.478
 30
0.000000
  70
    32
  0
VERTEX
  8
0
  5
B6D
 10
42.6907
 20
107.508
 30
0.000000
  70
    32
  0
VERTEX
  8
0
  5
B6E
 10
42.6833
 20
107.538
 30
0.000000
  70
    32
  0
VERTEX
  8
0
  5
B6F
 10
42.6719
 20
107.568
 30
0.000000
  70
    32
  0
VERTEX
  8
0
  5
B70
 10
42.6566
 20
107.598
 30
0.000000
  70
    32
  0
VERTEX
  8
0
  5
B71
 10
42.6374
 20
107.628
 30
0.000000
  70
    32
  0
VERTEX
  8
0
  5
B72
 10
42.6142
 20
107.658
 30
0.000000
  70
    32
  0
VERTEX
  8
0
  5
B73
 10
42.5872
 20
107.687
 30
0.000000
  70
    32
  0
VERTEX
  8
0
  5
B74
 10
42.5562
 20
107.717
 30
0.000000
  70
    32
  0
VERTEX
  8
0
  5
B75
 10
42.5214
 20
107.746
 30
0.000000
  70
    32
  0
VERTEX
  8
0
  5
B76
 10
42.4828
 20
107.775
 30
0.000000
  70
    32
  0
VERTEX
  8
0
  5
B77
 10
42.4404
 20
107.803
 30
0.000000
  70
    32
  0
VERTEX
  8
0
  5
B78
 10
42.3943
 20
107.832
 30
0.000000
  70
    32
  0
SEQEND
  8
0
  5
B79
  0
ARC
  5
424
  8
0
 10
90.128504515817212
 20
102.28747030003289
 30
0.0
 40
2.0
 50
270.0
 51
289.99999999999949
  0
ARC
  5
425
  8
0
 10
83.067023178027796
 20
154.94397312882941
 30
0.0
 40
2.7567916134521511
 50
175.97735839169451
 51
184.02264160830549
  0
ARC
  5
426
  8
0
 10
83.067023178027796
 20
154.94397312882941
 30
0.0
 40
2.7567916134521511
 50
190.97839132993971
 51
349.02160867006029
  0
ARC
  5
427
  8
0
 10
83.067023178027796
 20
154.94397312882941
 30
0.0
 40
2.7567916134521511
 50
10.978391329936191
 51
169.02160867006029
  0
LINE
  5
428
  8
0
 10
80.317023178027853
 20
155.4689731288293
 30
0.0
 11
80.317023178027853
 21
154.41897312882941
 31
0.0
  0
LINE
  5
429
  8
0
 10
85.817023178027796
 20
155.4689731288293
 30
0.0
 11
85.817023178027796
 21
154.41897312882941
 31
0.0
  0
ARC
  5
42A
  8
0
 10
83.067023178027796
 20
154.94397312882941
 30
0.0
 40
2.7567916134521511
 50
355.97735839170429
 51
4.0226416082990033
  0
LINE
  5
42B
  8
0
 10
84.456240078893813
 20
154.41897312882941
 30
0.0
 11
85.817023178027796
 21
154.41897312882941
 31
0.0
  0
LINE
  5
42C
  8
0
 10
84.456240078893913
 20
155.4689731288293
 30
0.0
 11
85.817023178027796
 21
155.4689731288293
 31
0.0
  0
LINE
  5
42D
  8
0
 10
80.317023178027796
 20
155.4689731288293
 30
0.0
 11
81.677806277161778
 21
155.4689731288293
 31
0.0
  0
LINE
  5
42E
  8
0
 10
80.317023178027796
 20
154.41897312882941
 30
0.0
 11
81.677806277161878
 21
154.41897312882941
 31
0.0
  0
ARC
  5
42F
  8
0
 10
84.897685084039779
 20
156.00090627306071
 30
0.0
 40
0.6912500000000011
 50
163.3417582272229
 51
256.65824177277881
  0
ARC
  5
430
  8
0
 10
84.647023178027837
 20
154.94397312882941
 30
0.0
 40
0.3950000000000004
 50
283.34175822722119
 51
76.658241772778837
  0
ARC
  5
431
  8
0
 10
84.897685084039779
 20
153.88703998459829
 30
0.0
 40
0.6912500000000003
 50
103.34175822722121
 51
196.65824177277699
  0
ARC
  5
432
  8
0
 10
83.857023178027816
 20
153.5756529908501
 30
0.0
 40
0.3949999999999998
 50
223.34175822722349
 51
16.658241772777039
  0
ARC
  5
433
  8
0
 10
83.067023178027867
 20
152.83010684036699
 30
0.0
 40
0.6912500000000003
 50
43.341758227223458
 51
136.6582417727754
  0
ARC
  5
434
  8
0
 10
82.277023178027832
 20
153.5756529908501
 30
0.0
 40
0.3950000000000001
 50
163.3417582272229
 51
316.65824177277648
  0
ARC
  5
435
  8
0
 10
81.236361272015927
 20
153.88703998459829
 30
0.0
 40
0.691250000000001
 50
343.3417582272229
 51
76.658241772778837
  0
ARC
  5
436
  8
0
 10
83.857023178027816
 20
156.31229326680889
 30
0.0
 40
0.3950000000000002
 50
343.3417582272229
 51
136.65824177277651
  0
ARC
  5
437
  8
0
 10
83.067023178027867
 20
157.0578394172918
 30
0.0
 40
0.6912499999999989
 50
223.34175822722349
 51
316.65824177277648
  0
ARC
  5
438
  8
0
 10
82.277023178027832
 20
156.31229326680889
 30
0.0
 40
0.3949999999999998
 50
43.341758227223458
 51
196.65824177277699
  0
ARC
  5
439
  8
0
 10
81.236361272015927
 20
156.00090627306071
 30
0.0
 40
0.6912500000000005
 50
283.34175822722119
 51
16.658241772777039
  0
ARC
  5
43A
  8
0
 10
81.487023178027854
 20
154.94397312882941
 30
0.0
 40
0.3949999999999999
 50
103.34175822722121
 51
256.65824177277881
  0
CIRCLE
  5
43B
  8
0
 10
83.067023178027796
 20
154.94397312882941
 30
0.0
 40
4.0
  0
LINE
  5
449
  8
0
 10
88.067023178027796
 20
85.488827396351667
 30
0.0
 11
87.767023178024544
 21
85.188827396348415
 31
0.0
  0
LINE
  5
44A
  8
0
 10
88.067023178027796
 20
89.188827396348415
 30
0.0
 11
88.067023178027796
 21
85.488827396351667
 31
0.0
  0
LINE
  5
44B
  8
0
 10
78.367023178031047
 20
85.188827396348415
 30
0.0
 11
87.767023178024544
 21
85.188827396348415
 31
0.0
  0
LINE
  5
44C
  8
0
 10
78.067023178027725
 20
89.188827396348358
 30
0.0
 11
78.067023178027796
 21
85.488827396351667
 31
0.0
  0
LINE
  5
44D
  8
0
 10
78.067023178027796
 20
85.488827396351667
 30
0.0
 11
78.367023178031047
 21
85.188827396348415
 31
0.0
  0
LINE
  5
44E
  8
0
 10
78.067023178027853
 20
85.488827396351667
 30
0.0
 11
88.067023178027796
 21
85.488827396351667
 31
0.0
  0
ARC
  5
44F
  8
0
 10
83.067023178027796
 20
101.6788273963484
 30
0.0
 40
8.0
 50
110.15731621557489
 51
120.0000000000005
  0
LINE
  5
450
  8
0
 10
79.067023178027966
 20
108.607030626624
 30
0.0
 11
87.067023178027839
 21
108.6070306266239
 31
0.0
  0
ARC
  5
451
  8
0
 10
83.067023178027796
 20
101.6788273963484
 30
0.0
 40
8.0
 50
59.99999999999946
 51
69.842683784425077
  0
LINE
  5
452
  8
0
 10
85.823814791480004
 20
109.1888273963484
 30
0.0
 11
80.310231564575687
 21
109.1888273963484
 31
0.0
  0
LINE
  5
453
  8
0
 10
79.067023178027966
 20
108.607030626624
 30
0.0
 11
79.067023178027867
 21
106.5469561510843
 31
0.0
  0
LINE
  5
454
  8
0
 10
87.067023178027839
 20
108.6070306266239
 30
0.0
 11
87.067023178027839
 21
108.41123519701441
 31
0.0
  0
ARC
  5
455
  8
0
 10
38.394298929911542
 20
101.6788273963484
 30
0.0
 40
8.0
 50
110.15731621557489
 51
120.0000000000005
  0
LINE
  5
456
  8
0
 10
34.394298929911663
 20
108.607030626624
 30
0.0
 11
42.394298929911542
 21
108.6070306266239
 31
0.0
  0
ARC
  5
457
  8
0
 10
38.394298929911542
 20
101.6788273963484
 30
0.0
 40
8.0
 50
59.99999999999946
 51
69.842683784425077
  0
LINE
  5
458
  8
0
 10
41.151090543363694
 20
109.1888273963484
 30
0.0
 11
35.637507316459512
 21
109.1888273963484
 31
0.0
  0
LINE
  5
459
  8
0
 10
34.394298929911663
 20
108.607030626624
 30
0.0
 11
34.394298929911599
 21
107.1029208449515
 31
0.0
  0
LINE
  5
45A
  8
0
 10
42.394298929911542
 20
108.6070306266239
 30
0.0
 11
42.394298929911542
 21
107.1029208449515
 31
0.0
  0
ARC
  5
45B
  8
0
 10
80.177104357108576
 20
154.94397312882941
 30
0.0
 40
8.3687692516683168
 50
325.13222729606071
 51
34.86777270394289
  0
LINE
  5
469
  8
0
 10
33.394298929911663
 20
85.488827396351667
 30
0.0
 11
43.394298929911599
 21
85.488827396351667
 31
0.0
  0
LINE
  5
46A
  8
0
 10
33.694298929914851
 20
85.188827396348415
 30
0.0
 11
43.094298929908341
 21
85.188827396348415
 31
0.0
  0
LINE
  5
46B
  8
0
 10
43.394298929911599
 20
89.188827396348415
 30
0.0
 11
43.394298929911599
 21
85.488827396351667
 31
0.0
  0
LINE
  5
46C
  8
0
 10
43.394298929911599
 20
85.488827396351667
 30
0.0
 11
43.094298929908341
 21
85.188827396348415
 31
0.0
  0
LINE
  5
46D
  8
0
 10
33.394298929911599
 20
85.488827396351667
 30
0.0
 11
33.694298929914851
 21
85.188827396348415
 31
0.0
  0
LINE
  5
46E
  8
0
 10
33.394298929911542
 20
89.188827396348358
 30
0.0
 11
33.394298929911599
 21
85.488827396351667
 31
0.0
  0
LINE
  5
46F
  8
0
 10
165.73974742614379
 20
89.188827396348358
 30
0.0
 11
165.73974742614379
 21
85.488827396351667
 31
0.0
  0
LINE
  5
470
  8
0
 10
165.73974742614379
 20
85.488827396351667
 30
0.0
 11
165.4397474261406
 21
85.188827396348415
 31
0.0
  0
LINE
  5
471
  8
0
 10
155.73974742614379
 20
85.488827396351667
 30
0.0
 11
156.0397474261471
 21
85.188827396348415
 31
0.0
  0
LINE
  5
472
  8
0
 10
155.73974742614379
 20
89.188827396348415
 30
0.0
 11
155.73974742614379
 21
85.488827396351667
 31
0.0
  0
LINE
  5
473
  8
0
 10
165.4397474261406
 20
85.188827396348415
 30
0.0
 11
156.0397474261471
 21
85.188827396348415
 31
0.0
  0
LINE
  5
474
  8
0
 10
165.73974742614371
 20
85.488827396351667
 30
0.0
 11
155.73974742614379
 21
85.488827396351667
 31
0.0
  0
LINE
  5
482
  8
0
 10
156.73974742614379
 20
108.6070306266239
 30
0.0
 11
156.73974742614379
 21
108.39480714077111
 31
0.0
  0
LINE
  5
483
  8
0
 10
164.73974742614371
 20
108.607030626624
 30
0.0
 11
164.73974742614371
 21
108.3948071409872
 31
0.0
  0
ARC
  5
484
  8
0
 10
160.73974742614379
 20
101.6788273963484
 30
0.0
 40
8.0
 50
116.49764134031579
 51
120.0000000000005
  0
LINE
  5
485
  8
0
 10
164.73974742614371
 20
108.607030626624
 30
0.0
 11
164.3560309665738
 21
108.6070306266239
 31
0.0
  0
ARC
  5
486
  8
0
 10
160.73974742614379
 20
101.6788273963484
 30
0.0
 40
8.0
 50
59.99999999999946
 51
63.458958911078348
  0
LINE
  5
487
  8
1
 10
168.48974742614379
 20
112.9388273963484
 30
0.0
 11
152.98974742614379
 21
112.9388273963484
 31
0.0
  0
LINE
  5
488
  8
1
 10
160.73974742614379
 20
120.6888273963484
 30
0.0
 11
160.73974742614379
 21
72.688827396348358
 31
0.0
  0
LINE
  5
489
  8
0
 10
167.05474742614379
 20
89.388827396348404
 30
0.0
 11
154.4247474261438
 21
89.388827396348475
 31
0.0
  0
LINE
  5
48A
  8
0
 10
166.8547474261438
 20
89.188827396348415
 30
0.0
 11
154.62474742614381
 21
89.188827396348415
 31
0.0
  0
LINE
  5
48B
  8
0
 10
166.8547474261438
 20
89.188827396348415
 30
0.0
 11
167.05474742614379
 21
89.388827396348404
 31
0.0
  0
LINE
  5
48C
  8
0
 10
154.62474742614381
 20
89.188827396348415
 30
0.0
 11
154.4247474261438
 21
89.388827396348404
 31
0.0
  0
POLYLINE
  5
48D
  8
0
 10
156.11104592425693
 20
103.03549472873306
 30
0.0
 66
     1
 70
     8
  0
VERTEX
  8
0
  5
B7A
 10
156.111
 20
103.035
 30
0.000000
  70
    32
  0
VERTEX
  8
0
  5
B7B
 10
156.090
 20
102.973
 30
0.000000
  70
    32
  0
VERTEX
  8
0
  5
B7C
 10
156.072
 20
102.910
 30
0.000000
  70
    32
  0
VERTEX
  8
0
  5
B7D
 10
156.057
 20
102.846
 30
0.000000
  70
    32
  0
VERTEX
  8
0
  5
B7E
 10
156.047
 20
102.783
 30
0.000000
  70
    32
  0
VERTEX
  8
0
  5
B7F
 10
156.039
 20
102.719
 30
0.000000
  70
    32
  0
VERTEX
  8
0
  5
B80
 10
156.035
 20
102.655
 30
0.000000
  70
    32
  0
VERTEX
  8
0
  5
B81
 10
156.035
 20
102.592
 30
0.000000
  70
    32
  0
VERTEX
  8
0
  5
B82
 10
156.038
 20
102.528
 30
0.000000
  70
    32
  0
VERTEX
  8
0
  5
B83
 10
156.045
 20
102.464
 30
0.000000
  70
    32
  0
VERTEX
  8
0
  5
B84
 10
156.055
 20
102.401
 30
0.000000
  70
    32
  0
VERTEX
  8
0
  5
B85
 10
156.069
 20
102.337
 30
0.000000
  70
    32
  0
VERTEX
  8
0
  5
B86
 10
156.086
 20
102.274
 30
0.000000
  70
    32
  0
VERTEX
  8
0
  5
B87
 10
156.107
 20
102.211
 30
0.000000
  70
    32
  0
VERTEX
  8
0
  5
B88
 10
156.131
 20
102.149
 30
0.000000
  70
    32
  0
VERTEX
  8
0
  5
B89
 10
156.159
 20
102.086
 30
0.000000
  70
    32
  0
VERTEX
  8
0
  5
B8A
 10
156.190
 20
102.025
 30
0.000000
  70
    32
  0
VERTEX
  8
0
  5
B8B
 10
156.224
 20
101.963
 30
0.000000
  70
    32
  0
VERTEX
  8
0
  5
B8C
 10
156.262
 20
101.902
 30
0.000000
  70
    32
  0
VERTEX
  8
0
  5
B8D
 10
156.303
 20
101.842
 30
0.000000
  70
    32
  0
VERTEX
  8
0
  5
B8E
 10
156.348
 20
101.782
 30
0.000000
  70
    32
  0
VERTEX
  8
0
  5
B8F
 10
156.395
 20
101.723
 30
0.000000
  70
    32
  0
VERTEX
  8
0
  5
B90
 10
156.447
 20
101.664
 30
0.000000
  70
    32
  0
VERTEX
  8
0
  5
B91
 10
156.501
 20
101.606
 30
0.000000
  70
    32
  0
VERTEX
  8
0
  5
B92
 10
156.558
 20
101.549
 30
0.000000
  70
    32
  0
VERTEX
  8
0
  5
B93
 10
156.619
 20
101.493
 30
0.000000
  70
    32
  0
VERTEX
  8
0
  5
B94
 10
156.682
 20
101.438
 30
0.000000
  70
    32
  0
VERTEX
  8
0
  5
B95
 10
156.749
 20
101.383
 30
0.000000
  70
    32
  0
VERTEX
  8
0
  5
B96
 10
156.819
 20
101.330
 30
0.000000
  70
    32
  0
VERTEX
  8
0
  5
B97
 10
156.891
 20
101.277
 30
0.000000
  70
    32
  0
VERTEX
  8
0
  5
B98
 10
156.967
 20
101.225
 30
0.000000
  70
    32
  0
VERTEX
  8
0
  5
B99
 10
157.045
 20
101.175
 30
0.000000
  70
    32
  0
VERTEX
  8
0
  5
B9A
 10
157.126
 20
101.125
 30
0.000000
  70
    32
  0
VERTEX
  8
0
  5
B9B
 10
157.210
 20
101.077
 30
0.000000
  70
    32
  0
VERTEX
  8
0
  5
B9C
 10
157.296
 20
101.030
 30
0.000000
  70
    32
  0
VERTEX
  8
0
  5
B9D
 10
157.385
 20
100.984
 30
0.000000
  70
    32
  0
VERTEX
  8
0
  5
B9E
 10
157.477
 20
100.939
 30
0.000000
  70
    32
  0
VERTEX
  8
0
  5
B9F
 10
157.571
 20
100.895
 30
0.000000
  70
    32
  0
VERTEX
  8
0
  5
BA0
 10
157.667
 20
100.853
 30
0.000000
  70
    32
  0
VERTEX
  8
0
  5
BA1
 10
157.766
 20
100.812
 30
0.000000
  70
    32
  0
VERTEX
  8
0
  5
BA2
 10
157.867
 20
100.772
 30
0.000000
  70
    32
  0
VERTEX
  8
0
  5
BA3
 10
157.969
 20
100.734
 30
0.000000
  70
    32
  0
VERTEX
  8
0
  5
BA4
 10
158.075
 20
100.697
 30
0.000000
  70
    32
  0
VERTEX
  8
0
  5
BA5
 10
158.182
 20
100.662
 30
0.000000
  70
    32
  0
VERTEX
  8
0
  5
BA6
 10
158.291
 20
100.628
 30
0.000000
  70
    32
  0
VERTEX
  8
0
  5
BA7
 10
158.401
 20
100.596
 30
0.000000
  70
    32
  0
VERTEX
  8
0
  5
BA8
 10
158.514
 20
100.565
 30
0.000000
  70
    32
  0
VERTEX
  8
0
  5
BA9
 10
158.628
 20
100.535
 30
0.000000
  70
    32
  0
VERTEX
  8
0
  5
BAA
 10
158.744
 20
100.508
 30
0.000000
  70
    32
  0
VERTEX
  8
0
  5
BAB
 10
158.861
 20
100.481
 30
0.000000
  70
    32
  0
VERTEX
  8
0
  5
BAC
 10
158.980
 20
100.457
 30
0.000000
  70
    32
  0
VERTEX
  8
0
  5
BAD
 10
159.100
 20
100.434
 30
0.000000
  70
    32
  0
VERTEX
  8
0
  5
BAE
 10
159.221
 20
100.412
 30
0.000000
  70
    32
  0
VERTEX
  8
0
  5
BAF
 10
159.343
 20
100.392
 30
0.000000
  70
    32
  0
VERTEX
  8
0
  5
BB0
 10
159.467
 20
100.374
 30
0.000000
  70
    32
  0
VERTEX
  8
0
  5
BB1
 10
159.591
 20
100.358
 30
0.000000
  70
    32
  0
VERTEX
  8
0
  5
BB2
 10
159.717
 20
100.343
 30
0.000000
  70
    32
  0
VERTEX
  8
0
  5
BB3
 10
159.842
 20
100.330
 30
0.000000
  70
    32
  0
VERTEX
  8
0
  5
BB4
 10
159.969
 20
100.319
 30
0.000000
  70
    32
  0
VERTEX
  8
0
  5
BB5
 10
160.096
 20
100.309
 30
0.000000
  70
    32
  0
VERTEX
  8
0
  5
BB6
 10
160.224
 20
100.302
 30
0.000000
  70
    32
  0
VERTEX
  8
0
  5
BB7
 10
160.352
 20
100.295
 30
0.000000
  70
    32
  0
VERTEX
  8
0
  5
BB8
 10
160.481
 20
100.291
 30
0.000000
  70
    32
  0
VERTEX
  8
0
  5
BB9
 10
160.609
 20
100.288
 30
0.000000
  70
    32
  0
VERTEX
  8
0
  5
BBA
 10
160.738
 20
100.287
 30
0.000000
  70
    32
  0
VERTEX
  8
0
  5
BBB
 10
160.867
 20
100.288
 30
0.000000
  70
    32
  0
VERTEX
  8
0
  5
BBC
 10
160.995
 20
100.291
 30
0.000000
  70
    32
  0
VERTEX
  8
0
  5
BBD
 10
161.124
 20
100.295
 30
0.000000
  70
    32
  0
VERTEX
  8
0
  5
BBE
 10
161.252
 20
100.301
 30
0.000000
  70
    32
  0
VERTEX
  8
0
  5
BBF
 10
161.379
 20
100.309
 30
0.000000
  70
    32
  0
VERTEX
  8
0
  5
BC0
 10
161.507
 20
100.319
 30
0.000000
  70
    32
  0
VERTEX
  8
0
  5
BC1
 10
161.633
 20
100.330
 30
0.000000
  70
    32
  0
VERTEX
  8
0
  5
BC2
 10
161.759
 20
100.343
 30
0.000000
  70
    32
  0
VERTEX
  8
0
  5
BC3
 10
161.885
 20
100.358
 30
0.000000
  70
    32
  0
VERTEX
  8
0
  5
BC4
 10
162.009
 20
100.374
 30
0.000000
  70
    32
  0
VERTEX
  8
0
  5
BC5
 10
162.133
 20
100.392
 30
0.000000
  70
    32
  0
VERTEX
  8
0
  5
BC6
 10
162.255
 20
100.412
 30
0.000000
  70
    32
  0
VERTEX
  8
0
  5
BC7
 10
162.376
 20
100.433
 30
0.000000
  70
    32
  0
VERTEX
  8
0
  5
BC8
 10
162.496
 20
100.456
 30
0.000000
  70
    32
  0
VERTEX
  8
0
  5
BC9
 10
162.615
 20
100.481
 30
0.000000
  70
    32
  0
VERTEX
  8
0
  5
BCA
 10
162.732
 20
100.507
 30
0.000000
  70
    32
  0
VERTEX
  8
0
  5
BCB
 10
162.848
 20
100.535
 30
0.000000
  70
    32
  0
VERTEX
  8
0
  5
BCC
 10
162.962
 20
100.564
 30
0.000000
  70
    32
  0
VERTEX
  8
0
  5
BCD
 10
163.075
 20
100.595
 30
0.000000
  70
    32
  0
VERTEX
  8
0
  5
BCE
 10
163.186
 20
100.627
 30
0.000000
  70
    32
  0
VERTEX
  8
0
  5
BCF
 10
163.295
 20
100.661
 30
0.000000
  70
    32
  0
VERTEX
  8
0
  5
BD0
 10
163.402
 20
100.696
 30
0.000000
  70
    32
  0
VERTEX
  8
0
  5
BD1
 10
163.507
 20
100.733
 30
0.000000
  70
    32
  0
VERTEX
  8
0
  5
BD2
 10
163.610
 20
100.771
 30
0.000000
  70
    32
  0
VERTEX
  8
0
  5
BD3
 10
163.711
 20
100.811
 30
0.000000
  70
    32
  0
VERTEX
  8
0
  5
BD4
 10
163.810
 20
100.852
 30
0.000000
  70
    32
  0
VERTEX
  8
0
  5
BD5
 10
163.906
 20
100.894
 30
0.000000
  70
    32
  0
VERTEX
  8
0
  5
BD6
 10
164.000
 20
100.938
 30
0.000000
  70
    32
  0
VERTEX
  8
0
  5
BD7
 10
164.092
 20
100.982
 30
0.000000
  70
    32
  0
VERTEX
  8
0
  5
BD8
 10
164.181
 20
101.028
 30
0.000000
  70
    32
  0
VERTEX
  8
0
  5
BD9
 10
164.267
 20
101.076
 30
0.000000
  70
    32
  0
VERTEX
  8
0
  5
BDA
 10
164.351
 20
101.124
 30
0.000000
  70
    32
  0
VERTEX
  8
0
  5
BDB
 10
164.432
 20
101.173
 30
0.000000
  70
    32
  0
VERTEX
  8
0
  5
BDC
 10
164.511
 20
101.224
 30
0.000000
  70
    32
  0
VERTEX
  8
0
  5
BDD
 10
164.586
 20
101.276
 30
0.000000
  70
    32
  0
VERTEX
  8
0
  5
BDE
 10
164.659
 20
101.328
 30
0.000000
  70
    32
  0
VERTEX
  8
0
  5
BDF
 10
164.728
 20
101.382
 30
0.000000
  70
    32
  0
VERTEX
  8
0
  5
BE0
 10
164.795
 20
101.436
 30
0.000000
  70
    32
  0
VERTEX
  8
0
  5
BE1
 10
164.859
 20
101.492
 30
0.000000
  70
    32
  0
VERTEX
  8
0
  5
BE2
 10
164.920
 20
101.548
 30
0.000000
  70
    32
  0
VERTEX
  8
0
  5
BE3
 10
164.977
 20
101.605
 30
0.000000
  70
    32
  0
VERTEX
  8
0
  5
BE4
 10
165.031
 20
101.663
 30
0.000000
  70
    32
  0
VERTEX
  8
0
  5
BE5
 10
165.083
 20
101.721
 30
0.000000
  70
    32
  0
VERTEX
  8
0
  5
BE6
 10
165.131
 20
101.780
 30
0.000000
  70
    32
  0
VERTEX
  8
0
  5
BE7
 10
165.175
 20
101.840
 30
0.000000
  70
    32
  0
VERTEX
  8
0
  5
BE8
 10
165.216
 20
101.900
 30
0.000000
  70
    32
  0
VERTEX
  8
0
  5
BE9
 10
165.254
 20
101.961
 30
0.000000
  70
    32
  0
VERTEX
  8
0
  5
BEA
 10
165.289
 20
102.023
 30
0.000000
  70
    32
  0
VERTEX
  8
0
  5
BEB
 10
165.320
 20
102.085
 30
0.000000
  70
    32
  0
VERTEX
  8
0
  5
BEC
 10
165.348
 20
102.147
 30
0.000000
  70
    32
  0
VERTEX
  8
0
  5
BED
 10
165.372
 20
102.209
 30
0.000000
  70
    32
  0
VERTEX
  8
0
  5
BEE
 10
165.393
 20
102.272
 30
0.000000
  70
    32
  0
VERTEX
  8
0
  5
BEF
 10
165.410
 20
102.336
 30
0.000000
  70
    32
  0
VERTEX
  8
0
  5
BF0
 10
165.424
 20
102.399
 30
0.000000
  70
    32
  0
VERTEX
  8
0
  5
BF1
 10
165.434
 20
102.462
 30
0.000000
  70
    32
  0
VERTEX
  8
0
  5
BF2
 10
165.441
 20
102.526
 30
0.000000
  70
    32
  0
VERTEX
  8
0
  5
BF3
 10
165.444
 20
102.590
 30
0.000000
  70
    32
  0
VERTEX
  8
0
  5
BF4
 10
165.444
 20
102.654
 30
0.000000
  70
    32
  0
VERTEX
  8
0
  5
BF5
 10
165.440
 20
102.717
 30
0.000000
  70
    32
  0
VERTEX
  8
0
  5
BF6
 10
165.433
 20
102.781
 30
0.000000
  70
    32
  0
VERTEX
  8
0
  5
BF7
 10
165.422
 20
102.844
 30
0.000000
  70
    32
  0
VERTEX
  8
0
  5
BF8
 10
165.408
 20
102.908
 30
0.000000
  70
    32
  0
VERTEX
  8
0
  5
BF9
 10
165.390
 20
102.971
 30
0.000000
  70
    32
  0
VERTEX
  8
0
  5
BFA
 10
165.369
 20
103.034
 30
0.000000
  70
    32
  0
SEQEND
  8
0
  5
BFB
  0
LINE
  5
48E
  8
0
 10
157.20960666242121
 20
109.0528775525773
 30
0.0
 11
156.03474742614381
 21
102.6175685676376
 31
0.0
  0
LINE
  5
48F
  8
0
 10
164.27426493791199
 20
109.0568580560516
 30
0.0
 11
165.44474742614381
 21
102.6175685676376
 31
0.0
  0
LINE
  5
490
  8
0
 10
35.486743389185051
 20
112.75602510498631
 30
0.0
 11
34.834517484721182
 21
108.8431805466669
 31
0.0
  0
LINE
  5
491
  8
0
 10
41.288916296314483
 20
112.7839664376333
 30
0.0
 11
41.962373984495912
 21
108.83905367802789
 31
0.0
  0
LINE
  5
492
  8
0
 10
157.12821082266461
 20
108.6070306266238
 30
0.0
 11
156.73974742614379
 21
108.6070306266239
 31
0.0
  0
LINE
  5
493
  8
0
 10
88.542877610359966
 20
30.54130185335811
 30
0.0
 11
113.62315589811109
 21
32.072807051264647
 31
0.0
  0
LINE
  5
494
  8
0
 10
88.542877610360136
 20
39.920633089167382
 30
0.0
 11
113.6231558981108
 21
38.389127891261012
 31
0.0
  0
LINE
  5
495
  8
1
 10
83.067023178027796
 20
25.730967471262769
 30
0.0
 11
83.067023178027796
 21
44.730967471262943
 31
0.0
  0
LINE
  5
496
  8
1
 10
117.8170231780278
 20
27.480967471262939
 30
0.0
 11
117.8170231780278
 21
42.98096747126317
 31
0.0
  0
LINE
  5
497
  8
1
 10
73.567023178027625
 20
35.230967471262829
 30
0.0
 11
125.5670231780278
 21
35.230967471262829
 31
0.0
  0
CIRCLE
  5
498
  8
0
 10
83.067023178027796
 20
35.230967471262829
 30
0.0
 40
4.6999999999967619
  0
CIRCLE
  5
499
  8
0
 10
83.067023178027796
 20
35.230967471262829
 30
0.0
 40
5.0000000000000142
  0
CIRCLE
  5
49A
  8
0
 10
83.067023178027796
 20
35.230967471262829
 30
0.0
 40
6.114999999999994
  0
CIRCLE
  5
49B
  8
0
 10
83.067023178027796
 20
35.230967471262829
 30
0.0
 40
6.3150000000000537
  0
LINE
  5
49E
  8
0
 10
165.44474742614381
 20
102.6175685676376
 30
0.0
 11
165.44474742614381
 21
100.28747030003289
 31
0.0
  0
LINE
  5
49F
  8
0
 10
156.03474742614381
 20
102.6175685676376
 30
0.0
 11
156.03474742614381
 21
100.28747030003289
 31
0.0
  0
CIRCLE
  5
4A0
  8
0
 10
83.067023178027796
 20
35.230967471262829
 30
0.0
 40
6.5
  0
ARC
  5
4A1
  8
0
 10
117.8170231780278
 20
154.9439731288297
 30
0.0
 40
5.25
 50
216.5296072297381
 51
143.4703927702688
  0
ARC
  5
4A2
  8
0
 10
117.8170231780278
 20
112.9388273963485
 30
0.0
 40
5.25
 50
229.18816710386841
 51
163.8161874100102
  0
CIRCLE
  5
4A3
  8
0
 10
160.73974742614379
 20
112.9388273963484
 30
0.0
 40
5.25
  0
ARC
  5
4A4
  8
0
 10
38.394298929911599
 20
112.9388273963484
 30
0.0
 40
5.25
 50
312.27144163832031
 51
227.81484309981681
  0
ARC
  5
4A6
  8
0
 10
83.067023178027796
 20
154.94397312882941
 30
0.0
 40
7.0
 50
44.574934021774617
 51
315.42506597822882
  0
ARC
  5
4A7
  8
0
 10
88.587605156125505
 20
160.38324464467621
 30
0.0
 40
0.75
 50
224.5749340217746
 51
266.4244989917849
  0
ARC
  5
4A8
  8
0
 10
88.58760515612569
 20
149.5047016129827
 30
0.0
 40
0.75
 50
93.575501008213422
 51
135.42506597822879
  0
CIRCLE
  5
4A9
  8
0
 10
83.067023178027796
 20
35.230967471262829
 30
0.0
 40
7.0
  0
ARC
  5
4AA
  8
0
 10
88.588590554070393
 20
40.669238677429568
 30
0.0
 40
0.75
 50
224.5645531582521
 51
266.50562247270852
  0
ARC
  5
4AB
  8
0
 10
88.588590554070194
 20
29.792696265095909
 30
0.0
 40
0.75
 50
93.494377527289913
 51
135.4354468417479
  0
ARC
  5
4AC
  8
0
 10
90.067023178027924
 20
99.987470300032953
 30
0.0
 40
0.3
 50
90.0
 51
180.0
  0
LINE
  5
4AD
  8
0
 10
89.767023178027912
 20
99.987470300032953
 30
0.0
 11
89.382023178027922
 21
89.388827396348404
 31
0.0
  0
ARC
  5
4AE
  8
0
 10
167.7047474261438
 20
99.987470300032953
 30
0.0
 40
0.3
 50
90.0
 51
180.0
  0
ARC
  5
4AF
  8
0
 10
153.77474742614379
 20
99.987470300032953
 30
0.0
 40
0.3
 50
0.0
 51
90.0
  0
LINE
  5
4B0
  8
0
 10
154.0747474261438
 20
99.987470300032953
 30
0.0
 11
167.40474742614381
 21
99.987470300032953
 31
0.0
  0
LINE
  5
4B1
  8
0
 10
153.77474742614379
 20
100.28747030003289
 30
0.0
 11
167.7047474261438
 21
100.28747030003289
 31
0.0
  0
LINE
  5
4B2
  8
0
 10
167.7047474261438
 20
100.28747030003289
 30
0.0
 11
167.7047474261438
 21
100.6088273963483
 31
0.0
  0
LINE
  5
4B3
  8
0
 10
153.77474742614379
 20
100.28747030003289
 30
0.0
 11
153.77474742614379
 21
100.6088273963483
 31
0.0
  0
LINE
  5
4B4
  8
0
 10
167.40474742614381
 20
99.987470300032953
 30
0.0
 11
167.05474742614379
 21
89.388827396348404
 31
0.0
  0
LINE
  5
4B5
  8
0
 10
154.0747474261438
 20
99.987470300032953
 30
0.0
 11
154.4247474261438
 21
89.388827396348404
 31
0.0
  0
ARC
  5
4B6
  8
0
 10
170.95407884655489
 20
100.00755545616011
 30
0.0
 40
17.411070463754861
 50
154.63114496590421
 51
171.37855684221199
  0
POLYLINE
  5
4B7
  8
0
 10
157.10509438798175
 20
108.48041001096165
 30
0.0
 66
     1
 70
     8
  0
VERTEX
  8
0
  5
BFC
 10
157.105
 20
108.480
 30
0.000000
  70
    32
  0
VERTEX
  8
0
  5
BFD
 10
157.078
 20
108.474
 30
0.000000
  70
    32
  0
VERTEX
  8
0
  5
BFE
 10
157.050
 20
108.469
 30
0.000000
  70
    32
  0
VERTEX
  8
0
  5
BFF
 10
157.023
 20
108.463
 30
0.000000
  70
    32
  0
VERTEX
  8
0
  5
C00
 10
156.996
 20
108.456
 30
0.000000
  70
    32
  0
VERTEX
  8
0
  5
C01
 10
156.969
 20
108.450
 30
0.000000
  70
    32
  0
VERTEX
  8
0
  5
C02
 10
156.942
 20
108.444
 30
0.000000
  70
    32
  0
VERTEX
  8
0
  5
C03
 10
156.916
 20
108.438
 30
0.000000
  70
    32
  0
VERTEX
  8
0
  5
C04
 10
156.889
 20
108.432
 30
0.000000
  70
    32
  0
VERTEX
  8
0
  5
C05
 10
156.863
 20
108.426
 30
0.000000
  70
    32
  0
VERTEX
  8
0
  5
C06
 10
156.837
 20
108.419
 30
0.000000
  70
    32
  0
VERTEX
  8
0
  5
C07
 10
156.811
 20
108.413
 30
0.000000
  70
    32
  0
VERTEX
  8
0
  5
C08
 10
156.786
 20
108.406
 30
0.000000
  70
    32
  0
VERTEX
  8
0
  5
C09
 10
156.760
 20
108.400
 30
0.000000
  70
    32
  0
VERTEX
  8
0
  5
C0A
 10
156.735
 20
108.394
 30
0.000000
  70
    32
  0
VERTEX
  8
0
  5
C0B
 10
156.710
 20
108.387
 30
0.000000
  70
    32
  0
VERTEX
  8
0
  5
C0C
 10
156.685
 20
108.380
 30
0.000000
  70
    32
  0
VERTEX
  8
0
  5
C0D
 10
156.660
 20
108.374
 30
0.000000
  70
    32
  0
VERTEX
  8
0
  5
C0E
 10
156.635
 20
108.367
 30
0.000000
  70
    32
  0
VERTEX
  8
0
  5
C0F
 10
156.611
 20
108.360
 30
0.000000
  70
    32
  0
VERTEX
  8
0
  5
C10
 10
156.586
 20
108.354
 30
0.000000
  70
    32
  0
VERTEX
  8
0
  5
C11
 10
156.562
 20
108.347
 30
0.000000
  70
    32
  0
VERTEX
  8
0
  5
C12
 10
156.538
 20
108.340
 30
0.000000
  70
    32
  0
VERTEX
  8
0
  5
C13
 10
156.515
 20
108.333
 30
0.000000
  70
    32
  0
VERTEX
  8
0
  5
C14
 10
156.491
 20
108.326
 30
0.000000
  70
    32
  0
VERTEX
  8
0
  5
C15
 10
156.468
 20
108.320
 30
0.000000
  70
    32
  0
VERTEX
  8
0
  5
C16
 10
156.445
 20
108.313
 30
0.000000
  70
    32
  0
VERTEX
  8
0
  5
C17
 10
156.422
 20
108.306
 30
0.000000
  70
    32
  0
VERTEX
  8
0
  5
C18
 10
156.399
 20
108.299
 30
0.000000
  70
    32
  0
VERTEX
  8
0
  5
C19
 10
156.376
 20
108.292
 30
0.000000
  70
    32
  0
VERTEX
  8
0
  5
C1A
 10
156.354
 20
108.284
 30
0.000000
  70
    32
  0
VERTEX
  8
0
  5
C1B
 10
156.332
 20
108.277
 30
0.000000
  70
    32
  0
VERTEX
  8
0
  5
C1C
 10
156.310
 20
108.270
 30
0.000000
  70
    32
  0
VERTEX
  8
0
  5
C1D
 10
156.288
 20
108.263
 30
0.000000
  70
    32
  0
VERTEX
  8
0
  5
C1E
 10
156.267
 20
108.256
 30
0.000000
  70
    32
  0
VERTEX
  8
0
  5
C1F
 10
156.245
 20
108.248
 30
0.000000
  70
    32
  0
VERTEX
  8
0
  5
C20
 10
156.224
 20
108.241
 30
0.000000
  70
    32
  0
VERTEX
  8
0
  5
C21
 10
156.203
 20
108.234
 30
0.000000
  70
    32
  0
VERTEX
  8
0
  5
C22
 10
156.182
 20
108.226
 30
0.000000
  70
    32
  0
VERTEX
  8
0
  5
C23
 10
156.162
 20
108.219
 30
0.000000
  70
    32
  0
VERTEX
  8
0
  5
C24
 10
156.141
 20
108.211
 30
0.000000
  70
    32
  0
VERTEX
  8
0
  5
C25
 10
156.121
 20
108.204
 30
0.000000
  70
    32
  0
VERTEX
  8
0
  5
C26
 10
156.101
 20
108.196
 30
0.000000
  70
    32
  0
VERTEX
  8
0
  5
C27
 10
156.081
 20
108.189
 30
0.000000
  70
    32
  0
VERTEX
  8
0
  5
C28
 10
156.062
 20
108.181
 30
0.000000
  70
    32
  0
VERTEX
  8
0
  5
C29
 10
156.042
 20
108.174
 30
0.000000
  70
    32
  0
VERTEX
  8
0
  5
C2A
 10
156.023
 20
108.166
 30
0.000000
  70
    32
  0
VERTEX
  8
0
  5
C2B
 10
156.004
 20
108.158
 30
0.000000
  70
    32
  0
VERTEX
  8
0
  5
C2C
 10
155.985
 20
108.151
 30
0.000000
  70
    32
  0
VERTEX
  8
0
  5
C2D
 10
155.967
 20
108.143
 30
0.000000
  70
    32
  0
VERTEX
  8
0
  5
C2E
 10
155.949
 20
108.135
 30
0.000000
  70
    32
  0
VERTEX
  8
0
  5
C2F
 10
155.930
 20
108.127
 30
0.000000
  70
    32
  0
VERTEX
  8
0
  5
C30
 10
155.913
 20
108.120
 30
0.000000
  70
    32
  0
VERTEX
  8
0
  5
C31
 10
155.895
 20
108.112
 30
0.000000
  70
    32
  0
VERTEX
  8
0
  5
C32
 10
155.877
 20
108.104
 30
0.000000
  70
    32
  0
VERTEX
  8
0
  5
C33
 10
155.860
 20
108.096
 30
0.000000
  70
    32
  0
VERTEX
  8
0
  5
C34
 10
155.843
 20
108.088
 30
0.000000
  70
    32
  0
VERTEX
  8
0
  5
C35
 10
155.826
 20
108.080
 30
0.000000
  70
    32
  0
VERTEX
  8
0
  5
C36
 10
155.810
 20
108.072
 30
0.000000
  70
    32
  0
VERTEX
  8
0
  5
C37
 10
155.793
 20
108.064
 30
0.000000
  70
    32
  0
VERTEX
  8
0
  5
C38
 10
155.777
 20
108.056
 30
0.000000
  70
    32
  0
VERTEX
  8
0
  5
C39
 10
155.761
 20
108.048
 30
0.000000
  70
    32
  0
VERTEX
  8
0
  5
C3A
 10
155.746
 20
108.040
 30
0.000000
  70
    32
  0
VERTEX
  8
0
  5
C3B
 10
155.730
 20
108.032
 30
0.000000
  70
    32
  0
VERTEX
  8
0
  5
C3C
 10
155.715
 20
108.023
 30
0.000000
  70
    32
  0
VERTEX
  8
0
  5
C3D
 10
155.700
 20
108.015
 30
0.000000
  70
    32
  0
VERTEX
  8
0
  5
C3E
 10
155.685
 20
108.007
 30
0.000000
  70
    32
  0
VERTEX
  8
0
  5
C3F
 10
155.670
 20
107.999
 30
0.000000
  70
    32
  0
VERTEX
  8
0
  5
C40
 10
155.656
 20
107.991
 30
0.000000
  70
    32
  0
VERTEX
  8
0
  5
C41
 10
155.642
 20
107.982
 30
0.000000
  70
    32
  0
VERTEX
  8
0
  5
C42
 10
155.628
 20
107.974
 30
0.000000
  70
    32
  0
VERTEX
  8
0
  5
C43
 10
155.614
 20
107.966
 30
0.000000
  70
    32
  0
VERTEX
  8
0
  5
C44
 10
155.601
 20
107.957
 30
0.000000
  70
    32
  0
VERTEX
  8
0
  5
C45
 10
155.587
 20
107.949
 30
0.000000
  70
    32
  0
VERTEX
  8
0
  5
C46
 10
155.574
 20
107.941
 30
0.000000
  70
    32
  0
VERTEX
  8
0
  5
C47
 10
155.562
 20
107.932
 30
0.000000
  70
    32
  0
VERTEX
  8
0
  5
C48
 10
155.549
 20
107.924
 30
0.000000
  70
    32
  0
VERTEX
  8
0
  5
C49
 10
155.537
 20
107.915
 30
0.000000
  70
    32
  0
VERTEX
  8
0
  5
C4A
 10
155.525
 20
107.907
 30
0.000000
  70
    32
  0
VERTEX
  8
0
  5
C4B
 10
155.513
 20
107.899
 30
0.000000
  70
    32
  0
VERTEX
  8
0
  5
C4C
 10
155.501
 20
107.890
 30
0.000000
  70
    32
  0
VERTEX
  8
0
  5
C4D
 10
155.490
 20
107.882
 30
0.000000
  70
    32
  0
VERTEX
  8
0
  5
C4E
 10
155.478
 20
107.873
 30
0.000000
  70
    32
  0
VERTEX
  8
0
  5
C4F
 10
155.467
 20
107.864
 30
0.000000
  70
    32
  0
VERTEX
  8
0
  5
C50
 10
155.457
 20
107.856
 30
0.000000
  70
    32
  0
VERTEX
  8
0
  5
C51
 10
155.446
 20
107.847
 30
0.000000
  70
    32
  0
VERTEX
  8
0
  5
C52
 10
155.436
 20
107.839
 30
0.000000
  70
    32
  0
VERTEX
  8
0
  5
C53
 10
155.426
 20
107.830
 30
0.000000
  70
    32
  0
VERTEX
  8
0
  5
C54
 10
155.416
 20
107.821
 30
0.000000
  70
    32
  0
VERTEX
  8
0
  5
C55
 10
155.407
 20
107.813
 30
0.000000
  70
    32
  0
VERTEX
  8
0
  5
C56
 10
155.397
 20
107.804
 30
0.000000
  70
    32
  0
VERTEX
  8
0
  5
C57
 10
155.388
 20
107.795
 30
0.000000
  70
    32
  0
VERTEX
  8
0
  5
C58
 10
155.380
 20
107.787
 30
0.000000
  70
    32
  0
VERTEX
  8
0
  5
C59
 10
155.371
 20
107.778
 30
0.000000
  70
    32
  0
VERTEX
  8
0
  5
C5A
 10
155.363
 20
107.769
 30
0.000000
  70
    32
  0
VERTEX
  8
0
  5
C5B
 10
155.354
 20
107.761
 30
0.000000
  70
    32
  0
VERTEX
  8
0
  5
C5C
 10
155.347
 20
107.752
 30
0.000000
  70
    32
  0
VERTEX
  8
0
  5
C5D
 10
155.339
 20
107.743
 30
0.000000
  70
    32
  0
VERTEX
  8
0
  5
C5E
 10
155.332
 20
107.734
 30
0.000000
  70
    32
  0
VERTEX
  8
0
  5
C5F
 10
155.324
 20
107.725
 30
0.000000
  70
    32
  0
VERTEX
  8
0
  5
C60
 10
155.317
 20
107.717
 30
0.000000
  70
    32
  0
VERTEX
  8
0
  5
C61
 10
155.311
 20
107.708
 30
0.000000
  70
    32
  0
VERTEX
  8
0
  5
C62
 10
155.304
 20
107.699
 30
0.000000
  70
    32
  0
VERTEX
  8
0
  5
C63
 10
155.298
 20
107.690
 30
0.000000
  70
    32
  0
VERTEX
  8
0
  5
C64
 10
155.292
 20
107.681
 30
0.000000
  70
    32
  0
VERTEX
  8
0
  5
C65
 10
155.286
 20
107.673
 30
0.000000
  70
    32
  0
VERTEX
  8
0
  5
C66
 10
155.281
 20
107.664
 30
0.000000
  70
    32
  0
VERTEX
  8
0
  5
C67
 10
155.276
 20
107.655
 30
0.000000
  70
    32
  0
VERTEX
  8
0
  5
C68
 10
155.271
 20
107.646
 30
0.000000
  70
    32
  0
VERTEX
  8
0
  5
C69
 10
155.266
 20
107.637
 30
0.000000
  70
    32
  0
VERTEX
  8
0
  5
C6A
 10
155.262
 20
107.628
 30
0.000000
  70
    32
  0
VERTEX
  8
0
  5
C6B
 10
155.257
 20
107.619
 30
0.000000
  70
    32
  0
VERTEX
  8
0
  5
C6C
 10
155.253
 20
107.610
 30
0.000000
  70
    32
  0
VERTEX
  8
0
  5
C6D
 10
155.249
 20
107.601
 30
0.000000
  70
    32
  0
VERTEX
  8
0
  5
C6E
 10
155.246
 20
107.592
 30
0.000000
  70
    32
  0
VERTEX
  8
0
  5
C6F
 10
155.243
 20
107.584
 30
0.000000
  70
    32
  0
VERTEX
  8
0
  5
C70
 10
155.240
 20
107.575
 30
0.000000
  70
    32
  0
VERTEX
  8
0
  5
C71
 10
155.237
 20
107.566
 30
0.000000
  70
    32
  0
VERTEX
  8
0
  5
C72
 10
155.234
 20
107.557
 30
0.000000
  70
    32
  0
VERTEX
  8
0
  5
C73
 10
155.232
 20
107.548
 30
0.000000
  70
    32
  0
VERTEX
  8
0
  5
C74
 10
155.230
 20
107.539
 30
0.000000
  70
    32
  0
VERTEX
  8
0
  5
C75
 10
155.228
 20
107.530
 30
0.000000
  70
    32
  0
VERTEX
  8
0
  5
C76
 10
155.226
 20
107.521
 30
0.000000
  70
    32
  0
VERTEX
  8
0
  5
C77
 10
155.225
 20
107.512
 30
0.000000
  70
    32
  0
VERTEX
  8
0
  5
C78
 10
155.224
 20
107.503
 30
0.000000
  70
    32
  0
VERTEX
  8
0
  5
C79
 10
155.223
 20
107.494
 30
0.000000
  70
    32
  0
VERTEX
  8
0
  5
C7A
 10
155.222
 20
107.485
 30
0.000000
  70
    32
  0
VERTEX
  8
0
  5
C7B
 10
155.222
 20
107.476
 30
0.000000
  70
    32
  0
VERTEX
  8
0
  5
C7C
 10
155.222
 20
107.467
 30
0.000000
  70
    32
  0
SEQEND
  8
0
  5
C7D
  0
LINE
  5
4B8
  8
0
 10
167.7047474261438
 20
100.6088273963483
 30
0.0
 11
167.73974742614379
 21
102.6175685676377
 31
0.0
  0
LINE
  5
4B9
  8
0
 10
153.77474742614379
 20
100.6088273963483
 30
0.0
 11
153.73974742614379
 21
102.6175685676377
 31
0.0
  0
ARC
  5
4BA
  8
0
 10
150.52541600573269
 20
100.00755545616011
 30
0.0
 40
17.411070463754879
 50
8.6214431577879918
 51
25.368855034095731
  0
POLYLINE
  5
4BB
  8
0
 10
166.25750770966965
 20
107.46722470571504
 30
0.0
 66
     1
 70
     8
  0
VERTEX
  8
0
  5
C7E
 10
166.258
 20
107.467
 30
0.000000
  70
    32
  0
VERTEX
  8
0
  5
C7F
 10
166.257
 20
107.476
 30
0.000000
  70
    32
  0
VERTEX
  8
0
  5
C80
 10
166.257
 20
107.485
 30
0.000000
  70
    32
  0
VERTEX
  8
0
  5
C81
 10
166.256
 20
107.494
 30
0.000000
  70
    32
  0
VERTEX
  8
0
  5
C82
 10
166.256
 20
107.503
 30
0.000000
  70
    32
  0
VERTEX
  8
0
  5
C83
 10
166.254
 20
107.512
 30
0.000000
  70
    32
  0
VERTEX
  8
0
  5
C84
 10
166.253
 20
107.521
 30
0.000000
  70
    32
  0
VERTEX
  8
0
  5
C85
 10
166.252
 20
107.530
 30
0.000000
  70
    32
  0
VERTEX
  8
0
  5
C86
 10
166.250
 20
107.539
 30
0.000000
  70
    32
  0
VERTEX
  8
0
  5
C87
 10
166.248
 20
107.548
 30
0.000000
  70
    32
  0
VERTEX
  8
0
  5
C88
 10
166.245
 20
107.557
 30
0.000000
  70
    32
  0
VERTEX
  8
0
  5
C89
 10
166.243
 20
107.566
 30
0.000000
  70
    32
  0
VERTEX
  8
0
  5
C8A
 10
166.240
 20
107.574
 30
0.000000
  70
    32
  0
VERTEX
  8
0
  5
C8B
 10
166.237
 20
107.583
 30
0.000000
  70
    32
  0
VERTEX
  8
0
  5
C8C
 10
166.234
 20
107.592
 30
0.000000
  70
    32
  0
VERTEX
  8
0
  5
C8D
 10
166.230
 20
107.601
 30
0.000000
  70
    32
  0
VERTEX
  8
0
  5
C8E
 10
166.226
 20
107.610
 30
0.000000
  70
    32
  0
VERTEX
  8
0
  5
C8F
 10
166.222
 20
107.619
 30
0.000000
  70
    32
  0
VERTEX
  8
0
  5
C90
 10
166.218
 20
107.628
 30
0.000000
  70
    32
  0
VERTEX
  8
0
  5
C91
 10
166.214
 20
107.637
 30
0.000000
  70
    32
  0
VERTEX
  8
0
  5
C92
 10
166.209
 20
107.646
 30
0.000000
  70
    32
  0
VERTEX
  8
0
  5
C93
 10
166.204
 20
107.655
 30
0.000000
  70
    32
  0
VERTEX
  8
0
  5
C94
 10
166.199
 20
107.663
 30
0.000000
  70
    32
  0
VERTEX
  8
0
  5
C95
 10
166.193
 20
107.672
 30
0.000000
  70
    32
  0
VERTEX
  8
0
  5
C96
 10
166.187
 20
107.681
 30
0.000000
  70
    32
  0
VERTEX
  8
0
  5
C97
 10
166.182
 20
107.690
 30
0.000000
  70
    32
  0
VERTEX
  8
0
  5
C98
 10
166.175
 20
107.699
 30
0.000000
  70
    32
  0
VERTEX
  8
0
  5
C99
 10
166.169
 20
107.708
 30
0.000000
  70
    32
  0
VERTEX
  8
0
  5
C9A
 10
166.162
 20
107.716
 30
0.000000
  70
    32
  0
VERTEX
  8
0
  5
C9B
 10
166.155
 20
107.725
 30
0.000000
  70
    32
  0
VERTEX
  8
0
  5
C9C
 10
166.148
 20
107.734
 30
0.000000
  70
    32
  0
VERTEX
  8
0
  5
C9D
 10
166.141
 20
107.743
 30
0.000000
  70
    32
  0
VERTEX
  8
0
  5
C9E
 10
166.133
 20
107.751
 30
0.000000
  70
    32
  0
VERTEX
  8
0
  5
C9F
 10
166.125
 20
107.760
 30
0.000000
  70
    32
  0
VERTEX
  8
0
  5
CA0
 10
166.117
 20
107.769
 30
0.000000
  70
    32
  0
VERTEX
  8
0
  5
CA1
 10
166.109
 20
107.778
 30
0.000000
  70
    32
  0
VERTEX
  8
0
  5
CA2
 10
166.100
 20
107.786
 30
0.000000
  70
    32
  0
VERTEX
  8
0
  5
CA3
 10
166.092
 20
107.795
 30
0.000000
  70
    32
  0
VERTEX
  8
0
  5
CA4
 10
166.083
 20
107.804
 30
0.000000
  70
    32
  0
VERTEX
  8
0
  5
CA5
 10
166.073
 20
107.812
 30
0.000000
  70
    32
  0
VERTEX
  8
0
  5
CA6
 10
166.064
 20
107.821
 30
0.000000
  70
    32
  0
VERTEX
  8
0
  5
CA7
 10
166.054
 20
107.830
 30
0.000000
  70
    32
  0
VERTEX
  8
0
  5
CA8
 10
166.044
 20
107.838
 30
0.000000
  70
    32
  0
VERTEX
  8
0
  5
CA9
 10
166.034
 20
107.847
 30
0.000000
  70
    32
  0
VERTEX
  8
0
  5
CAA
 10
166.023
 20
107.855
 30
0.000000
  70
    32
  0
VERTEX
  8
0
  5
CAB
 10
166.013
 20
107.864
 30
0.000000
  70
    32
  0
VERTEX
  8
0
  5
CAC
 10
166.002
 20
107.872
 30
0.000000
  70
    32
  0
VERTEX
  8
0
  5
CAD
 10
165.991
 20
107.881
 30
0.000000
  70
    32
  0
VERTEX
  8
0
  5
CAE
 10
165.979
 20
107.889
 30
0.000000
  70
    32
  0
VERTEX
  8
0
  5
CAF
 10
165.968
 20
107.898
 30
0.000000
  70
    32
  0
VERTEX
  8
0
  5
CB0
 10
165.956
 20
107.906
 30
0.000000
  70
    32
  0
VERTEX
  8
0
  5
CB1
 10
165.944
 20
107.915
 30
0.000000
  70
    32
  0
VERTEX
  8
0
  5
CB2
 10
165.931
 20
107.923
 30
0.000000
  70
    32
  0
VERTEX
  8
0
  5
CB3
 10
165.919
 20
107.932
 30
0.000000
  70
    32
  0
VERTEX
  8
0
  5
CB4
 10
165.906
 20
107.940
 30
0.000000
  70
    32
  0
VERTEX
  8
0
  5
CB5
 10
165.893
 20
107.948
 30
0.000000
  70
    32
  0
VERTEX
  8
0
  5
CB6
 10
165.880
 20
107.957
 30
0.000000
  70
    32
  0
VERTEX
  8
0
  5
CB7
 10
165.866
 20
107.965
 30
0.000000
  70
    32
  0
VERTEX
  8
0
  5
CB8
 10
165.853
 20
107.973
 30
0.000000
  70
    32
  0
VERTEX
  8
0
  5
CB9
 10
165.839
 20
107.982
 30
0.000000
  70
    32
  0
VERTEX
  8
0
  5
CBA
 10
165.825
 20
107.990
 30
0.000000
  70
    32
  0
VERTEX
  8
0
  5
CBB
 10
165.810
 20
107.998
 30
0.000000
  70
    32
  0
VERTEX
  8
0
  5
CBC
 10
165.796
 20
108.006
 30
0.000000
  70
    32
  0
VERTEX
  8
0
  5
CBD
 10
165.781
 20
108.015
 30
0.000000
  70
    32
  0
VERTEX
  8
0
  5
CBE
 10
165.766
 20
108.023
 30
0.000000
  70
    32
  0
VERTEX
  8
0
  5
CBF
 10
165.751
 20
108.031
 30
0.000000
  70
    32
  0
VERTEX
  8
0
  5
CC0
 10
165.735
 20
108.039
 30
0.000000
  70
    32
  0
VERTEX
  8
0
  5
CC1
 10
165.720
 20
108.047
 30
0.000000
  70
    32
  0
VERTEX
  8
0
  5
CC2
 10
165.704
 20
108.055
 30
0.000000
  70
    32
  0
VERTEX
  8
0
  5
CC3
 10
165.688
 20
108.063
 30
0.000000
  70
    32
  0
VERTEX
  8
0
  5
CC4
 10
165.671
 20
108.071
 30
0.000000
  70
    32
  0
VERTEX
  8
0
  5
CC5
 10
165.655
 20
108.079
 30
0.000000
  70
    32
  0
VERTEX
  8
0
  5
CC6
 10
165.638
 20
108.087
 30
0.000000
  70
    32
  0
VERTEX
  8
0
  5
CC7
 10
165.621
 20
108.095
 30
0.000000
  70
    32
  0
VERTEX
  8
0
  5
CC8
 10
165.604
 20
108.103
 30
0.000000
  70
    32
  0
VERTEX
  8
0
  5
CC9
 10
165.586
 20
108.111
 30
0.000000
  70
    32
  0
VERTEX
  8
0
  5
CCA
 10
165.569
 20
108.119
 30
0.000000
  70
    32
  0
VERTEX
  8
0
  5
CCB
 10
165.551
 20
108.127
 30
0.000000
  70
    32
  0
VERTEX
  8
0
  5
CCC
 10
165.533
 20
108.134
 30
0.000000
  70
    32
  0
VERTEX
  8
0
  5
CCD
 10
165.515
 20
108.142
 30
0.000000
  70
    32
  0
VERTEX
  8
0
  5
CCE
 10
165.496
 20
108.150
 30
0.000000
  70
    32
  0
VERTEX
  8
0
  5
CCF
 10
165.477
 20
108.158
 30
0.000000
  70
    32
  0
VERTEX
  8
0
  5
CD0
 10
165.459
 20
108.165
 30
0.000000
  70
    32
  0
VERTEX
  8
0
  5
CD1
 10
165.439
 20
108.173
 30
0.000000
  70
    32
  0
VERTEX
  8
0
  5
CD2
 10
165.420
 20
108.180
 30
0.000000
  70
    32
  0
VERTEX
  8
0
  5
CD3
 10
165.401
 20
108.188
 30
0.000000
  70
    32
  0
VERTEX
  8
0
  5
CD4
 10
165.381
 20
108.196
 30
0.000000
  70
    32
  0
VERTEX
  8
0
  5
CD5
 10
165.361
 20
108.203
 30
0.000000
  70
    32
  0
VERTEX
  8
0
  5
CD6
 10
165.341
 20
108.211
 30
0.000000
  70
    32
  0
VERTEX
  8
0
  5
CD7
 10
165.320
 20
108.218
 30
0.000000
  70
    32
  0
VERTEX
  8
0
  5
CD8
 10
165.300
 20
108.225
 30
0.000000
  70
    32
  0
VERTEX
  8
0
  5
CD9
 10
165.279
 20
108.233
 30
0.000000
  70
    32
  0
VERTEX
  8
0
  5
CDA
 10
165.258
 20
108.240
 30
0.000000
  70
    32
  0
VERTEX
  8
0
  5
CDB
 10
165.237
 20
108.247
 30
0.000000
  70
    32
  0
VERTEX
  8
0
  5
CDC
 10
165.216
 20
108.255
 30
0.000000
  70
    32
  0
VERTEX
  8
0
  5
CDD
 10
165.194
 20
108.262
 30
0.000000
  70
    32
  0
VERTEX
  8
0
  5
CDE
 10
165.172
 20
108.269
 30
0.000000
  70
    32
  0
VERTEX
  8
0
  5
CDF
 10
165.151
 20
108.276
 30
0.000000
  70
    32
  0
VERTEX
  8
0
  5
CE0
 10
165.128
 20
108.283
 30
0.000000
  70
    32
  0
VERTEX
  8
0
  5
CE1
 10
165.106
 20
108.291
 30
0.000000
  70
    32
  0
VERTEX
  8
0
  5
CE2
 10
165.084
 20
108.298
 30
0.000000
  70
    32
  0
VERTEX
  8
0
  5
CE3
 10
165.061
 20
108.305
 30
0.000000
  70
    32
  0
VERTEX
  8
0
  5
CE4
 10
165.038
 20
108.312
 30
0.000000
  70
    32
  0
VERTEX
  8
0
  5
CE5
 10
165.015
 20
108.319
 30
0.000000
  70
    32
  0
VERTEX
  8
0
  5
CE6
 10
164.992
 20
108.325
 30
0.000000
  70
    32
  0
VERTEX
  8
0
  5
CE7
 10
164.968
 20
108.332
 30
0.000000
  70
    32
  0
VERTEX
  8
0
  5
CE8
 10
164.945
 20
108.339
 30
0.000000
  70
    32
  0
VERTEX
  8
0
  5
CE9
 10
164.921
 20
108.346
 30
0.000000
  70
    32
  0
VERTEX
  8
0
  5
CEA
 10
164.897
 20
108.353
 30
0.000000
  70
    32
  0
VERTEX
  8
0
  5
CEB
 10
164.872
 20
108.359
 30
0.000000
  70
    32
  0
VERTEX
  8
0
  5
CEC
 10
164.848
 20
108.366
 30
0.000000
  70
    32
  0
VERTEX
  8
0
  5
CED
 10
164.824
 20
108.373
 30
0.000000
  70
    32
  0
VERTEX
  8
0
  5
CEE
 10
164.799
 20
108.379
 30
0.000000
  70
    32
  0
VERTEX
  8
0
  5
CEF
 10
164.774
 20
108.386
 30
0.000000
  70
    32
  0
VERTEX
  8
0
  5
CF0
 10
164.749
 20
108.392
 30
0.000000
  70
    32
  0
VERTEX
  8
0
  5
CF1
 10
164.723
 20
108.399
 30
0.000000
  70
    32
  0
VERTEX
  8
0
  5
CF2
 10
164.698
 20
108.405
 30
0.000000
  70
    32
  0
VERTEX
  8
0
  5
CF3
 10
164.672
 20
108.412
 30
0.000000
  70
    32
  0
VERTEX
  8
0
  5
CF4
 10
164.647
 20
108.418
 30
0.000000
  70
    32
  0
VERTEX
  8
0
  5
CF5
 10
164.621
 20
108.424
 30
0.000000
  70
    32
  0
VERTEX
  8
0
  5
CF6
 10
164.594
 20
108.431
 30
0.000000
  70
    32
  0
VERTEX
  8
0
  5
CF7
 10
164.568
 20
108.437
 30
0.000000
  70
    32
  0
VERTEX
  8
0
  5
CF8
 10
164.542
 20
108.443
 30
0.000000
  70
    32
  0
VERTEX
  8
0
  5
CF9
 10
164.515
 20
108.449
 30
0.000000
  70
    32
  0
VERTEX
  8
0
  5
CFA
 10
164.488
 20
108.455
 30
0.000000
  70
    32
  0
VERTEX
  8
0
  5
CFB
 10
164.461
 20
108.461
 30
0.000000
  70
    32
  0
VERTEX
  8
0
  5
CFC
 10
164.434
 20
108.467
 30
0.000000
  70
    32
  0
VERTEX
  8
0
  5
CFD
 10
164.407
 20
108.473
 30
0.000000
  70
    32
  0
VERTEX
  8
0
  5
CFE
 10
164.379
 20
108.479
 30
0.000000
  70
    32
  0
SEQEND
  8
0
  5
CFF
  0
ARC
  5
4BC
  8
0
 10
117.8170231780278
 20
35.230967471263057
 30
0.0
 40
5.25
 50
216.98130218967731
 51
143.01869781032721
  0
ARC
  5
4BD
  8
0
 10
107.4648954366485
 20
35.230967471262488
 30
0.0
 40
6.920848874932501
 50
332.8497427383636
 51
27.150257261643631
  0
ARC
  5
4C8
  8
0
 10
119.1173571849192
 20
154.9439731288297
 30
0.0
 40
6.342289468737067
 50
150.48020170722231
 51
209.51979829278471
  0
ARC
  5
4D9
  8
0
 10
91.397478937534075
 20
105.1119098095312
 30
0.0
 40
23.308990811180479
 50
9.5157240665613934
 51
23.488630447318432
  0
INSERT
  5
5D5
  8
0
  2
STDGX5
 10
205.74764554292929
 20
101.0373445703065
 30
0.0
 41
0.5
 42
0.5
 43
0.5
  0
INSERT
  5
5D6
  8
0
  2
STDGX5
 10
205.74764554292929
 20
101.0373445703065
 30
0.0
 41
0.5
 42
0.5
 43
0.5
  0
INSERT
  5
5D7
  8
0
  2
STDGX5
 10
343.24764554292932
 20
101.0373445703065
 30
0.0
 41
0.5
 42
0.5
 43
0.5
  0
INSERT
  5
5D8
  8
0
  2
STDGX5
 10
343.24764554292932
 20
101.0373445703065
 30
0.0
 41
0.5
 42
0.5
 43
0.5
  0
LINE
  5
806
  8
0
 10
40.394298929911599
 20
75.188827396348415
 30
0.0
 11
41.394298929911592
 21
76.188827396348415
 31
0.0
  0
LINE
  5
807
  8
0
 10
41.394298929911592
 20
76.188827396348415
 30
0.0
 11
41.394298929911592
 21
84.938827396348415
 31
0.0
  0
ARC
  5
808
  8
0
 10
41.644298929911599
 20
84.938827396348415
 30
0.0
 40
0.25
 50
90.0
 51
180.0
  0
LINE
  5
809
  8
3
 10
40.852798929911607
 20
84.000921884052929
 30
0.0
 11
40.852798929911607
 21
75.64732739634843
 31
0.0
  0
LINE
  5
80A
  8
3
 10
41.394298929911621
 20
84.938827396351485
 30
0.0
 11
40.852798929911607
 21
84.000921884052929
 31
0.0
  0
LINE
  5
80B
  8
3
 10
35.394298929911599
 20
84.938827396351485
 30
0.0
 11
35.935798929911577
 21
84.000921884052929
 31
0.0
  0
LINE
  5
80C
  8
3
 10
35.935798929911577
 20
84.000921884052929
 30
0.0
 11
35.935798929911577
 21
75.64732739634843
 31
0.0
  0
ARC
  5
80D
  8
0
 10
35.144298929911599
 20
84.938827396348415
 30
0.0
 40
0.25
 50
0.0
 51
90.0
  0
LINE
  5
80E
  8
0
 10
35.394298929911599
 20
76.188827396348415
 30
0.0
 11
35.394298929911599
 21
84.938827396348415
 31
0.0
  0
LINE
  5
80F
  8
0
 10
36.394298929911599
 20
75.188827396348415
 30
0.0
 11
35.394298929911599
 21
76.188827396348415
 31
0.0
  0
LINE
  5
810
  8
0
 10
36.394298929911599
 20
75.188827396348415
 30
0.0
 11
40.394298929911599
 21
75.188827396348415
 31
0.0
  0
LINE
  5
811
  8
0
 10
35.394298929911599
 20
76.188827396348415
 30
0.0
 11
41.394298929911592
 21
76.188827396348415
 31
0.0
  0
LINE
  5
812
  8
0
 10
35.394298929911599
 20
84.000921884063928
 30
0.0
 11
41.394298929911592
 21
84.000921884063928
 31
0.0
  0
LINE
  5
813
  8
0
 10
80.067023178027853
 20
84.000921884064013
 30
0.0
 11
86.067023178027853
 21
84.000921884064013
 31
0.0
  0
LINE
  5
814
  8
0
 10
80.067023178027853
 20
76.188827396348515
 30
0.0
 11
86.067023178027853
 21
76.188827396348515
 31
0.0
  0
LINE
  5
815
  8
0
 10
81.067023178027853
 20
75.188827396348515
 30
0.0
 11
85.067023178027853
 21
75.188827396348515
 31
0.0
  0
LINE
  5
816
  8
0
 10
81.067023178027853
 20
75.188827396348515
 30
0.0
 11
80.067023178027853
 21
76.188827396348515
 31
0.0
  0
LINE
  5
817
  8
0
 10
80.067023178027853
 20
76.188827396348515
 30
0.0
 11
80.067023178027853
 21
84.938827396348515
 31
0.0
  0
ARC
  5
818
  8
0
 10
79.817023178027853
 20
84.938827396348515
 30
0.0
 40
0.25
 50
0.0
 51
90.0
  0
LINE
  5
819
  8
3
 10
80.608523178027824
 20
84.000921884053014
 30
0.0
 11
80.608523178027824
 21
75.64732739634853
 31
0.0
  0
LINE
  5
81A
  8
3
 10
80.067023178027853
 20
84.938827396351584
 30
0.0
 11
80.608523178027824
 21
84.000921884053014
 31
0.0
  0
LINE
  5
81B
  8
3
 10
86.067023178027881
 20
84.938827396351584
 30
0.0
 11
85.525523178027868
 21
84.000921884053014
 31
0.0
  0
LINE
  5
81C
  8
3
 10
85.525523178027868
 20
84.000921884053014
 30
0.0
 11
85.525523178027868
 21
75.64732739634853
 31
0.0
  0
ARC
  5
81D
  8
0
 10
86.317023178027853
 20
84.938827396348515
 30
0.0
 40
0.25
 50
90.0
 51
180.0
  0
LINE
  5
81E
  8
0
 10
86.067023178027853
 20
76.188827396348515
 30
0.0
 11
86.067023178027853
 21
84.938827396348515
 31
0.0
  0
LINE
  5
81F
  8
0
 10
85.067023178027853
 20
75.188827396348515
 30
0.0
 11
86.067023178027853
 21
76.188827396348515
 31
0.0
  0
LINE
  5
820
  8
0
 10
162.73974742614379
 20
75.188827396348515
 30
0.0
 11
163.73974742614379
 21
76.188827396348515
 31
0.0
  0
LINE
  5
821
  8
0
 10
163.73974742614379
 20
76.188827396348515
 30
0.0
 11
163.73974742614379
 21
84.938827396348515
 31
0.0
  0
ARC
  5
822
  8
0
 10
163.98974742614379
 20
84.938827396348515
 30
0.0
 40
0.25
 50
90.0
 51
180.0
  0
LINE
  5
823
  8
3
 10
163.19824742614381
 20
84.000921884053014
 30
0.0
 11
163.19824742614381
 21
75.64732739634853
 31
0.0
  0
LINE
  5
824
  8
3
 10
163.73974742614379
 20
84.938827396351584
 30
0.0
 11
163.19824742614381
 21
84.000921884053014
 31
0.0
  0
LINE
  5
825
  8
3
 10
157.73974742614379
 20
84.938827396351584
 30
0.0
 11
158.28124742614381
 21
84.000921884053014
 31
0.0
  0
LINE
  5
826
  8
3
 10
158.28124742614381
 20
84.000921884053014
 30
0.0
 11
158.28124742614381
 21
75.64732739634853
 31
0.0
  0
ARC
  5
827
  8
0
 10
157.48974742614379
 20
84.938827396348515
 30
0.0
 40
0.25
 50
0.0
 51
90.0
  0
LINE
  5
828
  8
0
 10
157.73974742614379
 20
76.188827396348515
 30
0.0
 11
157.73974742614379
 21
84.938827396348515
 31
0.0
  0
LINE
  5
829
  8
0
 10
158.73974742614379
 20
75.188827396348515
 30
0.0
 11
157.73974742614379
 21
76.188827396348515
 31
0.0
  0
LINE
  5
82A
  8
0
 10
158.73974742614379
 20
75.188827396348515
 30
0.0
 11
162.73974742614379
 21
75.188827396348515
 31
0.0
  0
LINE
  5
82B
  8
0
 10
157.73974742614379
 20
76.188827396348515
 30
0.0
 11
163.73974742614379
 21
76.188827396348515
 31
0.0
  0
LINE
  5
82C
  8
0
 10
157.73974742614379
 20
84.000921884064013
 30
0.0
 11
163.73974742614379
 21
84.000921884064013
 31
0.0
  0
CIRCLE
  5
82F
  8
3
 10
83.067023178027796
 20
35.230967471262829
 30
0.0
 40
2.458500000000071
  0
CIRCLE
  5
830
  8
0
 10
83.067023178027796
 20
35.230967471262829
 30
0.0
 40
3.0000000000000711
  0
TEXT
  5
8DD
  8
0
 62
     3
 10
0.0
 20
0.0
 30
0.0
 40
10.0
  1
KR6X10-SUS
  7
STANDARD1
  0
ENDSEC
  0
EOF
