  0
SECTION
  2
HEADER
  9
$ACADVER
  1
AC1009
  9
$INSBASE
 10
0.0
 20
0.0
 30
0.0
  9
$EXTMIN
 10
0.0
 20
-2.960436562073669
 30
0.0
  9
$EXTMAX
 10
249.51020249771929
 20
231.10405717335249
 30
0.0
  9
$LIMMIN
 10
0.0
 20
0.0
  9
$LIMMAX
 10
375.0
 20
270.0
  9
$ORTHOMODE
 70
     1
  9
$REGENMODE
 70
     1
  9
$FILLMODE
 70
     1
  9
$QTEXTMODE
 70
     0
  9
$MIRRTEXT
 70
     0
  9
$DRAGMODE
 70
     2
  9
$LTSCALE
 40
5.0
  9
$OSMODE
 70
  3071
  9
$ATTMODE
 70
     1
  9
$TEXTSIZE
 40
0.2
  9
$TRACEWID
 40
0.05
  9
$TEXTSTYLE
  7
STANDARD
  9
$CLAYER
  8
0
  9
$CELTYPE
  6
BYLAYER
  9
$CECOLOR
 62
   256
  9
$DIMSCALE
 40
1.0
  9
$DIMASZ
 40
3.0
  9
$DIMEXO
 40
2.0
  9
$DIMDLI
 40
0.38
  9
$DIMRND
 40
0.0
  9
$DIMDLE
 40
0.0
  9
$DIMEXE
 40
2.0
  9
$DIMTP
 40
0.0
  9
$DIMTM
 40
0.0
  9
$DIMTXT
 40
3.2000000000000002
  9
$DIMCEN
 40
0.0
  9
$DIMTSZ
 40
0.0
  9
$DIMTOL
 70
     0
  9
$DIMLIM
 70
     0
  9
$DIMTIH
 70
     0
  9
$DIMTOH
 70
     0
  9
$DIMSE1
 70
     0
  9
$DIMSE2
 70
     0
  9
$DIMTAD
 70
     1
  9
$DIMZIN
 70
     0
  9
$DIMBLK
  1

  9
$DIMASO
 70
     1
  9
$DIMSHO
 70
     0
  9
$DIMPOST
  1

  9
$DIMAPOST
  1

  9
$DIMALT
 70
     0
  9
$DIMALTD
 70
     2
  9
$DIMALTF
 40
25.399999999999999
  9
$DIMLFAC
 40
1.0
  9
$DIMTOFL
 70
     0
  9
$DIMTVP
 40
1.6000000000000001
  9
$DIMTIX
 70
     1
  9
$DIMSOXD
 70
     0
  9
$DIMSAH
 70
     0
  9
$DIMBLK1
  1

  9
$DIMBLK2
  1

  9
$DIMSTYLE
  2
STANDARD
  9
$DIMCLRD
 70
     0
  9
$DIMCLRE
 70
     0
  9
$DIMCLRT
 70
     0
  9
$DIMTFAC
 40
1.0
  9
$DIMGAP
 40
0.09
  9
$LUNITS
 70
     2
  9
$LUPREC
 70
     4
  9
$SKETCHINC
 40
0.1
  9
$FILLETRAD
 40
5.0
  9
$AUNITS
 70
     0
  9
$AUPREC
 70
     0
  9
$MENU
  1
E:\r13\win\SUPPORT\ACAD
  9
$ELEVATION
 40
0.0
  9
$PELEVATION
 40
0.0
  9
$THICKNESS
 40
0.0
  9
$LIMCHECK
 70
     0
  9
$BLIPMODE
 70
     0
  9
$CHAMFERA
 40
0.0
  9
$CHAMFERB
 40
0.0
  9
$SKPOLY
 70
     0
  9
$TDCREATE
 40
2449840.6135995369
  9
$TDUPDATE
 40
2456597.4911160418
  9
$TDINDWG
 40
0.0062123727
  9
$TDUSRTIMER
 40
0.0062123727
  9
$USRTIMER
 70
     1
  9
$ANGBASE
 50
0.0
  9
$ANGDIR
 70
     0
  9
$PDMODE
 70
     0
  9
$PDSIZE
 40
0.0
  9
$PLINEWID
 40
0.0
  9
$COORDS
 70
     1
  9
$SPLFRAME
 70
     0
  9
$SPLINETYPE
 70
     6
  9
$SPLINESEGS
 70
     8
  9
$ATTDIA
 70
     0
  9
$ATTREQ
 70
     1
  9
$HANDLING
 70
     1
  9
$HANDSEED
  5
8C7
  9
$SURFTAB1
 70
     6
  9
$SURFTAB2
 70
     6
  9
$SURFTYPE
 70
     6
  9
$SURFU
 70
     6
  9
$SURFV
 70
     6
  9
$UCSNAME
  2

  9
$UCSORG
 10
0.0
 20
0.0
 30
0.0
  9
$UCSXDIR
 10
1.0
 20
0.0
 30
0.0
  9
$UCSYDIR
 10
0.0
 20
1.0
 30
0.0
  9
$PUCSNAME
  2

  9
$PUCSORG
 10
0.0
 20
0.0
 30
0.0
  9
$PUCSXDIR
 10
1.0
 20
0.0
 30
0.0
  9
$PUCSYDIR
 10
0.0
 20
1.0
 30
0.0
  9
$USERI1
 70
     0
  9
$USERI2
 70
     1
  9
$USERI3
 70
     1
  9
$USERI4
 70
     0
  9
$USERI5
 70
     0
  9
$USERR1
 40
0.0
  9
$USERR2
 40
0.0
  9
$USERR3
 40
0.0
  9
$USERR4
 40
0.0
  9
$USERR5
 40
0.0
  9
$WORLDVIEW
 70
     1
  9
$SHADEDGE
 70
     3
  9
$SHADEDIF
 70
    70
  9
$TILEMODE
 70
     1
  9
$MAXACTVP
 70
    16
  9
$PLIMCHECK
 70
     0
  9
$PEXTMIN
 10
1.0000000000000000E+020
 20
1.0000000000000000E+020
 30
1.0000000000000000E+020
  9
$PEXTMAX
 10
-1.0000000000000000E+020
 20
-1.0000000000000000E+020
 30
-1.0000000000000000E+020
  9
$PLIMMIN
 10
0.0
 20
0.0
  9
$PLIMMAX
 10
12.0
 20
9.0
  9
$UNITMODE
 70
     0
  9
$VISRETAIN
 70
     0
  9
$PLINEGEN
 70
     0
  9
$PSLTSCALE
 70
     0
  0
ENDSEC
  0
SECTION
  2
TABLES
  0
TABLE
  2
VPORT
 70
     1
  0
VPORT
  2
*ACTIVE
 70
     0
 10
0.0
 20
0.0
 11
1.0
 21
1.0
 12
187.49427839065231
 22
162.8616388594717
 13
0.0
 23
0.0
 14
10.0
 24
10.0
 15
10.0
 25
10.0
 16
0.0
 26
0.0
 36
1.0
 17
0.0
 27
0.0
 37
0.0
 40
334.81001162774987
 41
1.9089595375722539
 42
50.0
 43
0.0
 44
0.0
 50
0.0
 51
0.0
 71
     0
 72
   500
 73
     1
 74
     0
 75
     0
 76
     0
 77
     0
 78
     0
  0
ENDTAB
  0
TABLE
  2
LTYPE
 70
     3
  0
LTYPE
  2
CONTINUOUS
 70
     0
  3
Solid Line
 72
    65
 73
     0
 40
0.0
  0
LTYPE
  2
CENTER
 70
     0
  3
____ _ ____ _ ____ _ ____ _ ____ _ ____ _ ____
 72
    65
 73
     4
 40
2.0
 49
1.25
 49
-0.25
 49
0.25
 49
-0.25
  0
LTYPE
  2
PHANTOM2
 70
     0
  3
___ _ _ ___ _ _ ___ _ _ ___ _ _
 72
    65
 73
     6
 40
1.25
 49
0.625
 49
-0.125
 49
0.125
 49
-0.125
 49
0.125
 49
-0.125
  0
ENDTAB
  0
TABLE
  2
LAYER
 70
     3
  0
LAYER
  2
0
 70
     0
 62
     7
  6
CONTINUOUS
  0
LAYER
  2
1
 70
     0
 62
     1
  6
CENTER
  0
LAYER
  2
3
 70
     0
 62
     3
  6
CONTINUOUS
  0
ENDTAB
  0
TABLE
  2
STYLE
 70
     2
  0
STYLE
  2
STANDARD
 70
     0
 40
0.0
 41
1.0
 50
0.0
 71
     0
 42
0.2
  3
TXT
  4
BIGFONT
  0
STYLE
  2
STANDARD1
 70
     0
 40
0.0
 41
1.0
 50
0.0
 71
     0
 42
3.0
  3
txt
  4

  0
ENDTAB
  0
TABLE
  2
VIEW
 70
     1
  0
VIEW
  2
ALL
 70
     0
 40
270.0
 10
220.99159663865549
 20
135.0
 41
0.0
 11
0.0
 21
0.0
 31
1.0
 12
0.0
 22
0.0
 32
0.0
 42
0.0
 43
0.0
 44
0.0
 50
0.0
 71
     0
  0
ENDTAB
  0
TABLE
  2
UCS
 70
     0
  0
ENDTAB
  0
TABLE
  2
APPID
 70
     3
  0
APPID
  2
ACAD
 70
     0
  0
APPID
  2
ACAD_MLEADERVER
 70
     0
  0
APPID
  2
ACAD_NAV_VCDISPLAY
 70
     0
  0
ENDTAB
  0
TABLE
  2
DIMSTYLE
 70
     1
  0
DIMSTYLE
  2
STANDARD
 70
     0
  3

  4

  5

  6

  7

 40
1.0
 41
0.18
 42
0.0625
 43
0.38
 44
0.18
 45
0.0
 46
0.0
 47
0.0
 48
0.0
140
0.18
141
0.09
142
0.0
143
25.399999999999999
144
1.0
145
0.0
146
1.0
147
0.09
 71
     0
 72
     0
 73
     1
 74
     1
 75
     0
 76
     0
 77
     0
 78
     0
170
     0
171
     2
172
     0
173
     0
174
     0
175
     0
176
     0
177
     0
178
     0
  0
ENDTAB
  0
ENDSEC
  0
SECTION
  2
BLOCKS
  0
BLOCK
  8
0
  2
$MODEL_SPACE
 70
     0
 10
0.0
 20
0.0
 30
0.0
  3
$MODEL_SPACE
  1

  0
ENDBLK
  5
15E
  8
0
  0
BLOCK
 67
     1
  8
0
  2
$PAPER_SPACE
 70
     0
 10
0.0
 20
0.0
 30
0.0
  3
$PAPER_SPACE
  1

  0
ENDBLK
  5
15C
 67
     1
  8
0
  0
ENDSEC
  0
SECTION
  2
ENTITIES
  0
ARC
  5
1B2
  8
0
 10
164.8934331032749
 20
63.707069879551142
 30
0.0
 40
8.6249159925568257
 50
329.9013394463675
 51
30.647860450664488
  0
LINE
  5
1B4
  8
0
 10
119.29097317207381
 20
150.81374714780159
 30
0.0
 11
119.29097317207381
 21
150.70882914307001
 31
0.0
  0
POLYLINE
  5
1B5
  8
0
 10
247.14121430544989
 20
151.05313181382559
 30
0.0
 66
     1
 70
     8
  0
VERTEX
  8
0
  5
539
 10
247.141
 20
151.053
 30
0.000000
  70
    32
  0
VERTEX
  8
0
  5
53A
 10
247.141
 20
151.067
 30
0.000000
  70
    32
  0
VERTEX
  8
0
  5
53B
 10
247.141
 20
151.081
 30
0.000000
  70
    32
  0
VERTEX
  8
0
  5
53C
 10
247.140
 20
151.095
 30
0.000000
  70
    32
  0
VERTEX
  8
0
  5
53D
 10
247.139
 20
151.108
 30
0.000000
  70
    32
  0
VERTEX
  8
0
  5
53E
 10
247.137
 20
151.122
 30
0.000000
  70
    32
  0
VERTEX
  8
0
  5
53F
 10
247.135
 20
151.136
 30
0.000000
  70
    32
  0
VERTEX
  8
0
  5
540
 10
247.133
 20
151.150
 30
0.000000
  70
    32
  0
VERTEX
  8
0
  5
541
 10
247.131
 20
151.164
 30
0.000000
  70
    32
  0
VERTEX
  8
0
  5
542
 10
247.128
 20
151.178
 30
0.000000
  70
    32
  0
VERTEX
  8
0
  5
543
 10
247.125
 20
151.191
 30
0.000000
  70
    32
  0
VERTEX
  8
0
  5
544
 10
247.122
 20
151.205
 30
0.000000
  70
    32
  0
VERTEX
  8
0
  5
545
 10
247.118
 20
151.219
 30
0.000000
  70
    32
  0
VERTEX
  8
0
  5
546
 10
247.114
 20
151.233
 30
0.000000
  70
    32
  0
VERTEX
  8
0
  5
547
 10
247.109
 20
151.246
 30
0.000000
  70
    32
  0
VERTEX
  8
0
  5
548
 10
247.105
 20
151.260
 30
0.000000
  70
    32
  0
VERTEX
  8
0
  5
549
 10
247.100
 20
151.274
 30
0.000000
  70
    32
  0
VERTEX
  8
0
  5
54A
 10
247.094
 20
151.288
 30
0.000000
  70
    32
  0
VERTEX
  8
0
  5
54B
 10
247.089
 20
151.302
 30
0.000000
  70
    32
  0
VERTEX
  8
0
  5
54C
 10
247.083
 20
151.315
 30
0.000000
  70
    32
  0
VERTEX
  8
0
  5
54D
 10
247.076
 20
151.329
 30
0.000000
  70
    32
  0
VERTEX
  8
0
  5
54E
 10
247.070
 20
151.343
 30
0.000000
  70
    32
  0
VERTEX
  8
0
  5
54F
 10
247.063
 20
151.356
 30
0.000000
  70
    32
  0
VERTEX
  8
0
  5
550
 10
247.056
 20
151.370
 30
0.000000
  70
    32
  0
VERTEX
  8
0
  5
551
 10
247.048
 20
151.384
 30
0.000000
  70
    32
  0
VERTEX
  8
0
  5
552
 10
247.040
 20
151.397
 30
0.000000
  70
    32
  0
VERTEX
  8
0
  5
553
 10
247.032
 20
151.411
 30
0.000000
  70
    32
  0
VERTEX
  8
0
  5
554
 10
247.023
 20
151.425
 30
0.000000
  70
    32
  0
VERTEX
  8
0
  5
555
 10
247.014
 20
151.438
 30
0.000000
  70
    32
  0
VERTEX
  8
0
  5
556
 10
247.005
 20
151.452
 30
0.000000
  70
    32
  0
VERTEX
  8
0
  5
557
 10
246.996
 20
151.465
 30
0.000000
  70
    32
  0
VERTEX
  8
0
  5
558
 10
246.986
 20
151.479
 30
0.000000
  70
    32
  0
VERTEX
  8
0
  5
559
 10
246.976
 20
151.493
 30
0.000000
  70
    32
  0
VERTEX
  8
0
  5
55A
 10
246.965
 20
151.506
 30
0.000000
  70
    32
  0
VERTEX
  8
0
  5
55B
 10
246.955
 20
151.520
 30
0.000000
  70
    32
  0
VERTEX
  8
0
  5
55C
 10
246.943
 20
151.533
 30
0.000000
  70
    32
  0
VERTEX
  8
0
  5
55D
 10
246.932
 20
151.547
 30
0.000000
  70
    32
  0
VERTEX
  8
0
  5
55E
 10
246.920
 20
151.560
 30
0.000000
  70
    32
  0
VERTEX
  8
0
  5
55F
 10
246.908
 20
151.573
 30
0.000000
  70
    32
  0
VERTEX
  8
0
  5
560
 10
246.896
 20
151.587
 30
0.000000
  70
    32
  0
VERTEX
  8
0
  5
561
 10
246.883
 20
151.600
 30
0.000000
  70
    32
  0
VERTEX
  8
0
  5
562
 10
246.870
 20
151.614
 30
0.000000
  70
    32
  0
VERTEX
  8
0
  5
563
 10
246.857
 20
151.627
 30
0.000000
  70
    32
  0
VERTEX
  8
0
  5
564
 10
246.843
 20
151.640
 30
0.000000
  70
    32
  0
VERTEX
  8
0
  5
565
 10
246.829
 20
151.654
 30
0.000000
  70
    32
  0
VERTEX
  8
0
  5
566
 10
246.815
 20
151.667
 30
0.000000
  70
    32
  0
VERTEX
  8
0
  5
567
 10
246.801
 20
151.680
 30
0.000000
  70
    32
  0
VERTEX
  8
0
  5
568
 10
246.786
 20
151.693
 30
0.000000
  70
    32
  0
VERTEX
  8
0
  5
569
 10
246.771
 20
151.707
 30
0.000000
  70
    32
  0
VERTEX
  8
0
  5
56A
 10
246.755
 20
151.720
 30
0.000000
  70
    32
  0
VERTEX
  8
0
  5
56B
 10
246.739
 20
151.733
 30
0.000000
  70
    32
  0
VERTEX
  8
0
  5
56C
 10
246.723
 20
151.746
 30
0.000000
  70
    32
  0
VERTEX
  8
0
  5
56D
 10
246.707
 20
151.759
 30
0.000000
  70
    32
  0
VERTEX
  8
0
  5
56E
 10
246.690
 20
151.772
 30
0.000000
  70
    32
  0
VERTEX
  8
0
  5
56F
 10
246.673
 20
151.785
 30
0.000000
  70
    32
  0
VERTEX
  8
0
  5
570
 10
246.656
 20
151.798
 30
0.000000
  70
    32
  0
VERTEX
  8
0
  5
571
 10
246.638
 20
151.811
 30
0.000000
  70
    32
  0
VERTEX
  8
0
  5
572
 10
246.620
 20
151.824
 30
0.000000
  70
    32
  0
VERTEX
  8
0
  5
573
 10
246.602
 20
151.837
 30
0.000000
  70
    32
  0
VERTEX
  8
0
  5
574
 10
246.584
 20
151.850
 30
0.000000
  70
    32
  0
VERTEX
  8
0
  5
575
 10
246.565
 20
151.863
 30
0.000000
  70
    32
  0
VERTEX
  8
0
  5
576
 10
246.546
 20
151.875
 30
0.000000
  70
    32
  0
VERTEX
  8
0
  5
577
 10
246.526
 20
151.888
 30
0.000000
  70
    32
  0
VERTEX
  8
0
  5
578
 10
246.506
 20
151.901
 30
0.000000
  70
    32
  0
VERTEX
  8
0
  5
579
 10
246.486
 20
151.914
 30
0.000000
  70
    32
  0
VERTEX
  8
0
  5
57A
 10
246.466
 20
151.926
 30
0.000000
  70
    32
  0
VERTEX
  8
0
  5
57B
 10
246.445
 20
151.939
 30
0.000000
  70
    32
  0
VERTEX
  8
0
  5
57C
 10
246.425
 20
151.951
 30
0.000000
  70
    32
  0
VERTEX
  8
0
  5
57D
 10
246.403
 20
151.964
 30
0.000000
  70
    32
  0
VERTEX
  8
0
  5
57E
 10
246.382
 20
151.977
 30
0.000000
  70
    32
  0
VERTEX
  8
0
  5
57F
 10
246.360
 20
151.989
 30
0.000000
  70
    32
  0
VERTEX
  8
0
  5
580
 10
246.338
 20
152.001
 30
0.000000
  70
    32
  0
VERTEX
  8
0
  5
581
 10
246.316
 20
152.014
 30
0.000000
  70
    32
  0
VERTEX
  8
0
  5
582
 10
246.293
 20
152.026
 30
0.000000
  70
    32
  0
VERTEX
  8
0
  5
583
 10
246.270
 20
152.039
 30
0.000000
  70
    32
  0
VERTEX
  8
0
  5
584
 10
246.247
 20
152.051
 30
0.000000
  70
    32
  0
VERTEX
  8
0
  5
585
 10
246.223
 20
152.063
 30
0.000000
  70
    32
  0
VERTEX
  8
0
  5
586
 10
246.199
 20
152.075
 30
0.000000
  70
    32
  0
VERTEX
  8
0
  5
587
 10
246.175
 20
152.087
 30
0.000000
  70
    32
  0
VERTEX
  8
0
  5
588
 10
246.151
 20
152.100
 30
0.000000
  70
    32
  0
VERTEX
  8
0
  5
589
 10
246.126
 20
152.112
 30
0.000000
  70
    32
  0
VERTEX
  8
0
  5
58A
 10
246.101
 20
152.124
 30
0.000000
  70
    32
  0
VERTEX
  8
0
  5
58B
 10
246.076
 20
152.136
 30
0.000000
  70
    32
  0
VERTEX
  8
0
  5
58C
 10
246.050
 20
152.148
 30
0.000000
  70
    32
  0
VERTEX
  8
0
  5
58D
 10
246.025
 20
152.159
 30
0.000000
  70
    32
  0
VERTEX
  8
0
  5
58E
 10
245.999
 20
152.171
 30
0.000000
  70
    32
  0
VERTEX
  8
0
  5
58F
 10
245.972
 20
152.183
 30
0.000000
  70
    32
  0
VERTEX
  8
0
  5
590
 10
245.946
 20
152.195
 30
0.000000
  70
    32
  0
VERTEX
  8
0
  5
591
 10
245.919
 20
152.207
 30
0.000000
  70
    32
  0
VERTEX
  8
0
  5
592
 10
245.891
 20
152.218
 30
0.000000
  70
    32
  0
VERTEX
  8
0
  5
593
 10
245.864
 20
152.230
 30
0.000000
  70
    32
  0
VERTEX
  8
0
  5
594
 10
245.836
 20
152.241
 30
0.000000
  70
    32
  0
VERTEX
  8
0
  5
595
 10
245.808
 20
152.253
 30
0.000000
  70
    32
  0
VERTEX
  8
0
  5
596
 10
245.780
 20
152.264
 30
0.000000
  70
    32
  0
VERTEX
  8
0
  5
597
 10
245.751
 20
152.276
 30
0.000000
  70
    32
  0
VERTEX
  8
0
  5
598
 10
245.723
 20
152.287
 30
0.000000
  70
    32
  0
VERTEX
  8
0
  5
599
 10
245.694
 20
152.298
 30
0.000000
  70
    32
  0
VERTEX
  8
0
  5
59A
 10
245.664
 20
152.310
 30
0.000000
  70
    32
  0
VERTEX
  8
0
  5
59B
 10
245.635
 20
152.321
 30
0.000000
  70
    32
  0
VERTEX
  8
0
  5
59C
 10
245.605
 20
152.332
 30
0.000000
  70
    32
  0
VERTEX
  8
0
  5
59D
 10
245.575
 20
152.343
 30
0.000000
  70
    32
  0
VERTEX
  8
0
  5
59E
 10
245.544
 20
152.354
 30
0.000000
  70
    32
  0
VERTEX
  8
0
  5
59F
 10
245.514
 20
152.365
 30
0.000000
  70
    32
  0
VERTEX
  8
0
  5
5A0
 10
245.483
 20
152.376
 30
0.000000
  70
    32
  0
VERTEX
  8
0
  5
5A1
 10
245.452
 20
152.387
 30
0.000000
  70
    32
  0
VERTEX
  8
0
  5
5A2
 10
245.420
 20
152.398
 30
0.000000
  70
    32
  0
VERTEX
  8
0
  5
5A3
 10
245.389
 20
152.409
 30
0.000000
  70
    32
  0
VERTEX
  8
0
  5
5A4
 10
245.357
 20
152.419
 30
0.000000
  70
    32
  0
VERTEX
  8
0
  5
5A5
 10
245.324
 20
152.430
 30
0.000000
  70
    32
  0
VERTEX
  8
0
  5
5A6
 10
245.292
 20
152.441
 30
0.000000
  70
    32
  0
VERTEX
  8
0
  5
5A7
 10
245.259
 20
152.451
 30
0.000000
  70
    32
  0
VERTEX
  8
0
  5
5A8
 10
245.227
 20
152.462
 30
0.000000
  70
    32
  0
VERTEX
  8
0
  5
5A9
 10
245.193
 20
152.472
 30
0.000000
  70
    32
  0
VERTEX
  8
0
  5
5AA
 10
245.160
 20
152.483
 30
0.000000
  70
    32
  0
VERTEX
  8
0
  5
5AB
 10
245.126
 20
152.493
 30
0.000000
  70
    32
  0
VERTEX
  8
0
  5
5AC
 10
245.092
 20
152.503
 30
0.000000
  70
    32
  0
VERTEX
  8
0
  5
5AD
 10
245.058
 20
152.513
 30
0.000000
  70
    32
  0
VERTEX
  8
0
  5
5AE
 10
245.024
 20
152.524
 30
0.000000
  70
    32
  0
VERTEX
  8
0
  5
5AF
 10
244.989
 20
152.534
 30
0.000000
  70
    32
  0
VERTEX
  8
0
  5
5B0
 10
244.955
 20
152.544
 30
0.000000
  70
    32
  0
VERTEX
  8
0
  5
5B1
 10
244.919
 20
152.554
 30
0.000000
  70
    32
  0
VERTEX
  8
0
  5
5B2
 10
244.884
 20
152.564
 30
0.000000
  70
    32
  0
VERTEX
  8
0
  5
5B3
 10
244.849
 20
152.573
 30
0.000000
  70
    32
  0
VERTEX
  8
0
  5
5B4
 10
244.813
 20
152.583
 30
0.000000
  70
    32
  0
VERTEX
  8
0
  5
5B5
 10
244.777
 20
152.593
 30
0.000000
  70
    32
  0
VERTEX
  8
0
  5
5B6
 10
244.741
 20
152.602
 30
0.000000
  70
    32
  0
VERTEX
  8
0
  5
5B7
 10
244.704
 20
152.612
 30
0.000000
  70
    32
  0
VERTEX
  8
0
  5
5B8
 10
244.668
 20
152.622
 30
0.000000
  70
    32
  0
VERTEX
  8
0
  5
5B9
 10
244.631
 20
152.631
 30
0.000000
  70
    32
  0
SEQEND
  8
0
  5
5BA
  0
LINE
  5
1B6
  8
0
 10
248.16020249771941
 20
141.3530406250315
 30
0.0
 11
247.840201700172
 21
131.61370145634839
 31
0.0
  0
ARC
  5
1B7
  8
0
 10
226.159869039066
 20
143.15921054831401
 30
0.0
 40
22.417199694281759
 50
4.4264788931797909
 51
20.618067986054282
  0
ARC
  5
1B8
  8
0
 10
248.46020249771919
 20
141.3530406250315
 30
0.0
 40
0.3
 50
90.0
 51
180.0
  0
LINE
  5
1B9
  8
0
 10
248.51020249771929
 20
144.88936557613891
 30
0.0
 11
248.46020249771919
 21
141.65304062503151
 31
0.0
  0
LINE
  5
1BA
  8
0
 10
230.36020249771931
 20
141.3530406250315
 30
0.0
 11
230.68020329526649
 21
131.61370145634839
 31
0.0
  0
ARC
  5
1BB
  8
0
 10
252.36053595637259
 20
143.15921054831421
 30
0.0
 40
22.417199694281681
 50
159.38193201394569
 51
175.57352110682021
  0
LINE
  5
1BC
  8
0
 10
230.01020249771929
 20
144.88936557613891
 30
0.0
 11
230.0602024977193
 21
141.65304062503151
 31
0.0
  0
ARC
  5
1BD
  8
0
 10
230.0602024977193
 20
141.3530406250315
 30
0.0
 40
0.3
 50
0.0
 51
90.0
  0
POLYLINE
  5
1BE
  8
0
 10
233.88972119825527
 20
152.63106234504801
 30
0.0
 66
     1
 70
     8
  0
VERTEX
  8
0
  5
5BB
 10
233.890
 20
152.631
 30
0.000000
  70
    32
  0
VERTEX
  8
0
  5
5BC
 10
233.853
 20
152.622
 30
0.000000
  70
    32
  0
VERTEX
  8
0
  5
5BD
 10
233.816
 20
152.612
 30
0.000000
  70
    32
  0
VERTEX
  8
0
  5
5BE
 10
233.780
 20
152.602
 30
0.000000
  70
    32
  0
VERTEX
  8
0
  5
5BF
 10
233.744
 20
152.593
 30
0.000000
  70
    32
  0
VERTEX
  8
0
  5
5C0
 10
233.708
 20
152.583
 30
0.000000
  70
    32
  0
VERTEX
  8
0
  5
5C1
 10
233.672
 20
152.573
 30
0.000000
  70
    32
  0
VERTEX
  8
0
  5
5C2
 10
233.636
 20
152.564
 30
0.000000
  70
    32
  0
VERTEX
  8
0
  5
5C3
 10
233.601
 20
152.554
 30
0.000000
  70
    32
  0
VERTEX
  8
0
  5
5C4
 10
233.566
 20
152.544
 30
0.000000
  70
    32
  0
VERTEX
  8
0
  5
5C5
 10
233.531
 20
152.534
 30
0.000000
  70
    32
  0
VERTEX
  8
0
  5
5C6
 10
233.496
 20
152.524
 30
0.000000
  70
    32
  0
VERTEX
  8
0
  5
5C7
 10
233.462
 20
152.513
 30
0.000000
  70
    32
  0
VERTEX
  8
0
  5
5C8
 10
233.428
 20
152.503
 30
0.000000
  70
    32
  0
VERTEX
  8
0
  5
5C9
 10
233.394
 20
152.493
 30
0.000000
  70
    32
  0
VERTEX
  8
0
  5
5CA
 10
233.360
 20
152.483
 30
0.000000
  70
    32
  0
VERTEX
  8
0
  5
5CB
 10
233.327
 20
152.472
 30
0.000000
  70
    32
  0
VERTEX
  8
0
  5
5CC
 10
233.294
 20
152.462
 30
0.000000
  70
    32
  0
VERTEX
  8
0
  5
5CD
 10
233.261
 20
152.451
 30
0.000000
  70
    32
  0
VERTEX
  8
0
  5
5CE
 10
233.228
 20
152.441
 30
0.000000
  70
    32
  0
VERTEX
  8
0
  5
5CF
 10
233.196
 20
152.430
 30
0.000000
  70
    32
  0
VERTEX
  8
0
  5
5D0
 10
233.164
 20
152.419
 30
0.000000
  70
    32
  0
VERTEX
  8
0
  5
5D1
 10
233.132
 20
152.409
 30
0.000000
  70
    32
  0
VERTEX
  8
0
  5
5D2
 10
233.100
 20
152.398
 30
0.000000
  70
    32
  0
VERTEX
  8
0
  5
5D3
 10
233.069
 20
152.387
 30
0.000000
  70
    32
  0
VERTEX
  8
0
  5
5D4
 10
233.038
 20
152.376
 30
0.000000
  70
    32
  0
VERTEX
  8
0
  5
5D5
 10
233.007
 20
152.365
 30
0.000000
  70
    32
  0
VERTEX
  8
0
  5
5D6
 10
232.976
 20
152.354
 30
0.000000
  70
    32
  0
VERTEX
  8
0
  5
5D7
 10
232.946
 20
152.343
 30
0.000000
  70
    32
  0
VERTEX
  8
0
  5
5D8
 10
232.916
 20
152.332
 30
0.000000
  70
    32
  0
VERTEX
  8
0
  5
5D9
 10
232.886
 20
152.321
 30
0.000000
  70
    32
  0
VERTEX
  8
0
  5
5DA
 10
232.856
 20
152.310
 30
0.000000
  70
    32
  0
VERTEX
  8
0
  5
5DB
 10
232.827
 20
152.298
 30
0.000000
  70
    32
  0
VERTEX
  8
0
  5
5DC
 10
232.798
 20
152.287
 30
0.000000
  70
    32
  0
VERTEX
  8
0
  5
5DD
 10
232.769
 20
152.276
 30
0.000000
  70
    32
  0
VERTEX
  8
0
  5
5DE
 10
232.740
 20
152.264
 30
0.000000
  70
    32
  0
VERTEX
  8
0
  5
5DF
 10
232.712
 20
152.253
 30
0.000000
  70
    32
  0
VERTEX
  8
0
  5
5E0
 10
232.684
 20
152.241
 30
0.000000
  70
    32
  0
VERTEX
  8
0
  5
5E1
 10
232.656
 20
152.230
 30
0.000000
  70
    32
  0
VERTEX
  8
0
  5
5E2
 10
232.629
 20
152.218
 30
0.000000
  70
    32
  0
VERTEX
  8
0
  5
5E3
 10
232.602
 20
152.207
 30
0.000000
  70
    32
  0
VERTEX
  8
0
  5
5E4
 10
232.575
 20
152.195
 30
0.000000
  70
    32
  0
VERTEX
  8
0
  5
5E5
 10
232.548
 20
152.183
 30
0.000000
  70
    32
  0
VERTEX
  8
0
  5
5E6
 10
232.522
 20
152.171
 30
0.000000
  70
    32
  0
VERTEX
  8
0
  5
5E7
 10
232.496
 20
152.159
 30
0.000000
  70
    32
  0
VERTEX
  8
0
  5
5E8
 10
232.470
 20
152.148
 30
0.000000
  70
    32
  0
VERTEX
  8
0
  5
5E9
 10
232.444
 20
152.136
 30
0.000000
  70
    32
  0
VERTEX
  8
0
  5
5EA
 10
232.419
 20
152.124
 30
0.000000
  70
    32
  0
VERTEX
  8
0
  5
5EB
 10
232.394
 20
152.112
 30
0.000000
  70
    32
  0
VERTEX
  8
0
  5
5EC
 10
232.370
 20
152.100
 30
0.000000
  70
    32
  0
VERTEX
  8
0
  5
5ED
 10
232.345
 20
152.087
 30
0.000000
  70
    32
  0
VERTEX
  8
0
  5
5EE
 10
232.321
 20
152.075
 30
0.000000
  70
    32
  0
VERTEX
  8
0
  5
5EF
 10
232.297
 20
152.063
 30
0.000000
  70
    32
  0
VERTEX
  8
0
  5
5F0
 10
232.274
 20
152.051
 30
0.000000
  70
    32
  0
VERTEX
  8
0
  5
5F1
 10
232.251
 20
152.039
 30
0.000000
  70
    32
  0
VERTEX
  8
0
  5
5F2
 10
232.228
 20
152.026
 30
0.000000
  70
    32
  0
VERTEX
  8
0
  5
5F3
 10
232.205
 20
152.014
 30
0.000000
  70
    32
  0
VERTEX
  8
0
  5
5F4
 10
232.182
 20
152.001
 30
0.000000
  70
    32
  0
VERTEX
  8
0
  5
5F5
 10
232.160
 20
151.989
 30
0.000000
  70
    32
  0
VERTEX
  8
0
  5
5F6
 10
232.139
 20
151.977
 30
0.000000
  70
    32
  0
VERTEX
  8
0
  5
5F7
 10
232.117
 20
151.964
 30
0.000000
  70
    32
  0
VERTEX
  8
0
  5
5F8
 10
232.096
 20
151.951
 30
0.000000
  70
    32
  0
VERTEX
  8
0
  5
5F9
 10
232.075
 20
151.939
 30
0.000000
  70
    32
  0
VERTEX
  8
0
  5
5FA
 10
232.054
 20
151.926
 30
0.000000
  70
    32
  0
VERTEX
  8
0
  5
5FB
 10
232.034
 20
151.914
 30
0.000000
  70
    32
  0
VERTEX
  8
0
  5
5FC
 10
232.014
 20
151.901
 30
0.000000
  70
    32
  0
VERTEX
  8
0
  5
5FD
 10
231.994
 20
151.888
 30
0.000000
  70
    32
  0
VERTEX
  8
0
  5
5FE
 10
231.975
 20
151.875
 30
0.000000
  70
    32
  0
VERTEX
  8
0
  5
5FF
 10
231.956
 20
151.863
 30
0.000000
  70
    32
  0
VERTEX
  8
0
  5
600
 10
231.937
 20
151.850
 30
0.000000
  70
    32
  0
VERTEX
  8
0
  5
601
 10
231.918
 20
151.837
 30
0.000000
  70
    32
  0
VERTEX
  8
0
  5
602
 10
231.900
 20
151.824
 30
0.000000
  70
    32
  0
VERTEX
  8
0
  5
603
 10
231.882
 20
151.811
 30
0.000000
  70
    32
  0
VERTEX
  8
0
  5
604
 10
231.865
 20
151.798
 30
0.000000
  70
    32
  0
VERTEX
  8
0
  5
605
 10
231.847
 20
151.785
 30
0.000000
  70
    32
  0
VERTEX
  8
0
  5
606
 10
231.830
 20
151.772
 30
0.000000
  70
    32
  0
VERTEX
  8
0
  5
607
 10
231.814
 20
151.759
 30
0.000000
  70
    32
  0
VERTEX
  8
0
  5
608
 10
231.797
 20
151.746
 30
0.000000
  70
    32
  0
VERTEX
  8
0
  5
609
 10
231.781
 20
151.733
 30
0.000000
  70
    32
  0
VERTEX
  8
0
  5
60A
 10
231.765
 20
151.720
 30
0.000000
  70
    32
  0
VERTEX
  8
0
  5
60B
 10
231.750
 20
151.707
 30
0.000000
  70
    32
  0
VERTEX
  8
0
  5
60C
 10
231.735
 20
151.693
 30
0.000000
  70
    32
  0
VERTEX
  8
0
  5
60D
 10
231.720
 20
151.680
 30
0.000000
  70
    32
  0
VERTEX
  8
0
  5
60E
 10
231.705
 20
151.667
 30
0.000000
  70
    32
  0
VERTEX
  8
0
  5
60F
 10
231.691
 20
151.654
 30
0.000000
  70
    32
  0
VERTEX
  8
0
  5
610
 10
231.677
 20
151.640
 30
0.000000
  70
    32
  0
VERTEX
  8
0
  5
611
 10
231.663
 20
151.627
 30
0.000000
  70
    32
  0
VERTEX
  8
0
  5
612
 10
231.650
 20
151.614
 30
0.000000
  70
    32
  0
VERTEX
  8
0
  5
613
 10
231.637
 20
151.600
 30
0.000000
  70
    32
  0
VERTEX
  8
0
  5
614
 10
231.625
 20
151.587
 30
0.000000
  70
    32
  0
VERTEX
  8
0
  5
615
 10
231.612
 20
151.573
 30
0.000000
  70
    32
  0
VERTEX
  8
0
  5
616
 10
231.600
 20
151.560
 30
0.000000
  70
    32
  0
VERTEX
  8
0
  5
617
 10
231.588
 20
151.547
 30
0.000000
  70
    32
  0
VERTEX
  8
0
  5
618
 10
231.577
 20
151.533
 30
0.000000
  70
    32
  0
VERTEX
  8
0
  5
619
 10
231.566
 20
151.520
 30
0.000000
  70
    32
  0
VERTEX
  8
0
  5
61A
 10
231.555
 20
151.506
 30
0.000000
  70
    32
  0
VERTEX
  8
0
  5
61B
 10
231.545
 20
151.493
 30
0.000000
  70
    32
  0
VERTEX
  8
0
  5
61C
 10
231.534
 20
151.479
 30
0.000000
  70
    32
  0
VERTEX
  8
0
  5
61D
 10
231.525
 20
151.465
 30
0.000000
  70
    32
  0
VERTEX
  8
0
  5
61E
 10
231.515
 20
151.452
 30
0.000000
  70
    32
  0
VERTEX
  8
0
  5
61F
 10
231.506
 20
151.438
 30
0.000000
  70
    32
  0
VERTEX
  8
0
  5
620
 10
231.497
 20
151.425
 30
0.000000
  70
    32
  0
VERTEX
  8
0
  5
621
 10
231.489
 20
151.411
 30
0.000000
  70
    32
  0
VERTEX
  8
0
  5
622
 10
231.480
 20
151.397
 30
0.000000
  70
    32
  0
VERTEX
  8
0
  5
623
 10
231.472
 20
151.384
 30
0.000000
  70
    32
  0
VERTEX
  8
0
  5
624
 10
231.465
 20
151.370
 30
0.000000
  70
    32
  0
VERTEX
  8
0
  5
625
 10
231.458
 20
151.356
 30
0.000000
  70
    32
  0
VERTEX
  8
0
  5
626
 10
231.451
 20
151.343
 30
0.000000
  70
    32
  0
VERTEX
  8
0
  5
627
 10
231.444
 20
151.329
 30
0.000000
  70
    32
  0
VERTEX
  8
0
  5
628
 10
231.438
 20
151.315
 30
0.000000
  70
    32
  0
VERTEX
  8
0
  5
629
 10
231.432
 20
151.302
 30
0.000000
  70
    32
  0
VERTEX
  8
0
  5
62A
 10
231.426
 20
151.288
 30
0.000000
  70
    32
  0
VERTEX
  8
0
  5
62B
 10
231.421
 20
151.274
 30
0.000000
  70
    32
  0
VERTEX
  8
0
  5
62C
 10
231.416
 20
151.260
 30
0.000000
  70
    32
  0
VERTEX
  8
0
  5
62D
 10
231.411
 20
151.246
 30
0.000000
  70
    32
  0
VERTEX
  8
0
  5
62E
 10
231.407
 20
151.233
 30
0.000000
  70
    32
  0
VERTEX
  8
0
  5
62F
 10
231.403
 20
151.219
 30
0.000000
  70
    32
  0
VERTEX
  8
0
  5
630
 10
231.399
 20
151.205
 30
0.000000
  70
    32
  0
VERTEX
  8
0
  5
631
 10
231.395
 20
151.191
 30
0.000000
  70
    32
  0
VERTEX
  8
0
  5
632
 10
231.392
 20
151.178
 30
0.000000
  70
    32
  0
VERTEX
  8
0
  5
633
 10
231.390
 20
151.164
 30
0.000000
  70
    32
  0
VERTEX
  8
0
  5
634
 10
231.387
 20
151.150
 30
0.000000
  70
    32
  0
VERTEX
  8
0
  5
635
 10
231.385
 20
151.136
 30
0.000000
  70
    32
  0
VERTEX
  8
0
  5
636
 10
231.383
 20
151.122
 30
0.000000
  70
    32
  0
VERTEX
  8
0
  5
637
 10
231.382
 20
151.108
 30
0.000000
  70
    32
  0
VERTEX
  8
0
  5
638
 10
231.381
 20
151.095
 30
0.000000
  70
    32
  0
VERTEX
  8
0
  5
639
 10
231.380
 20
151.081
 30
0.000000
  70
    32
  0
VERTEX
  8
0
  5
63A
 10
231.379
 20
151.067
 30
0.000000
  70
    32
  0
VERTEX
  8
0
  5
63B
 10
231.379
 20
151.053
 30
0.000000
  70
    32
  0
SEQEND
  8
0
  5
63C
  0
ARC
  5
1BF
  8
0
 10
128.6622454921698
 20
56.449820986008518
 30
0.0
 40
1.0
 50
92.613238997640451
 51
134.3978334950626
  0
ARC
  5
1C0
  8
0
 10
128.6622454921698
 20
71.097053258492707
 30
0.0
 40
1.0
 50
225.6021665049374
 51
267.3867610023587
  0
CIRCLE
  5
1C1
  8
0
 10
121.49097317207379
 20
63.773437122250613
 30
0.0
 40
9.25
  0
ARC
  5
1C2
  8
0
 10
128.6611090857904
 20
212.029328442619
 30
0.0
 40
1.0
 50
92.588024473806584
 51
134.38894357748981
  0
ARC
  5
1C3
  8
0
 10
128.6611090857904
 20
226.67878590408591
 30
0.0
 40
1.0
 50
225.61105642251019
 51
267.41197552619258
  0
ARC
  5
1C4
  8
0
 10
121.49097317207379
 20
219.35405717335249
 30
0.0
 40
9.25
 50
45.611056422510181
 51
314.38894357748978
  0
ARC
  5
1C5
  8
0
 10
178.74097317207381
 20
63.77343712225067
 30
0.0
 40
7.75
 50
214.51823445234859
 51
146.03096544468301
  0
ARC
  5
1C6
  8
0
 10
58.621743846428267
 20
163.06374714780151
 30
0.0
 40
7.75
 50
308.67561681770809
 51
231.32438318229191
  0
CIRCLE
  5
1C7
  8
0
 10
239.26020249771929
 20
163.06374714780151
 30
0.0
 40
7.75
  0
ARC
  5
1C8
  8
0
 10
178.74097317207381
 20
163.06374714780151
 30
0.0
 40
7.75
 50
227.6296677216823
 51
167.38074145813039
  0
ARC
  5
1C9
  8
0
 10
178.74097317207381
 20
219.3540571733524
 30
0.0
 40
7.75
 50
214.145079194083
 51
145.85492080591609
  0
CIRCLE
  5
1CA
  8
0
 10
121.49097317207379
 20
63.773437122250613
 30
0.0
 40
8.75
  0
LINE
  5
1CB
  8
0
 10
245.59520249771941
 20
144.88936557613891
 30
0.0
 11
245.59520249771941
 21
141.65304062503151
 31
0.0
  0
LINE
  5
1CC
  8
0
 10
232.92520249771931
 20
144.88936557613891
 30
0.0
 11
232.92520249771931
 21
141.65304062503151
 31
0.0
  0
CIRCLE
  5
1CD
  8
3
 10
121.49097317207379
 20
63.773437122250591
 30
0.0
 40
3.3235000000000001
  0
CIRCLE
  5
1CE
  8
0
 10
121.49097317207379
 20
63.773437122250591
 30
0.0
 40
4.0
  0
CIRCLE
  5
1CF
  8
0
 10
121.49097317207379
 20
63.773437122250613
 30
0.0
 40
8.5799992024527683
  0
CIRCLE
  5
1D0
  8
0
 10
121.49097317207379
 20
63.773437122250591
 30
0.0
 40
8.2747634805215284
  0
CIRCLE
  5
1D1
  8
0
 10
121.49097317207379
 20
63.773437122250613
 30
0.0
 40
6.7499999999999432
  0
CIRCLE
  5
1D2
  8
0
 10
121.49097317207379
 20
63.773437122250591
 30
0.0
 40
6.4500000000242599
  0
LINE
  5
1D3
  8
1
 10
188.99097317207381
 20
63.773437122250591
 30
0.0
 11
109.74097317207379
 21
63.773437122250591
 31
0.0
  0
LINE
  5
1D4
  8
1
 10
121.49097317207379
 20
52.023437122250613
 30
0.0
 11
121.49097317207379
 21
75.523437122250613
 31
0.0
  0
LINE
  5
1D5
  8
1
 10
178.74097317207381
 20
53.523437122250698
 30
0.0
 11
178.74097317207381
 21
74.02343712225067
 31
0.0
  0
LINE
  5
1D6
  8
0
 10
172.3135907552188
 20
59.443165159948109
 30
0.0
 11
128.6166516790195
 21
57.448781047373558
 31
0.0
  0
LINE
  5
1D7
  8
0
 10
172.3135907552188
 20
68.103709084553117
 30
0.0
 11
128.61665167901941
 21
70.098093197127668
 31
0.0
  0
LINE
  5
1D8
  8
0
 10
63.989169098379023
 20
152.63184038201291
 30
0.0
 11
62.97174384642824
 21
161.13321591498411
 31
0.0
  0
LINE
  5
1D9
  8
0
 10
54.271743846428251
 20
161.13321591498411
 30
0.0
 11
53.254318594477553
 21
152.631840382013
 31
0.0
  0
LINE
  5
1DA
  8
0
 10
234.43402138966769
 20
156.99988073170309
 30
0.0
 11
232.92520249771931
 21
144.88936557613891
 31
0.0
  0
LINE
  5
1DB
  8
0
 10
245.59520249771941
 20
144.88936557613891
 30
0.0
 11
244.08638360577089
 21
156.99988073170309
 31
0.0
  0
POLYLINE
  5
1DC
  8
0
 10
232.97663415729303
 20
145.30091861560877
 30
0.0
 66
     1
 70
     8
  0
VERTEX
  8
0
  5
63D
 10
232.977
 20
145.301
 30
0.000000
  70
    32
  0
VERTEX
  8
0
  5
63E
 10
232.957
 20
145.216
 30
0.000000
  70
    32
  0
VERTEX
  8
0
  5
63F
 10
232.943
 20
145.130
 30
0.000000
  70
    32
  0
VERTEX
  8
0
  5
640
 10
232.932
 20
145.044
 30
0.000000
  70
    32
  0
VERTEX
  8
0
  5
641
 10
232.927
 20
144.959
 30
0.000000
  70
    32
  0
VERTEX
  8
0
  5
642
 10
232.925
 20
144.873
 30
0.000000
  70
    32
  0
VERTEX
  8
0
  5
643
 10
232.928
 20
144.787
 30
0.000000
  70
    32
  0
VERTEX
  8
0
  5
644
 10
232.936
 20
144.701
 30
0.000000
  70
    32
  0
VERTEX
  8
0
  5
645
 10
232.948
 20
144.615
 30
0.000000
  70
    32
  0
VERTEX
  8
0
  5
646
 10
232.964
 20
144.530
 30
0.000000
  70
    32
  0
VERTEX
  8
0
  5
647
 10
232.985
 20
144.445
 30
0.000000
  70
    32
  0
VERTEX
  8
0
  5
648
 10
233.011
 20
144.360
 30
0.000000
  70
    32
  0
VERTEX
  8
0
  5
649
 10
233.040
 20
144.275
 30
0.000000
  70
    32
  0
VERTEX
  8
0
  5
64A
 10
233.074
 20
144.191
 30
0.000000
  70
    32
  0
VERTEX
  8
0
  5
64B
 10
233.113
 20
144.108
 30
0.000000
  70
    32
  0
VERTEX
  8
0
  5
64C
 10
233.156
 20
144.024
 30
0.000000
  70
    32
  0
VERTEX
  8
0
  5
64D
 10
233.203
 20
143.942
 30
0.000000
  70
    32
  0
VERTEX
  8
0
  5
64E
 10
233.254
 20
143.860
 30
0.000000
  70
    32
  0
VERTEX
  8
0
  5
64F
 10
233.310
 20
143.779
 30
0.000000
  70
    32
  0
VERTEX
  8
0
  5
650
 10
233.369
 20
143.699
 30
0.000000
  70
    32
  0
VERTEX
  8
0
  5
651
 10
233.433
 20
143.620
 30
0.000000
  70
    32
  0
VERTEX
  8
0
  5
652
 10
233.501
 20
143.541
 30
0.000000
  70
    32
  0
VERTEX
  8
0
  5
653
 10
233.573
 20
143.463
 30
0.000000
  70
    32
  0
VERTEX
  8
0
  5
654
 10
233.649
 20
143.387
 30
0.000000
  70
    32
  0
VERTEX
  8
0
  5
655
 10
233.729
 20
143.311
 30
0.000000
  70
    32
  0
VERTEX
  8
0
  5
656
 10
233.813
 20
143.237
 30
0.000000
  70
    32
  0
VERTEX
  8
0
  5
657
 10
233.901
 20
143.164
 30
0.000000
  70
    32
  0
VERTEX
  8
0
  5
658
 10
233.993
 20
143.092
 30
0.000000
  70
    32
  0
VERTEX
  8
0
  5
659
 10
234.088
 20
143.021
 30
0.000000
  70
    32
  0
VERTEX
  8
0
  5
65A
 10
234.187
 20
142.951
 30
0.000000
  70
    32
  0
VERTEX
  8
0
  5
65B
 10
234.289
 20
142.883
 30
0.000000
  70
    32
  0
VERTEX
  8
0
  5
65C
 10
234.395
 20
142.817
 30
0.000000
  70
    32
  0
VERTEX
  8
0
  5
65D
 10
234.504
 20
142.751
 30
0.000000
  70
    32
  0
VERTEX
  8
0
  5
65E
 10
234.617
 20
142.688
 30
0.000000
  70
    32
  0
VERTEX
  8
0
  5
65F
 10
234.733
 20
142.626
 30
0.000000
  70
    32
  0
VERTEX
  8
0
  5
660
 10
234.852
 20
142.565
 30
0.000000
  70
    32
  0
VERTEX
  8
0
  5
661
 10
234.975
 20
142.506
 30
0.000000
  70
    32
  0
VERTEX
  8
0
  5
662
 10
235.100
 20
142.449
 30
0.000000
  70
    32
  0
VERTEX
  8
0
  5
663
 10
235.228
 20
142.393
 30
0.000000
  70
    32
  0
VERTEX
  8
0
  5
664
 10
235.359
 20
142.339
 30
0.000000
  70
    32
  0
VERTEX
  8
0
  5
665
 10
235.493
 20
142.287
 30
0.000000
  70
    32
  0
VERTEX
  8
0
  5
666
 10
235.629
 20
142.237
 30
0.000000
  70
    32
  0
VERTEX
  8
0
  5
667
 10
235.768
 20
142.189
 30
0.000000
  70
    32
  0
VERTEX
  8
0
  5
668
 10
235.910
 20
142.143
 30
0.000000
  70
    32
  0
VERTEX
  8
0
  5
669
 10
236.054
 20
142.098
 30
0.000000
  70
    32
  0
VERTEX
  8
0
  5
66A
 10
236.200
 20
142.056
 30
0.000000
  70
    32
  0
VERTEX
  8
0
  5
66B
 10
236.348
 20
142.015
 30
0.000000
  70
    32
  0
VERTEX
  8
0
  5
66C
 10
236.498
 20
141.977
 30
0.000000
  70
    32
  0
VERTEX
  8
0
  5
66D
 10
236.651
 20
141.940
 30
0.000000
  70
    32
  0
VERTEX
  8
0
  5
66E
 10
236.805
 20
141.906
 30
0.000000
  70
    32
  0
VERTEX
  8
0
  5
66F
 10
236.960
 20
141.874
 30
0.000000
  70
    32
  0
VERTEX
  8
0
  5
670
 10
237.118
 20
141.844
 30
0.000000
  70
    32
  0
VERTEX
  8
0
  5
671
 10
237.277
 20
141.816
 30
0.000000
  70
    32
  0
VERTEX
  8
0
  5
672
 10
237.437
 20
141.790
 30
0.000000
  70
    32
  0
VERTEX
  8
0
  5
673
 10
237.599
 20
141.766
 30
0.000000
  70
    32
  0
VERTEX
  8
0
  5
674
 10
237.762
 20
141.745
 30
0.000000
  70
    32
  0
VERTEX
  8
0
  5
675
 10
237.925
 20
141.726
 30
0.000000
  70
    32
  0
VERTEX
  8
0
  5
676
 10
238.090
 20
141.709
 30
0.000000
  70
    32
  0
VERTEX
  8
0
  5
677
 10
238.256
 20
141.694
 30
0.000000
  70
    32
  0
VERTEX
  8
0
  5
678
 10
238.422
 20
141.681
 30
0.000000
  70
    32
  0
VERTEX
  8
0
  5
679
 10
238.589
 20
141.671
 30
0.000000
  70
    32
  0
VERTEX
  8
0
  5
67A
 10
238.756
 20
141.663
 30
0.000000
  70
    32
  0
VERTEX
  8
0
  5
67B
 10
238.924
 20
141.658
 30
0.000000
  70
    32
  0
VERTEX
  8
0
  5
67C
 10
239.092
 20
141.654
 30
0.000000
  70
    32
  0
VERTEX
  8
0
  5
67D
 10
239.260
 20
141.653
 30
0.000000
  70
    32
  0
VERTEX
  8
0
  5
67E
 10
239.428
 20
141.654
 30
0.000000
  70
    32
  0
VERTEX
  8
0
  5
67F
 10
239.596
 20
141.658
 30
0.000000
  70
    32
  0
VERTEX
  8
0
  5
680
 10
239.764
 20
141.663
 30
0.000000
  70
    32
  0
VERTEX
  8
0
  5
681
 10
239.931
 20
141.671
 30
0.000000
  70
    32
  0
VERTEX
  8
0
  5
682
 10
240.098
 20
141.681
 30
0.000000
  70
    32
  0
VERTEX
  8
0
  5
683
 10
240.265
 20
141.694
 30
0.000000
  70
    32
  0
VERTEX
  8
0
  5
684
 10
240.430
 20
141.709
 30
0.000000
  70
    32
  0
VERTEX
  8
0
  5
685
 10
240.595
 20
141.726
 30
0.000000
  70
    32
  0
VERTEX
  8
0
  5
686
 10
240.759
 20
141.745
 30
0.000000
  70
    32
  0
VERTEX
  8
0
  5
687
 10
240.922
 20
141.766
 30
0.000000
  70
    32
  0
VERTEX
  8
0
  5
688
 10
241.083
 20
141.790
 30
0.000000
  70
    32
  0
VERTEX
  8
0
  5
689
 10
241.244
 20
141.816
 30
0.000000
  70
    32
  0
VERTEX
  8
0
  5
68A
 10
241.402
 20
141.844
 30
0.000000
  70
    32
  0
VERTEX
  8
0
  5
68B
 10
241.560
 20
141.874
 30
0.000000
  70
    32
  0
VERTEX
  8
0
  5
68C
 10
241.716
 20
141.906
 30
0.000000
  70
    32
  0
VERTEX
  8
0
  5
68D
 10
241.870
 20
141.940
 30
0.000000
  70
    32
  0
VERTEX
  8
0
  5
68E
 10
242.022
 20
141.977
 30
0.000000
  70
    32
  0
VERTEX
  8
0
  5
68F
 10
242.172
 20
142.015
 30
0.000000
  70
    32
  0
VERTEX
  8
0
  5
690
 10
242.321
 20
142.056
 30
0.000000
  70
    32
  0
VERTEX
  8
0
  5
691
 10
242.467
 20
142.098
 30
0.000000
  70
    32
  0
VERTEX
  8
0
  5
692
 10
242.611
 20
142.143
 30
0.000000
  70
    32
  0
VERTEX
  8
0
  5
693
 10
242.752
 20
142.189
 30
0.000000
  70
    32
  0
VERTEX
  8
0
  5
694
 10
242.891
 20
142.237
 30
0.000000
  70
    32
  0
VERTEX
  8
0
  5
695
 10
243.027
 20
142.287
 30
0.000000
  70
    32
  0
VERTEX
  8
0
  5
696
 10
243.161
 20
142.339
 30
0.000000
  70
    32
  0
VERTEX
  8
0
  5
697
 10
243.292
 20
142.393
 30
0.000000
  70
    32
  0
VERTEX
  8
0
  5
698
 10
243.421
 20
142.449
 30
0.000000
  70
    32
  0
VERTEX
  8
0
  5
699
 10
243.546
 20
142.506
 30
0.000000
  70
    32
  0
VERTEX
  8
0
  5
69A
 10
243.668
 20
142.565
 30
0.000000
  70
    32
  0
VERTEX
  8
0
  5
69B
 10
243.787
 20
142.626
 30
0.000000
  70
    32
  0
VERTEX
  8
0
  5
69C
 10
243.903
 20
142.688
 30
0.000000
  70
    32
  0
VERTEX
  8
0
  5
69D
 10
244.016
 20
142.751
 30
0.000000
  70
    32
  0
VERTEX
  8
0
  5
69E
 10
244.125
 20
142.817
 30
0.000000
  70
    32
  0
VERTEX
  8
0
  5
69F
 10
244.231
 20
142.883
 30
0.000000
  70
    32
  0
VERTEX
  8
0
  5
6A0
 10
244.334
 20
142.951
 30
0.000000
  70
    32
  0
VERTEX
  8
0
  5
6A1
 10
244.433
 20
143.021
 30
0.000000
  70
    32
  0
VERTEX
  8
0
  5
6A2
 10
244.528
 20
143.092
 30
0.000000
  70
    32
  0
VERTEX
  8
0
  5
6A3
 10
244.619
 20
143.164
 30
0.000000
  70
    32
  0
VERTEX
  8
0
  5
6A4
 10
244.707
 20
143.237
 30
0.000000
  70
    32
  0
VERTEX
  8
0
  5
6A5
 10
244.791
 20
143.311
 30
0.000000
  70
    32
  0
VERTEX
  8
0
  5
6A6
 10
244.871
 20
143.387
 30
0.000000
  70
    32
  0
VERTEX
  8
0
  5
6A7
 10
244.947
 20
143.463
 30
0.000000
  70
    32
  0
VERTEX
  8
0
  5
6A8
 10
245.019
 20
143.541
 30
0.000000
  70
    32
  0
VERTEX
  8
0
  5
6A9
 10
245.087
 20
143.620
 30
0.000000
  70
    32
  0
VERTEX
  8
0
  5
6AA
 10
245.151
 20
143.699
 30
0.000000
  70
    32
  0
VERTEX
  8
0
  5
6AB
 10
245.211
 20
143.779
 30
0.000000
  70
    32
  0
VERTEX
  8
0
  5
6AC
 10
245.266
 20
143.860
 30
0.000000
  70
    32
  0
VERTEX
  8
0
  5
6AD
 10
245.318
 20
143.942
 30
0.000000
  70
    32
  0
VERTEX
  8
0
  5
6AE
 10
245.365
 20
144.024
 30
0.000000
  70
    32
  0
VERTEX
  8
0
  5
6AF
 10
245.408
 20
144.108
 30
0.000000
  70
    32
  0
VERTEX
  8
0
  5
6B0
 10
245.446
 20
144.191
 30
0.000000
  70
    32
  0
VERTEX
  8
0
  5
6B1
 10
245.480
 20
144.275
 30
0.000000
  70
    32
  0
VERTEX
  8
0
  5
6B2
 10
245.510
 20
144.360
 30
0.000000
  70
    32
  0
VERTEX
  8
0
  5
6B3
 10
245.535
 20
144.445
 30
0.000000
  70
    32
  0
VERTEX
  8
0
  5
6B4
 10
245.556
 20
144.530
 30
0.000000
  70
    32
  0
VERTEX
  8
0
  5
6B5
 10
245.572
 20
144.615
 30
0.000000
  70
    32
  0
VERTEX
  8
0
  5
6B6
 10
245.584
 20
144.701
 30
0.000000
  70
    32
  0
VERTEX
  8
0
  5
6B7
 10
245.592
 20
144.787
 30
0.000000
  70
    32
  0
VERTEX
  8
0
  5
6B8
 10
245.595
 20
144.873
 30
0.000000
  70
    32
  0
VERTEX
  8
0
  5
6B9
 10
245.594
 20
144.959
 30
0.000000
  70
    32
  0
VERTEX
  8
0
  5
6BA
 10
245.588
 20
145.044
 30
0.000000
  70
    32
  0
VERTEX
  8
0
  5
6BB
 10
245.578
 20
145.130
 30
0.000000
  70
    32
  0
VERTEX
  8
0
  5
6BC
 10
245.563
 20
145.216
 30
0.000000
  70
    32
  0
VERTEX
  8
0
  5
6BD
 10
245.544
 20
145.301
 30
0.000000
  70
    32
  0
SEQEND
  8
0
  5
6BE
  0
LINE
  5
1DD
  8
0
 10
230.0602024977193
 20
141.65304062503151
 30
0.0
 11
248.46020249771919
 21
141.65304062503151
 31
0.0
  0
LINE
  5
1DE
  8
0
 10
230.36020249771931
 20
141.3530406250315
 30
0.0
 11
248.16020249771921
 21
141.3530406250315
 31
0.0
  0
LINE
  5
1DF
  8
0
 10
247.84020170017209
 20
131.61370145634839
 30
0.0
 11
230.68020329526661
 21
131.61370145634839
 31
0.0
  0
LINE
  5
1E0
  8
0
 10
230.68020329526661
 20
131.61370145634839
 30
0.0
 11
230.98543901719779
 21
131.31374714780151
 31
0.0
  0
LINE
  5
1E1
  8
0
 10
247.84020170017209
 20
131.61370145634839
 30
0.0
 11
247.5349659782409
 21
131.31374714780151
 31
0.0
  0
LINE
  5
1E2
  8
0
 10
230.98543901719779
 20
131.31374714780151
 30
0.0
 11
247.5349659782409
 21
131.31374714780151
 31
0.0
  0
LINE
  5
1E3
  8
1
 10
239.26020249771929
 20
173.31374714780151
 30
0.0
 11
239.2602024977194
 21
107.31374714780149
 31
0.0
  0
LINE
  5
1E4
  8
1
 10
229.01020249771929
 20
163.06374714780151
 30
0.0
 11
249.51020249771929
 21
163.06374714780151
 31
0.0
  0
LINE
  5
1E5
  8
0
 10
232.810202497695
 20
124.81374714780149
 30
0.0
 11
245.71020249774361
 21
124.81374714780149
 31
0.0
  0
LINE
  5
1E6
  8
0
 10
245.71020249774361
 20
124.81374714780149
 30
0.0
 11
246.01020249771929
 21
125.11374714778979
 31
0.0
  0
LINE
  5
1E7
  8
0
 10
246.01020249771929
 20
125.11374714778979
 30
0.0
 11
246.01020249771929
 21
131.31374714780151
 31
0.0
  0
LINE
  5
1E8
  8
0
 10
232.51020249771929
 20
125.11374714778979
 30
0.0
 11
232.51020249771929
 21
131.31374714780151
 31
0.0
  0
LINE
  5
1E9
  8
0
 10
232.810202497695
 20
124.81374714780149
 30
0.0
 11
232.51020249771929
 21
125.11374714778979
 31
0.0
  0
LINE
  5
1EA
  8
0
 10
246.01020249771929
 20
125.11374714778979
 30
0.0
 11
232.51020249771929
 21
125.11374714778979
 31
0.0
  0
ARC
  5
1F8
  8
0
 10
119.91387509761461
 20
219.3540571733522
 30
0.0
 40
9.0026901720639412
 50
314.37902404484629
 51
45.620975955157242
  0
LINE
  5
1F9
  8
0
 10
56.421743846428321
 20
150.81374714780151
 30
0.0
 11
56.421743846428321
 21
150.06161027459581
 31
0.0
  0
LINE
  5
1FA
  8
0
 10
60.821743846428348
 20
150.81374714780151
 30
0.0
 11
60.821743846428348
 21
150.06161027459581
 31
0.0
  0
ARC
  5
1FB
  8
0
 10
58.621743846428267
 20
146.30374714780149
 30
0.0
 40
8.0
 50
110.15731621557541
 51
119.9999999999993
  0
LINE
  5
1FC
  8
0
 10
54.621743846428423
 20
153.2319503780771
 30
0.0
 11
62.621743846428302
 21
153.23195037807699
 31
0.0
  0
ARC
  5
1FD
  8
0
 10
58.621743846428267
 20
146.30374714780149
 30
0.0
 40
8.0
 50
59.999999999999858
 51
69.842683784424523
  0
LINE
  5
1FE
  8
0
 10
61.378535459880453
 20
153.81374714780151
 30
0.0
 11
55.864952232976208
 21
153.81374714780151
 31
0.0
  0
LINE
  5
1FF
  8
0
 10
62.621743846428302
 20
150.81374714780159
 30
0.0
 11
54.62174384642833
 21
150.81374714780159
 31
0.0
  0
LINE
  5
200
  8
0
 10
54.621743846428423
 20
153.2319503780771
 30
0.0
 11
54.62174384642833
 21
150.81374714780151
 31
0.0
  0
LINE
  5
201
  8
0
 10
62.621743846428302
 20
153.23195037807699
 30
0.0
 11
62.621743846428302
 21
150.81374714780151
 31
0.0
  0
LINE
  5
202
  8
0
 10
125.49097317207389
 20
153.23195037807699
 30
0.0
 11
125.49097317207389
 21
152.38743219928239
 31
0.0
  0
LINE
  5
203
  8
0
 10
117.49097317207401
 20
153.2319503780771
 30
0.0
 11
117.49097317207389
 21
150.81374714780151
 31
0.0
  0
LINE
  5
204
  8
0
 10
119.6784927985443
 20
150.81374714780151
 30
0.0
 11
117.49097317207389
 21
150.81374714780151
 31
0.0
  0
LINE
  5
205
  8
0
 10
124.247764785526
 20
153.81374714780151
 30
0.0
 11
118.7341815586218
 21
153.81374714780151
 31
0.0
  0
ARC
  5
206
  8
0
 10
121.49097317207379
 20
146.30374714780149
 30
0.0
 40
8.0
 50
59.999999999999858
 51
69.842683784424523
  0
LINE
  5
207
  8
0
 10
117.49097317207401
 20
153.2319503780771
 30
0.0
 11
125.49097317207389
 21
153.23195037807699
 31
0.0
  0
ARC
  5
208
  8
0
 10
121.49097317207379
 20
146.30374714780149
 30
0.0
 40
8.0
 50
110.15731621557541
 51
119.9999999999993
  0
LINE
  5
20F
  8
0
 10
115.0409731720495
 20
124.81374714780149
 30
0.0
 11
114.74097317207389
 21
125.11374714778979
 31
0.0
  0
LINE
  5
210
  8
0
 10
114.74097317207389
 20
125.11374714778979
 30
0.0
 11
114.74097317207389
 21
131.31374714780151
 31
0.0
  0
LINE
  5
214
  8
0
 10
127.9409731720982
 20
124.81374714780149
 30
0.0
 11
115.0409731720495
 21
124.81374714780149
 31
0.0
  0
LINE
  5
215
  8
0
 10
128.24097317207389
 20
125.11374714778979
 30
0.0
 11
128.24097317207389
 21
131.31374714780151
 31
0.0
  0
LINE
  5
216
  8
0
 10
127.9409731720982
 20
124.81374714780149
 30
0.0
 11
128.24097317207389
 21
125.11374714778979
 31
0.0
  0
LINE
  5
217
  8
0
 10
114.74097317207389
 20
125.11374714778979
 30
0.0
 11
128.24097317207389
 21
125.11374714778979
 31
0.0
  0
LINE
  5
229
  8
0
 10
51.871743846428267
 20
125.11374714778979
 30
0.0
 11
65.371743846428274
 21
125.11374714778979
 31
0.0
  0
LINE
  5
22A
  8
0
 10
65.071743846452591
 20
124.81374714780149
 30
0.0
 11
65.371743846428274
 21
125.11374714778979
 31
0.0
  0
LINE
  5
22B
  8
0
 10
65.371743846428274
 20
125.11374714778979
 30
0.0
 11
65.371743846428274
 21
131.31374714780151
 31
0.0
  0
LINE
  5
22C
  8
0
 10
51.871743846428267
 20
125.11374714778979
 30
0.0
 11
51.871743846428267
 21
131.31374714780151
 31
0.0
  0
LINE
  5
22D
  8
0
 10
52.171743846403949
 20
124.81374714780149
 30
0.0
 11
51.871743846428267
 21
125.11374714778979
 31
0.0
  0
LINE
  5
22E
  8
0
 10
65.071743846452591
 20
124.81374714780149
 30
0.0
 11
52.171743846403949
 21
124.81374714780149
 31
0.0
  0
CIRCLE
  5
22F
  8
0
 10
121.49097317207379
 20
219.35405717335249
 30
0.0
 40
4.0
  0
ARC
  5
230
  8
0
 10
123.07097317207371
 20
219.35405717335249
 30
0.0
 40
0.3949999999999999
 50
283.34175822722119
 51
76.658241772778837
  0
ARC
  5
231
  8
0
 10
123.32163507808571
 20
218.29712402912119
 30
0.0
 40
0.6912500000000005
 50
103.34175822722121
 51
196.65824177277699
  0
ARC
  5
232
  8
0
 10
122.2809731720738
 20
217.98573703537301
 30
0.0
 40
0.3949999999999998
 50
223.34175822722139
 51
16.658241772777039
  0
ARC
  5
233
  8
0
 10
121.49097317207379
 20
217.24019088489001
 30
0.0
 40
0.6912499999999989
 50
43.341758227221433
 51
136.65824177277861
  0
ARC
  5
234
  8
0
 10
120.7009731720738
 20
217.98573703537301
 30
0.0
 40
0.3950000000000002
 50
163.3417582272229
 51
316.65824177277852
  0
ARC
  5
235
  8
0
 10
123.32163507808571
 20
220.4109903175837
 30
0.0
 40
0.691250000000001
 50
163.3417582272229
 51
256.65824177277881
  0
ARC
  5
236
  8
0
 10
122.2809731720738
 20
220.72237731133191
 30
0.0
 40
0.3950000000000001
 50
343.3417582272229
 51
136.65824177277861
  0
ARC
  5
237
  8
0
 10
121.49097317207379
 20
221.46792346181491
 30
0.0
 40
0.6912500000000003
 50
223.34175822722139
 51
316.65824177277511
  0
ARC
  5
238
  8
0
 10
120.7009731720738
 20
220.72237731133191
 30
0.0
 40
0.3949999999999998
 50
43.341758227221433
 51
196.65824177277699
  0
ARC
  5
239
  8
0
 10
119.6603112660618
 20
220.4109903175837
 30
0.0
 40
0.6912500000000003
 50
283.34175822722119
 51
16.658241772777039
  0
ARC
  5
23A
  8
0
 10
119.9109731720738
 20
219.35405717335249
 30
0.0
 40
0.3950000000000004
 50
103.34175822722121
 51
256.65824177277881
  0
ARC
  5
23B
  8
0
 10
119.6603112660618
 20
218.29712402912119
 30
0.0
 40
0.6912500000000011
 50
343.3417582272229
 51
76.658241772778837
  0
LINE
  5
23C
  8
0
 10
124.24097317207379
 20
219.87905717335249
 30
0.0
 11
122.8801900729397
 21
219.87905717335249
 31
0.0
  0
LINE
  5
23D
  8
0
 10
124.24097317207379
 20
218.82905717335251
 30
0.0
 11
122.8801900729398
 21
218.82905717335251
 31
0.0
  0
LINE
  5
23E
  8
0
 10
120.10175627120771
 20
218.82905717335251
 30
0.0
 11
118.74097317207379
 21
218.82905717335251
 31
0.0
  0
LINE
  5
23F
  8
0
 10
120.1017562712078
 20
219.87905717335249
 30
0.0
 11
118.74097317207379
 21
219.87905717335249
 31
0.0
  0
ARC
  5
240
  8
0
 10
121.49097317207379
 20
219.35405717335249
 30
0.0
 40
2.7567916134521511
 50
175.97735839170261
 51
184.0226416083006
  0
LINE
  5
241
  8
0
 10
118.74097317207379
 20
218.82905717335251
 30
0.0
 11
118.74097317207379
 21
219.87905717335249
 31
0.0
  0
LINE
  5
242
  8
0
 10
124.24097317207379
 20
218.82905717335251
 30
0.0
 11
124.24097317207379
 21
219.87905717335249
 31
0.0
  0
ARC
  5
243
  8
0
 10
121.49097317207379
 20
219.35405717335249
 30
0.0
 40
2.7567916134521511
 50
190.97839132993789
 51
349.02160867006211
  0
ARC
  5
244
  8
0
 10
121.49097317207379
 20
219.35405717335249
 30
0.0
 40
2.7567916134521511
 50
10.978391329937949
 51
169.02160867006199
  0
ARC
  5
245
  8
0
 10
121.49097317207379
 20
219.35405717335249
 30
0.0
 40
2.7567916134521511
 50
355.9773583916961
 51
4.0226416083039043
  0
POLYLINE
  5
246
  8
0
 10
54.621743846428409
 20
152.91081613629459
 30
0.0
 66
     1
 70
     8
  0
VERTEX
  8
0
  5
6BF
 10
54.6217
 20
152.911
 30
0.000000
  70
    32
  0
VERTEX
  8
0
  5
6C0
 10
54.3483
 20
152.865
 30
0.000000
  70
    32
  0
VERTEX
  8
0
  5
6C1
 10
54.0820
 20
152.816
 30
0.000000
  70
    32
  0
VERTEX
  8
0
  5
6C2
 10
53.8232
 20
152.763
 30
0.000000
  70
    32
  0
VERTEX
  8
0
  5
6C3
 10
53.5723
 20
152.709
 30
0.000000
  70
    32
  0
VERTEX
  8
0
  5
6C4
 10
53.3299
 20
152.651
 30
0.000000
  70
    32
  0
VERTEX
  8
0
  5
6C5
 10
53.0963
 20
152.590
 30
0.000000
  70
    32
  0
VERTEX
  8
0
  5
6C6
 10
52.8718
 20
152.528
 30
0.000000
  70
    32
  0
VERTEX
  8
0
  5
6C7
 10
52.6569
 20
152.462
 30
0.000000
  70
    32
  0
VERTEX
  8
0
  5
6C8
 10
52.4519
 20
152.395
 30
0.000000
  70
    32
  0
VERTEX
  8
0
  5
6C9
 10
52.2572
 20
152.325
 30
0.000000
  70
    32
  0
VERTEX
  8
0
  5
6CA
 10
52.0731
 20
152.253
 30
0.000000
  70
    32
  0
VERTEX
  8
0
  5
6CB
 10
51.8998
 20
152.179
 30
0.000000
  70
    32
  0
VERTEX
  8
0
  5
6CC
 10
51.7377
 20
152.103
 30
0.000000
  70
    32
  0
VERTEX
  8
0
  5
6CD
 10
51.5870
 20
152.025
 30
0.000000
  70
    32
  0
VERTEX
  8
0
  5
6CE
 10
51.4481
 20
151.946
 30
0.000000
  70
    32
  0
VERTEX
  8
0
  5
6CF
 10
51.3210
 20
151.865
 30
0.000000
  70
    32
  0
VERTEX
  8
0
  5
6D0
 10
51.2061
 20
151.783
 30
0.000000
  70
    32
  0
VERTEX
  8
0
  5
6D1
 10
51.1035
 20
151.700
 30
0.000000
  70
    32
  0
VERTEX
  8
0
  5
6D2
 10
51.0134
 20
151.615
 30
0.000000
  70
    32
  0
VERTEX
  8
0
  5
6D3
 10
50.9360
 20
151.530
 30
0.000000
  70
    32
  0
VERTEX
  8
0
  5
6D4
 10
50.8713
 20
151.444
 30
0.000000
  70
    32
  0
VERTEX
  8
0
  5
6D5
 10
50.8195
 20
151.357
 30
0.000000
  70
    32
  0
VERTEX
  8
0
  5
6D6
 10
50.7807
 20
151.270
 30
0.000000
  70
    32
  0
VERTEX
  8
0
  5
6D7
 10
50.7549
 20
151.182
 30
0.000000
  70
    32
  0
VERTEX
  8
0
  5
6D8
 10
50.7422
 20
151.095
 30
0.000000
  70
    32
  0
VERTEX
  8
0
  5
6D9
 10
50.7426
 20
151.007
 30
0.000000
  70
    32
  0
VERTEX
  8
0
  5
6DA
 10
50.7560
 20
150.919
 30
0.000000
  70
    32
  0
VERTEX
  8
0
  5
6DB
 10
50.7826
 20
150.831
 30
0.000000
  70
    32
  0
VERTEX
  8
0
  5
6DC
 10
50.8221
 20
150.744
 30
0.000000
  70
    32
  0
VERTEX
  8
0
  5
6DD
 10
50.8747
 20
150.657
 30
0.000000
  70
    32
  0
VERTEX
  8
0
  5
6DE
 10
50.9401
 20
150.571
 30
0.000000
  70
    32
  0
VERTEX
  8
0
  5
6DF
 10
51.0183
 20
150.486
 30
0.000000
  70
    32
  0
VERTEX
  8
0
  5
6E0
 10
51.1091
 20
150.402
 30
0.000000
  70
    32
  0
VERTEX
  8
0
  5
6E1
 10
51.2124
 20
150.318
 30
0.000000
  70
    32
  0
VERTEX
  8
0
  5
6E2
 10
51.3280
 20
150.236
 30
0.000000
  70
    32
  0
VERTEX
  8
0
  5
6E3
 10
51.4557
 20
150.156
 30
0.000000
  70
    32
  0
VERTEX
  8
0
  5
6E4
 10
51.5953
 20
150.077
 30
0.000000
  70
    32
  0
VERTEX
  8
0
  5
6E5
 10
51.7467
 20
149.999
 30
0.000000
  70
    32
  0
VERTEX
  8
0
  5
6E6
 10
51.9094
 20
149.923
 30
0.000000
  70
    32
  0
VERTEX
  8
0
  5
6E7
 10
52.0833
 20
149.849
 30
0.000000
  70
    32
  0
VERTEX
  8
0
  5
6E8
 10
52.2681
 20
149.778
 30
0.000000
  70
    32
  0
VERTEX
  8
0
  5
6E9
 10
52.4634
 20
149.708
 30
0.000000
  70
    32
  0
VERTEX
  8
0
  5
6EA
 10
52.6690
 20
149.640
 30
0.000000
  70
    32
  0
VERTEX
  8
0
  5
6EB
 10
52.8844
 20
149.575
 30
0.000000
  70
    32
  0
VERTEX
  8
0
  5
6EC
 10
53.1094
 20
149.512
 30
0.000000
  70
    32
  0
VERTEX
  8
0
  5
6ED
 10
53.3435
 20
149.452
 30
0.000000
  70
    32
  0
VERTEX
  8
0
  5
6EE
 10
53.5865
 20
149.395
 30
0.000000
  70
    32
  0
VERTEX
  8
0
  5
6EF
 10
53.8378
 20
149.340
 30
0.000000
  70
    32
  0
VERTEX
  8
0
  5
6F0
 10
54.0970
 20
149.288
 30
0.000000
  70
    32
  0
VERTEX
  8
0
  5
6F1
 10
54.3638
 20
149.239
 30
0.000000
  70
    32
  0
VERTEX
  8
0
  5
6F2
 10
54.6376
 20
149.193
 30
0.000000
  70
    32
  0
VERTEX
  8
0
  5
6F3
 10
54.9181
 20
149.150
 30
0.000000
  70
    32
  0
VERTEX
  8
0
  5
6F4
 10
55.2047
 20
149.110
 30
0.000000
  70
    32
  0
VERTEX
  8
0
  5
6F5
 10
55.4970
 20
149.074
 30
0.000000
  70
    32
  0
VERTEX
  8
0
  5
6F6
 10
55.7944
 20
149.041
 30
0.000000
  70
    32
  0
VERTEX
  8
0
  5
6F7
 10
56.0966
 20
149.011
 30
0.000000
  70
    32
  0
VERTEX
  8
0
  5
6F8
 10
56.4030
 20
148.984
 30
0.000000
  70
    32
  0
VERTEX
  8
0
  5
6F9
 10
56.7131
 20
148.961
 30
0.000000
  70
    32
  0
VERTEX
  8
0
  5
6FA
 10
57.0263
 20
148.942
 30
0.000000
  70
    32
  0
VERTEX
  8
0
  5
6FB
 10
57.3422
 20
148.926
 30
0.000000
  70
    32
  0
VERTEX
  8
0
  5
6FC
 10
57.6602
 20
148.913
 30
0.000000
  70
    32
  0
VERTEX
  8
0
  5
6FD
 10
57.9798
 20
148.904
 30
0.000000
  70
    32
  0
VERTEX
  8
0
  5
6FE
 10
58.3005
 20
148.899
 30
0.000000
  70
    32
  0
VERTEX
  8
0
  5
6FF
 10
58.6217
 20
148.897
 30
0.000000
  70
    32
  0
VERTEX
  8
0
  5
700
 10
58.9430
 20
148.899
 30
0.000000
  70
    32
  0
VERTEX
  8
0
  5
701
 10
59.2636
 20
148.904
 30
0.000000
  70
    32
  0
VERTEX
  8
0
  5
702
 10
59.5833
 20
148.913
 30
0.000000
  70
    32
  0
VERTEX
  8
0
  5
703
 10
59.9013
 20
148.926
 30
0.000000
  70
    32
  0
VERTEX
  8
0
  5
704
 10
60.2172
 20
148.942
 30
0.000000
  70
    32
  0
VERTEX
  8
0
  5
705
 10
60.5304
 20
148.961
 30
0.000000
  70
    32
  0
VERTEX
  8
0
  5
706
 10
60.8405
 20
148.984
 30
0.000000
  70
    32
  0
VERTEX
  8
0
  5
707
 10
61.1469
 20
149.011
 30
0.000000
  70
    32
  0
VERTEX
  8
0
  5
708
 10
61.4490
 20
149.041
 30
0.000000
  70
    32
  0
VERTEX
  8
0
  5
709
 10
61.7465
 20
149.074
 30
0.000000
  70
    32
  0
VERTEX
  8
0
  5
70A
 10
62.0388
 20
149.110
 30
0.000000
  70
    32
  0
VERTEX
  8
0
  5
70B
 10
62.3254
 20
149.150
 30
0.000000
  70
    32
  0
VERTEX
  8
0
  5
70C
 10
62.6059
 20
149.193
 30
0.000000
  70
    32
  0
VERTEX
  8
0
  5
70D
 10
62.8797
 20
149.239
 30
0.000000
  70
    32
  0
VERTEX
  8
0
  5
70E
 10
63.1465
 20
149.288
 30
0.000000
  70
    32
  0
VERTEX
  8
0
  5
70F
 10
63.4057
 20
149.340
 30
0.000000
  70
    32
  0
VERTEX
  8
0
  5
710
 10
63.6570
 20
149.395
 30
0.000000
  70
    32
  0
VERTEX
  8
0
  5
711
 10
63.8999
 20
149.452
 30
0.000000
  70
    32
  0
VERTEX
  8
0
  5
712
 10
64.1341
 20
149.512
 30
0.000000
  70
    32
  0
VERTEX
  8
0
  5
713
 10
64.3591
 20
149.575
 30
0.000000
  70
    32
  0
VERTEX
  8
0
  5
714
 10
64.5745
 20
149.640
 30
0.000000
  70
    32
  0
VERTEX
  8
0
  5
715
 10
64.7801
 20
149.708
 30
0.000000
  70
    32
  0
VERTEX
  8
0
  5
716
 10
64.9754
 20
149.778
 30
0.000000
  70
    32
  0
VERTEX
  8
0
  5
717
 10
65.1602
 20
149.849
 30
0.000000
  70
    32
  0
VERTEX
  8
0
  5
718
 10
65.3341
 20
149.923
 30
0.000000
  70
    32
  0
VERTEX
  8
0
  5
719
 10
65.4968
 20
149.999
 30
0.000000
  70
    32
  0
VERTEX
  8
0
  5
71A
 10
65.6481
 20
150.077
 30
0.000000
  70
    32
  0
VERTEX
  8
0
  5
71B
 10
65.7878
 20
150.156
 30
0.000000
  70
    32
  0
VERTEX
  8
0
  5
71C
 10
65.9155
 20
150.236
 30
0.000000
  70
    32
  0
VERTEX
  8
0
  5
71D
 10
66.0311
 20
150.318
 30
0.000000
  70
    32
  0
VERTEX
  8
0
  5
71E
 10
66.1344
 20
150.402
 30
0.000000
  70
    32
  0
VERTEX
  8
0
  5
71F
 10
66.2252
 20
150.486
 30
0.000000
  70
    32
  0
VERTEX
  8
0
  5
720
 10
66.3034
 20
150.571
 30
0.000000
  70
    32
  0
VERTEX
  8
0
  5
721
 10
66.3688
 20
150.657
 30
0.000000
  70
    32
  0
VERTEX
  8
0
  5
722
 10
66.4213
 20
150.744
 30
0.000000
  70
    32
  0
VERTEX
  8
0
  5
723
 10
66.4609
 20
150.831
 30
0.000000
  70
    32
  0
VERTEX
  8
0
  5
724
 10
66.4875
 20
150.919
 30
0.000000
  70
    32
  0
VERTEX
  8
0
  5
725
 10
66.5009
 20
151.007
 30
0.000000
  70
    32
  0
VERTEX
  8
0
  5
726
 10
66.5013
 20
151.095
 30
0.000000
  70
    32
  0
VERTEX
  8
0
  5
727
 10
66.4886
 20
151.182
 30
0.000000
  70
    32
  0
VERTEX
  8
0
  5
728
 10
66.4628
 20
151.270
 30
0.000000
  70
    32
  0
VERTEX
  8
0
  5
729
 10
66.4240
 20
151.357
 30
0.000000
  70
    32
  0
VERTEX
  8
0
  5
72A
 10
66.3722
 20
151.444
 30
0.000000
  70
    32
  0
VERTEX
  8
0
  5
72B
 10
66.3075
 20
151.530
 30
0.000000
  70
    32
  0
VERTEX
  8
0
  5
72C
 10
66.2300
 20
151.615
 30
0.000000
  70
    32
  0
VERTEX
  8
0
  5
72D
 10
66.1400
 20
151.700
 30
0.000000
  70
    32
  0
VERTEX
  8
0
  5
72E
 10
66.0374
 20
151.783
 30
0.000000
  70
    32
  0
VERTEX
  8
0
  5
72F
 10
65.9225
 20
151.865
 30
0.000000
  70
    32
  0
VERTEX
  8
0
  5
730
 10
65.7954
 20
151.946
 30
0.000000
  70
    32
  0
VERTEX
  8
0
  5
731
 10
65.6565
 20
152.025
 30
0.000000
  70
    32
  0
VERTEX
  8
0
  5
732
 10
65.5058
 20
152.103
 30
0.000000
  70
    32
  0
VERTEX
  8
0
  5
733
 10
65.3437
 20
152.179
 30
0.000000
  70
    32
  0
VERTEX
  8
0
  5
734
 10
65.1704
 20
152.253
 30
0.000000
  70
    32
  0
VERTEX
  8
0
  5
735
 10
64.9863
 20
152.325
 30
0.000000
  70
    32
  0
VERTEX
  8
0
  5
736
 10
64.7915
 20
152.395
 30
0.000000
  70
    32
  0
VERTEX
  8
0
  5
737
 10
64.5866
 20
152.462
 30
0.000000
  70
    32
  0
VERTEX
  8
0
  5
738
 10
64.3717
 20
152.528
 30
0.000000
  70
    32
  0
VERTEX
  8
0
  5
739
 10
64.1472
 20
152.590
 30
0.000000
  70
    32
  0
VERTEX
  8
0
  5
73A
 10
63.9136
 20
152.651
 30
0.000000
  70
    32
  0
VERTEX
  8
0
  5
73B
 10
63.6711
 20
152.709
 30
0.000000
  70
    32
  0
VERTEX
  8
0
  5
73C
 10
63.4203
 20
152.763
 30
0.000000
  70
    32
  0
VERTEX
  8
0
  5
73D
 10
63.1615
 20
152.816
 30
0.000000
  70
    32
  0
VERTEX
  8
0
  5
73E
 10
62.8952
 20
152.865
 30
0.000000
  70
    32
  0
VERTEX
  8
0
  5
73F
 10
62.6217
 20
152.911
 30
0.000000
  70
    32
  0
SEQEND
  8
0
  5
740
  0
ARC
  5
247
  8
0
 10
128.74976945561141
 20
152.91938356382599
 30
0.0
 40
0.3
 50
345.6275391096255
 51
104.9999999999996
  0
POLYLINE
  5
248
  8
0
 10
62.971743846428254
 20
161.13321591498411
 30
0.0
 66
     1
 70
     8
  0
VERTEX
  8
0
  5
741
 10
62.9717
 20
161.133
 30
0.000000
  70
    32
  0
VERTEX
  8
0
  5
742
 10
62.9704
 20
161.224
 30
0.000000
  70
    32
  0
VERTEX
  8
0
  5
743
 10
62.9665
 20
161.315
 30
0.000000
  70
    32
  0
VERTEX
  8
0
  5
744
 10
62.9600
 20
161.405
 30
0.000000
  70
    32
  0
VERTEX
  8
0
  5
745
 10
62.9508
 20
161.496
 30
0.000000
  70
    32
  0
VERTEX
  8
0
  5
746
 10
62.9390
 20
161.586
 30
0.000000
  70
    32
  0
VERTEX
  8
0
  5
747
 10
62.9247
 20
161.676
 30
0.000000
  70
    32
  0
VERTEX
  8
0
  5
748
 10
62.9077
 20
161.765
 30
0.000000
  70
    32
  0
VERTEX
  8
0
  5
749
 10
62.8882
 20
161.855
 30
0.000000
  70
    32
  0
VERTEX
  8
0
  5
74A
 10
62.8660
 20
161.943
 30
0.000000
  70
    32
  0
VERTEX
  8
0
  5
74B
 10
62.8414
 20
162.032
 30
0.000000
  70
    32
  0
VERTEX
  8
0
  5
74C
 10
62.8142
 20
162.119
 30
0.000000
  70
    32
  0
VERTEX
  8
0
  5
74D
 10
62.7844
 20
162.207
 30
0.000000
  70
    32
  0
VERTEX
  8
0
  5
74E
 10
62.7522
 20
162.293
 30
0.000000
  70
    32
  0
VERTEX
  8
0
  5
74F
 10
62.7175
 20
162.379
 30
0.000000
  70
    32
  0
VERTEX
  8
0
  5
750
 10
62.6803
 20
162.464
 30
0.000000
  70
    32
  0
VERTEX
  8
0
  5
751
 10
62.6406
 20
162.548
 30
0.000000
  70
    32
  0
VERTEX
  8
0
  5
752
 10
62.5986
 20
162.632
 30
0.000000
  70
    32
  0
VERTEX
  8
0
  5
753
 10
62.5541
 20
162.714
 30
0.000000
  70
    32
  0
VERTEX
  8
0
  5
754
 10
62.5073
 20
162.796
 30
0.000000
  70
    32
  0
VERTEX
  8
0
  5
755
 10
62.4581
 20
162.876
 30
0.000000
  70
    32
  0
VERTEX
  8
0
  5
756
 10
62.4066
 20
162.956
 30
0.000000
  70
    32
  0
VERTEX
  8
0
  5
757
 10
62.3529
 20
163.034
 30
0.000000
  70
    32
  0
VERTEX
  8
0
  5
758
 10
62.2969
 20
163.112
 30
0.000000
  70
    32
  0
VERTEX
  8
0
  5
759
 10
62.2386
 20
163.188
 30
0.000000
  70
    32
  0
VERTEX
  8
0
  5
75A
 10
62.1782
 20
163.262
 30
0.000000
  70
    32
  0
VERTEX
  8
0
  5
75B
 10
62.1157
 20
163.336
 30
0.000000
  70
    32
  0
VERTEX
  8
0
  5
75C
 10
62.0511
 20
163.408
 30
0.000000
  70
    32
  0
VERTEX
  8
0
  5
75D
 10
61.9843
 20
163.479
 30
0.000000
  70
    32
  0
VERTEX
  8
0
  5
75E
 10
61.9156
 20
163.549
 30
0.000000
  70
    32
  0
VERTEX
  8
0
  5
75F
 10
61.8449
 20
163.617
 30
0.000000
  70
    32
  0
VERTEX
  8
0
  5
760
 10
61.7722
 20
163.683
 30
0.000000
  70
    32
  0
VERTEX
  8
0
  5
761
 10
61.6977
 20
163.748
 30
0.000000
  70
    32
  0
VERTEX
  8
0
  5
762
 10
61.6212
 20
163.811
 30
0.000000
  70
    32
  0
VERTEX
  8
0
  5
763
 10
61.5430
 20
163.873
 30
0.000000
  70
    32
  0
VERTEX
  8
0
  5
764
 10
61.4630
 20
163.933
 30
0.000000
  70
    32
  0
VERTEX
  8
0
  5
765
 10
61.3814
 20
163.992
 30
0.000000
  70
    32
  0
VERTEX
  8
0
  5
766
 10
61.2980
 20
164.048
 30
0.000000
  70
    32
  0
VERTEX
  8
0
  5
767
 10
61.2130
 20
164.103
 30
0.000000
  70
    32
  0
VERTEX
  8
0
  5
768
 10
61.1265
 20
164.157
 30
0.000000
  70
    32
  0
VERTEX
  8
0
  5
769
 10
61.0385
 20
164.208
 30
0.000000
  70
    32
  0
VERTEX
  8
0
  5
76A
 10
60.9490
 20
164.257
 30
0.000000
  70
    32
  0
VERTEX
  8
0
  5
76B
 10
60.8581
 20
164.305
 30
0.000000
  70
    32
  0
VERTEX
  8
0
  5
76C
 10
60.7659
 20
164.351
 30
0.000000
  70
    32
  0
VERTEX
  8
0
  5
76D
 10
60.6723
 20
164.394
 30
0.000000
  70
    32
  0
VERTEX
  8
0
  5
76E
 10
60.5776
 20
164.436
 30
0.000000
  70
    32
  0
VERTEX
  8
0
  5
76F
 10
60.4816
 20
164.476
 30
0.000000
  70
    32
  0
VERTEX
  8
0
  5
770
 10
60.3845
 20
164.514
 30
0.000000
  70
    32
  0
VERTEX
  8
0
  5
771
 10
60.2864
 20
164.550
 30
0.000000
  70
    32
  0
VERTEX
  8
0
  5
772
 10
60.1873
 20
164.583
 30
0.000000
  70
    32
  0
VERTEX
  8
0
  5
773
 10
60.0872
 20
164.615
 30
0.000000
  70
    32
  0
VERTEX
  8
0
  5
774
 10
59.9863
 20
164.644
 30
0.000000
  70
    32
  0
VERTEX
  8
0
  5
775
 10
59.8845
 20
164.672
 30
0.000000
  70
    32
  0
VERTEX
  8
0
  5
776
 10
59.7819
 20
164.697
 30
0.000000
  70
    32
  0
VERTEX
  8
0
  5
777
 10
59.6787
 20
164.720
 30
0.000000
  70
    32
  0
VERTEX
  8
0
  5
778
 10
59.5748
 20
164.741
 30
0.000000
  70
    32
  0
VERTEX
  8
0
  5
779
 10
59.4704
 20
164.760
 30
0.000000
  70
    32
  0
VERTEX
  8
0
  5
77A
 10
59.3654
 20
164.777
 30
0.000000
  70
    32
  0
VERTEX
  8
0
  5
77B
 10
59.2600
 20
164.791
 30
0.000000
  70
    32
  0
VERTEX
  8
0
  5
77C
 10
59.1542
 20
164.803
 30
0.000000
  70
    32
  0
VERTEX
  8
0
  5
77D
 10
59.0481
 20
164.813
 30
0.000000
  70
    32
  0
VERTEX
  8
0
  5
77E
 10
58.9417
 20
164.821
 30
0.000000
  70
    32
  0
VERTEX
  8
0
  5
77F
 10
58.8352
 20
164.827
 30
0.000000
  70
    32
  0
VERTEX
  8
0
  5
780
 10
58.7285
 20
164.830
 30
0.000000
  70
    32
  0
VERTEX
  8
0
  5
781
 10
58.6217
 20
164.831
 30
0.000000
  70
    32
  0
VERTEX
  8
0
  5
782
 10
58.5150
 20
164.830
 30
0.000000
  70
    32
  0
VERTEX
  8
0
  5
783
 10
58.4083
 20
164.827
 30
0.000000
  70
    32
  0
VERTEX
  8
0
  5
784
 10
58.3017
 20
164.821
 30
0.000000
  70
    32
  0
VERTEX
  8
0
  5
785
 10
58.1954
 20
164.813
 30
0.000000
  70
    32
  0
VERTEX
  8
0
  5
786
 10
58.0893
 20
164.803
 30
0.000000
  70
    32
  0
VERTEX
  8
0
  5
787
 10
57.9835
 20
164.791
 30
0.000000
  70
    32
  0
VERTEX
  8
0
  5
788
 10
57.8781
 20
164.777
 30
0.000000
  70
    32
  0
VERTEX
  8
0
  5
789
 10
57.7731
 20
164.760
 30
0.000000
  70
    32
  0
VERTEX
  8
0
  5
78A
 10
57.6687
 20
164.741
 30
0.000000
  70
    32
  0
VERTEX
  8
0
  5
78B
 10
57.5648
 20
164.720
 30
0.000000
  70
    32
  0
VERTEX
  8
0
  5
78C
 10
57.4615
 20
164.697
 30
0.000000
  70
    32
  0
VERTEX
  8
0
  5
78D
 10
57.3590
 20
164.672
 30
0.000000
  70
    32
  0
VERTEX
  8
0
  5
78E
 10
57.2572
 20
164.644
 30
0.000000
  70
    32
  0
VERTEX
  8
0
  5
78F
 10
57.1563
 20
164.615
 30
0.000000
  70
    32
  0
VERTEX
  8
0
  5
790
 10
57.0562
 20
164.583
 30
0.000000
  70
    32
  0
VERTEX
  8
0
  5
791
 10
56.9571
 20
164.550
 30
0.000000
  70
    32
  0
VERTEX
  8
0
  5
792
 10
56.8589
 20
164.514
 30
0.000000
  70
    32
  0
VERTEX
  8
0
  5
793
 10
56.7619
 20
164.476
 30
0.000000
  70
    32
  0
VERTEX
  8
0
  5
794
 10
56.6659
 20
164.436
 30
0.000000
  70
    32
  0
VERTEX
  8
0
  5
795
 10
56.5712
 20
164.394
 30
0.000000
  70
    32
  0
VERTEX
  8
0
  5
796
 10
56.4776
 20
164.351
 30
0.000000
  70
    32
  0
VERTEX
  8
0
  5
797
 10
56.3854
 20
164.305
 30
0.000000
  70
    32
  0
VERTEX
  8
0
  5
798
 10
56.2945
 20
164.257
 30
0.000000
  70
    32
  0
VERTEX
  8
0
  5
799
 10
56.2050
 20
164.208
 30
0.000000
  70
    32
  0
VERTEX
  8
0
  5
79A
 10
56.1170
 20
164.157
 30
0.000000
  70
    32
  0
VERTEX
  8
0
  5
79B
 10
56.0305
 20
164.103
 30
0.000000
  70
    32
  0
VERTEX
  8
0
  5
79C
 10
55.9455
 20
164.048
 30
0.000000
  70
    32
  0
VERTEX
  8
0
  5
79D
 10
55.8621
 20
163.992
 30
0.000000
  70
    32
  0
VERTEX
  8
0
  5
79E
 10
55.7804
 20
163.933
 30
0.000000
  70
    32
  0
VERTEX
  8
0
  5
79F
 10
55.7005
 20
163.873
 30
0.000000
  70
    32
  0
VERTEX
  8
0
  5
7A0
 10
55.6222
 20
163.811
 30
0.000000
  70
    32
  0
VERTEX
  8
0
  5
7A1
 10
55.5458
 20
163.748
 30
0.000000
  70
    32
  0
VERTEX
  8
0
  5
7A2
 10
55.4713
 20
163.683
 30
0.000000
  70
    32
  0
VERTEX
  8
0
  5
7A3
 10
55.3986
 20
163.617
 30
0.000000
  70
    32
  0
VERTEX
  8
0
  5
7A4
 10
55.3279
 20
163.549
 30
0.000000
  70
    32
  0
VERTEX
  8
0
  5
7A5
 10
55.2591
 20
163.479
 30
0.000000
  70
    32
  0
VERTEX
  8
0
  5
7A6
 10
55.1924
 20
163.408
 30
0.000000
  70
    32
  0
VERTEX
  8
0
  5
7A7
 10
55.1278
 20
163.336
 30
0.000000
  70
    32
  0
VERTEX
  8
0
  5
7A8
 10
55.0652
 20
163.262
 30
0.000000
  70
    32
  0
VERTEX
  8
0
  5
7A9
 10
55.0049
 20
163.188
 30
0.000000
  70
    32
  0
VERTEX
  8
0
  5
7AA
 10
54.9466
 20
163.112
 30
0.000000
  70
    32
  0
VERTEX
  8
0
  5
7AB
 10
54.8906
 20
163.034
 30
0.000000
  70
    32
  0
VERTEX
  8
0
  5
7AC
 10
54.8369
 20
162.956
 30
0.000000
  70
    32
  0
VERTEX
  8
0
  5
7AD
 10
54.7854
 20
162.876
 30
0.000000
  70
    32
  0
VERTEX
  8
0
  5
7AE
 10
54.7362
 20
162.796
 30
0.000000
  70
    32
  0
VERTEX
  8
0
  5
7AF
 10
54.6894
 20
162.714
 30
0.000000
  70
    32
  0
VERTEX
  8
0
  5
7B0
 10
54.6449
 20
162.632
 30
0.000000
  70
    32
  0
VERTEX
  8
0
  5
7B1
 10
54.6029
 20
162.548
 30
0.000000
  70
    32
  0
VERTEX
  8
0
  5
7B2
 10
54.5632
 20
162.464
 30
0.000000
  70
    32
  0
VERTEX
  8
0
  5
7B3
 10
54.5260
 20
162.379
 30
0.000000
  70
    32
  0
VERTEX
  8
0
  5
7B4
 10
54.4913
 20
162.293
 30
0.000000
  70
    32
  0
VERTEX
  8
0
  5
7B5
 10
54.4591
 20
162.207
 30
0.000000
  70
    32
  0
VERTEX
  8
0
  5
7B6
 10
54.4293
 20
162.119
 30
0.000000
  70
    32
  0
VERTEX
  8
0
  5
7B7
 10
54.4021
 20
162.032
 30
0.000000
  70
    32
  0
VERTEX
  8
0
  5
7B8
 10
54.3774
 20
161.943
 30
0.000000
  70
    32
  0
VERTEX
  8
0
  5
7B9
 10
54.3553
 20
161.855
 30
0.000000
  70
    32
  0
VERTEX
  8
0
  5
7BA
 10
54.3358
 20
161.765
 30
0.000000
  70
    32
  0
VERTEX
  8
0
  5
7BB
 10
54.3188
 20
161.676
 30
0.000000
  70
    32
  0
VERTEX
  8
0
  5
7BC
 10
54.3045
 20
161.586
 30
0.000000
  70
    32
  0
VERTEX
  8
0
  5
7BD
 10
54.2927
 20
161.496
 30
0.000000
  70
    32
  0
VERTEX
  8
0
  5
7BE
 10
54.2835
 20
161.405
 30
0.000000
  70
    32
  0
VERTEX
  8
0
  5
7BF
 10
54.2770
 20
161.315
 30
0.000000
  70
    32
  0
VERTEX
  8
0
  5
7C0
 10
54.2731
 20
161.224
 30
0.000000
  70
    32
  0
VERTEX
  8
0
  5
7C1
 10
54.2717
 20
161.133
 30
0.000000
  70
    32
  0
SEQEND
  8
0
  5
7C2
  0
POLYLINE
  5
249
  8
0
 10
54.621743846428352
 20
151.47958581208499
 30
0.0
 66
     1
 70
     8
  0
VERTEX
  8
0
  5
7C3
 10
54.6217
 20
151.480
 30
0.000000
  70
    32
  0
VERTEX
  8
0
  5
7C4
 10
54.5751
 20
151.447
 30
0.000000
  70
    32
  0
VERTEX
  8
0
  5
7C5
 10
54.5323
 20
151.414
 30
0.000000
  70
    32
  0
VERTEX
  8
0
  5
7C6
 10
54.4932
 20
151.380
 30
0.000000
  70
    32
  0
VERTEX
  8
0
  5
7C7
 10
54.4580
 20
151.346
 30
0.000000
  70
    32
  0
VERTEX
  8
0
  5
7C8
 10
54.4266
 20
151.312
 30
0.000000
  70
    32
  0
VERTEX
  8
0
  5
7C9
 10
54.3991
 20
151.278
 30
0.000000
  70
    32
  0
VERTEX
  8
0
  5
7CA
 10
54.3755
 20
151.243
 30
0.000000
  70
    32
  0
VERTEX
  8
0
  5
7CB
 10
54.3559
 20
151.208
 30
0.000000
  70
    32
  0
VERTEX
  8
0
  5
7CC
 10
54.3402
 20
151.173
 30
0.000000
  70
    32
  0
VERTEX
  8
0
  5
7CD
 10
54.3286
 20
151.139
 30
0.000000
  70
    32
  0
VERTEX
  8
0
  5
7CE
 10
54.3208
 20
151.103
 30
0.000000
  70
    32
  0
VERTEX
  8
0
  5
7CF
 10
54.3171
 20
151.068
 30
0.000000
  70
    32
  0
VERTEX
  8
0
  5
7D0
 10
54.3174
 20
151.033
 30
0.000000
  70
    32
  0
VERTEX
  8
0
  5
7D1
 10
54.3217
 20
150.998
 30
0.000000
  70
    32
  0
VERTEX
  8
0
  5
7D2
 10
54.3299
 20
150.963
 30
0.000000
  70
    32
  0
VERTEX
  8
0
  5
7D3
 10
54.3421
 20
150.928
 30
0.000000
  70
    32
  0
VERTEX
  8
0
  5
7D4
 10
54.3584
 20
150.893
 30
0.000000
  70
    32
  0
VERTEX
  8
0
  5
7D5
 10
54.3785
 20
150.858
 30
0.000000
  70
    32
  0
VERTEX
  8
0
  5
7D6
 10
54.4026
 20
150.824
 30
0.000000
  70
    32
  0
VERTEX
  8
0
  5
7D7
 10
54.4306
 20
150.790
 30
0.000000
  70
    32
  0
VERTEX
  8
0
  5
7D8
 10
54.4625
 20
150.755
 30
0.000000
  70
    32
  0
VERTEX
  8
0
  5
7D9
 10
54.4983
 20
150.722
 30
0.000000
  70
    32
  0
VERTEX
  8
0
  5
7DA
 10
54.5379
 20
150.688
 30
0.000000
  70
    32
  0
VERTEX
  8
0
  5
7DB
 10
54.5813
 20
150.655
 30
0.000000
  70
    32
  0
VERTEX
  8
0
  5
7DC
 10
54.6284
 20
150.622
 30
0.000000
  70
    32
  0
VERTEX
  8
0
  5
7DD
 10
54.6792
 20
150.590
 30
0.000000
  70
    32
  0
VERTEX
  8
0
  5
7DE
 10
54.7337
 20
150.558
 30
0.000000
  70
    32
  0
VERTEX
  8
0
  5
7DF
 10
54.7918
 20
150.526
 30
0.000000
  70
    32
  0
VERTEX
  8
0
  5
7E0
 10
54.8534
 20
150.495
 30
0.000000
  70
    32
  0
VERTEX
  8
0
  5
7E1
 10
54.9186
 20
150.465
 30
0.000000
  70
    32
  0
VERTEX
  8
0
  5
7E2
 10
54.9872
 20
150.435
 30
0.000000
  70
    32
  0
VERTEX
  8
0
  5
7E3
 10
55.0591
 20
150.406
 30
0.000000
  70
    32
  0
VERTEX
  8
0
  5
7E4
 10
55.1344
 20
150.377
 30
0.000000
  70
    32
  0
VERTEX
  8
0
  5
7E5
 10
55.2129
 20
150.349
 30
0.000000
  70
    32
  0
VERTEX
  8
0
  5
7E6
 10
55.2945
 20
150.321
 30
0.000000
  70
    32
  0
VERTEX
  8
0
  5
7E7
 10
55.3793
 20
150.294
 30
0.000000
  70
    32
  0
VERTEX
  8
0
  5
7E8
 10
55.4670
 20
150.268
 30
0.000000
  70
    32
  0
VERTEX
  8
0
  5
7E9
 10
55.5577
 20
150.243
 30
0.000000
  70
    32
  0
VERTEX
  8
0
  5
7EA
 10
55.6512
 20
150.218
 30
0.000000
  70
    32
  0
VERTEX
  8
0
  5
7EB
 10
55.7475
 20
150.194
 30
0.000000
  70
    32
  0
VERTEX
  8
0
  5
7EC
 10
55.8464
 20
150.171
 30
0.000000
  70
    32
  0
VERTEX
  8
0
  5
7ED
 10
55.9479
 20
150.149
 30
0.000000
  70
    32
  0
VERTEX
  8
0
  5
7EE
 10
56.0519
 20
150.128
 30
0.000000
  70
    32
  0
VERTEX
  8
0
  5
7EF
 10
56.1583
 20
150.107
 30
0.000000
  70
    32
  0
VERTEX
  8
0
  5
7F0
 10
56.2670
 20
150.087
 30
0.000000
  70
    32
  0
VERTEX
  8
0
  5
7F1
 10
56.3779
 20
150.069
 30
0.000000
  70
    32
  0
VERTEX
  8
0
  5
7F2
 10
56.4908
 20
150.051
 30
0.000000
  70
    32
  0
VERTEX
  8
0
  5
7F3
 10
56.6057
 20
150.034
 30
0.000000
  70
    32
  0
VERTEX
  8
0
  5
7F4
 10
56.7225
 20
150.018
 30
0.000000
  70
    32
  0
VERTEX
  8
0
  5
7F5
 10
56.8410
 20
150.003
 30
0.000000
  70
    32
  0
VERTEX
  8
0
  5
7F6
 10
56.9612
 20
149.989
 30
0.000000
  70
    32
  0
VERTEX
  8
0
  5
7F7
 10
57.0830
 20
149.976
 30
0.000000
  70
    32
  0
VERTEX
  8
0
  5
7F8
 10
57.2061
 20
149.964
 30
0.000000
  70
    32
  0
VERTEX
  8
0
  5
7F9
 10
57.3306
 20
149.953
 30
0.000000
  70
    32
  0
VERTEX
  8
0
  5
7FA
 10
57.4563
 20
149.943
 30
0.000000
  70
    32
  0
VERTEX
  8
0
  5
7FB
 10
57.5830
 20
149.934
 30
0.000000
  70
    32
  0
VERTEX
  8
0
  5
7FC
 10
57.7108
 20
149.926
 30
0.000000
  70
    32
  0
VERTEX
  8
0
  5
7FD
 10
57.8393
 20
149.919
 30
0.000000
  70
    32
  0
VERTEX
  8
0
  5
7FE
 10
57.9686
 20
149.913
 30
0.000000
  70
    32
  0
VERTEX
  8
0
  5
7FF
 10
58.0985
 20
149.908
 30
0.000000
  70
    32
  0
VERTEX
  8
0
  5
800
 10
58.2289
 20
149.904
 30
0.000000
  70
    32
  0
VERTEX
  8
0
  5
801
 10
58.3596
 20
149.902
 30
0.000000
  70
    32
  0
VERTEX
  8
0
  5
802
 10
58.4906
 20
149.900
 30
0.000000
  70
    32
  0
VERTEX
  8
0
  5
803
 10
58.6217
 20
149.900
 30
0.000000
  70
    32
  0
VERTEX
  8
0
  5
804
 10
58.7529
 20
149.900
 30
0.000000
  70
    32
  0
VERTEX
  8
0
  5
805
 10
58.8838
 20
149.902
 30
0.000000
  70
    32
  0
VERTEX
  8
0
  5
806
 10
59.0146
 20
149.904
 30
0.000000
  70
    32
  0
VERTEX
  8
0
  5
807
 10
59.1450
 20
149.908
 30
0.000000
  70
    32
  0
VERTEX
  8
0
  5
808
 10
59.2749
 20
149.913
 30
0.000000
  70
    32
  0
VERTEX
  8
0
  5
809
 10
59.4042
 20
149.919
 30
0.000000
  70
    32
  0
VERTEX
  8
0
  5
80A
 10
59.5327
 20
149.926
 30
0.000000
  70
    32
  0
VERTEX
  8
0
  5
80B
 10
59.6605
 20
149.934
 30
0.000000
  70
    32
  0
VERTEX
  8
0
  5
80C
 10
59.7872
 20
149.943
 30
0.000000
  70
    32
  0
VERTEX
  8
0
  5
80D
 10
59.9129
 20
149.953
 30
0.000000
  70
    32
  0
VERTEX
  8
0
  5
80E
 10
60.0374
 20
149.964
 30
0.000000
  70
    32
  0
VERTEX
  8
0
  5
80F
 10
60.1605
 20
149.976
 30
0.000000
  70
    32
  0
VERTEX
  8
0
  5
810
 10
60.2823
 20
149.989
 30
0.000000
  70
    32
  0
VERTEX
  8
0
  5
811
 10
60.4025
 20
150.003
 30
0.000000
  70
    32
  0
VERTEX
  8
0
  5
812
 10
60.5210
 20
150.018
 30
0.000000
  70
    32
  0
VERTEX
  8
0
  5
813
 10
60.6378
 20
150.034
 30
0.000000
  70
    32
  0
VERTEX
  8
0
  5
814
 10
60.7527
 20
150.051
 30
0.000000
  70
    32
  0
VERTEX
  8
0
  5
815
 10
60.8656
 20
150.069
 30
0.000000
  70
    32
  0
VERTEX
  8
0
  5
816
 10
60.9765
 20
150.087
 30
0.000000
  70
    32
  0
VERTEX
  8
0
  5
817
 10
61.0852
 20
150.107
 30
0.000000
  70
    32
  0
VERTEX
  8
0
  5
818
 10
61.1915
 20
150.128
 30
0.000000
  70
    32
  0
VERTEX
  8
0
  5
819
 10
61.2955
 20
150.149
 30
0.000000
  70
    32
  0
VERTEX
  8
0
  5
81A
 10
61.3971
 20
150.171
 30
0.000000
  70
    32
  0
VERTEX
  8
0
  5
81B
 10
61.4960
 20
150.194
 30
0.000000
  70
    32
  0
VERTEX
  8
0
  5
81C
 10
61.5923
 20
150.218
 30
0.000000
  70
    32
  0
VERTEX
  8
0
  5
81D
 10
61.6858
 20
150.243
 30
0.000000
  70
    32
  0
VERTEX
  8
0
  5
81E
 10
61.7765
 20
150.268
 30
0.000000
  70
    32
  0
VERTEX
  8
0
  5
81F
 10
61.8642
 20
150.294
 30
0.000000
  70
    32
  0
VERTEX
  8
0
  5
820
 10
61.9490
 20
150.321
 30
0.000000
  70
    32
  0
VERTEX
  8
0
  5
821
 10
62.0306
 20
150.349
 30
0.000000
  70
    32
  0
VERTEX
  8
0
  5
822
 10
62.1091
 20
150.377
 30
0.000000
  70
    32
  0
VERTEX
  8
0
  5
823
 10
62.1844
 20
150.406
 30
0.000000
  70
    32
  0
VERTEX
  8
0
  5
824
 10
62.2563
 20
150.435
 30
0.000000
  70
    32
  0
VERTEX
  8
0
  5
825
 10
62.3249
 20
150.465
 30
0.000000
  70
    32
  0
VERTEX
  8
0
  5
826
 10
62.3900
 20
150.495
 30
0.000000
  70
    32
  0
VERTEX
  8
0
  5
827
 10
62.4517
 20
150.526
 30
0.000000
  70
    32
  0
VERTEX
  8
0
  5
828
 10
62.5098
 20
150.558
 30
0.000000
  70
    32
  0
VERTEX
  8
0
  5
829
 10
62.5643
 20
150.590
 30
0.000000
  70
    32
  0
VERTEX
  8
0
  5
82A
 10
62.6151
 20
150.622
 30
0.000000
  70
    32
  0
VERTEX
  8
0
  5
82B
 10
62.6622
 20
150.655
 30
0.000000
  70
    32
  0
VERTEX
  8
0
  5
82C
 10
62.7056
 20
150.688
 30
0.000000
  70
    32
  0
VERTEX
  8
0
  5
82D
 10
62.7452
 20
150.722
 30
0.000000
  70
    32
  0
VERTEX
  8
0
  5
82E
 10
62.7810
 20
150.755
 30
0.000000
  70
    32
  0
VERTEX
  8
0
  5
82F
 10
62.8129
 20
150.790
 30
0.000000
  70
    32
  0
VERTEX
  8
0
  5
830
 10
62.8409
 20
150.824
 30
0.000000
  70
    32
  0
VERTEX
  8
0
  5
831
 10
62.8650
 20
150.858
 30
0.000000
  70
    32
  0
VERTEX
  8
0
  5
832
 10
62.8851
 20
150.893
 30
0.000000
  70
    32
  0
VERTEX
  8
0
  5
833
 10
62.9013
 20
150.928
 30
0.000000
  70
    32
  0
VERTEX
  8
0
  5
834
 10
62.9136
 20
150.963
 30
0.000000
  70
    32
  0
VERTEX
  8
0
  5
835
 10
62.9218
 20
150.998
 30
0.000000
  70
    32
  0
VERTEX
  8
0
  5
836
 10
62.9261
 20
151.033
 30
0.000000
  70
    32
  0
VERTEX
  8
0
  5
837
 10
62.9264
 20
151.068
 30
0.000000
  70
    32
  0
VERTEX
  8
0
  5
838
 10
62.9226
 20
151.103
 30
0.000000
  70
    32
  0
VERTEX
  8
0
  5
839
 10
62.9149
 20
151.139
 30
0.000000
  70
    32
  0
VERTEX
  8
0
  5
83A
 10
62.9032
 20
151.173
 30
0.000000
  70
    32
  0
VERTEX
  8
0
  5
83B
 10
62.8876
 20
151.208
 30
0.000000
  70
    32
  0
VERTEX
  8
0
  5
83C
 10
62.8679
 20
151.243
 30
0.000000
  70
    32
  0
VERTEX
  8
0
  5
83D
 10
62.8444
 20
151.278
 30
0.000000
  70
    32
  0
VERTEX
  8
0
  5
83E
 10
62.8169
 20
151.312
 30
0.000000
  70
    32
  0
VERTEX
  8
0
  5
83F
 10
62.7855
 20
151.346
 30
0.000000
  70
    32
  0
VERTEX
  8
0
  5
840
 10
62.7503
 20
151.380
 30
0.000000
  70
    32
  0
VERTEX
  8
0
  5
841
 10
62.7112
 20
151.414
 30
0.000000
  70
    32
  0
VERTEX
  8
0
  5
842
 10
62.6684
 20
151.447
 30
0.000000
  70
    32
  0
VERTEX
  8
0
  5
843
 10
62.6217
 20
151.480
 30
0.000000
  70
    32
  0
SEQEND
  8
0
  5
844
  0
ARC
  5
24A
  8
0
 10
45.521410387774999
 20
143.15921054831401
 30
0.0
 40
22.417199694281759
 50
4.4264788931797909
 51
20.618067986054282
  0
ARC
  5
24B
  8
0
 10
71.722077305081541
 20
143.15921054831421
 30
0.0
 40
22.417199694281681
 50
159.38193201394569
 51
175.57352110682021
  0
CIRCLE
  5
24C
  8
0
 10
121.49097317207379
 20
219.35405717335249
 30
0.0
 40
7.3857149663709833
  0
ARC
  5
24D
  8
0
 10
114.77413032824791
 20
148.44992901965321
 30
0.0
 40
1.0
 50
104.9999999999996
 51
158.96014851211839
  0
ARC
  5
24E
  8
0
 10
130.5409731720739
 20
141.3530406250315
 30
0.0
 40
0.3
 50
90.0
 51
180.0
  0
LINE
  5
24F
  8
0
 10
112.39222346526191
 20
142.0205408132681
 30
0.0
 11
112.4409731720738
 21
141.65304062503151
 31
0.0
  0
ARC
  5
250
  8
0
 10
67.821743846428234
 20
141.3530406250315
 30
0.0
 40
0.3
 50
90.0
 51
180.0
  0
LINE
  5
251
  8
0
 10
67.871743846428245
 20
144.88936557613891
 30
0.0
 11
67.821743846428234
 21
141.65304062503151
 31
0.0
  0
LINE
  5
252
  8
0
 10
49.371743846428302
 20
144.88936557613891
 30
0.0
 11
49.421743846428249
 21
141.65304062503151
 31
0.0
  0
POLYLINE
  5
253
  8
0
 10
49.371743846428245
 20
144.88936557613891
 30
0.0
 66
     1
 70
     8
  0
VERTEX
  8
0
  5
845
 10
49.3717
 20
144.889
 30
0.000000
  70
    32
  0
VERTEX
  8
0
  5
846
 10
49.3745
 20
144.819
 30
0.000000
  70
    32
  0
VERTEX
  8
0
  5
847
 10
49.3829
 20
144.749
 30
0.000000
  70
    32
  0
VERTEX
  8
0
  5
848
 10
49.3968
 20
144.678
 30
0.000000
  70
    32
  0
VERTEX
  8
0
  5
849
 10
49.4163
 20
144.608
 30
0.000000
  70
    32
  0
VERTEX
  8
0
  5
84A
 10
49.4413
 20
144.538
 30
0.000000
  70
    32
  0
VERTEX
  8
0
  5
84B
 10
49.4719
 20
144.468
 30
0.000000
  70
    32
  0
VERTEX
  8
0
  5
84C
 10
49.5079
 20
144.399
 30
0.000000
  70
    32
  0
VERTEX
  8
0
  5
84D
 10
49.5495
 20
144.330
 30
0.000000
  70
    32
  0
VERTEX
  8
0
  5
84E
 10
49.5965
 20
144.261
 30
0.000000
  70
    32
  0
VERTEX
  8
0
  5
84F
 10
49.6490
 20
144.192
 30
0.000000
  70
    32
  0
VERTEX
  8
0
  5
850
 10
49.7068
 20
144.124
 30
0.000000
  70
    32
  0
VERTEX
  8
0
  5
851
 10
49.7700
 20
144.057
 30
0.000000
  70
    32
  0
VERTEX
  8
0
  5
852
 10
49.8386
 20
143.989
 30
0.000000
  70
    32
  0
VERTEX
  8
0
  5
853
 10
49.9125
 20
143.923
 30
0.000000
  70
    32
  0
VERTEX
  8
0
  5
854
 10
49.9916
 20
143.857
 30
0.000000
  70
    32
  0
VERTEX
  8
0
  5
855
 10
50.0759
 20
143.792
 30
0.000000
  70
    32
  0
VERTEX
  8
0
  5
856
 10
50.1653
 20
143.727
 30
0.000000
  70
    32
  0
VERTEX
  8
0
  5
857
 10
50.2598
 20
143.663
 30
0.000000
  70
    32
  0
VERTEX
  8
0
  5
858
 10
50.3594
 20
143.600
 30
0.000000
  70
    32
  0
VERTEX
  8
0
  5
859
 10
50.4640
 20
143.537
 30
0.000000
  70
    32
  0
VERTEX
  8
0
  5
85A
 10
50.5734
 20
143.475
 30
0.000000
  70
    32
  0
VERTEX
  8
0
  5
85B
 10
50.6878
 20
143.414
 30
0.000000
  70
    32
  0
VERTEX
  8
0
  5
85C
 10
50.8068
 20
143.355
 30
0.000000
  70
    32
  0
VERTEX
  8
0
  5
85D
 10
50.9306
 20
143.296
 30
0.000000
  70
    32
  0
VERTEX
  8
0
  5
85E
 10
51.0591
 20
143.237
 30
0.000000
  70
    32
  0
VERTEX
  8
0
  5
85F
 10
51.1921
 20
143.180
 30
0.000000
  70
    32
  0
VERTEX
  8
0
  5
860
 10
51.3295
 20
143.124
 30
0.000000
  70
    32
  0
VERTEX
  8
0
  5
861
 10
51.4714
 20
143.069
 30
0.000000
  70
    32
  0
VERTEX
  8
0
  5
862
 10
51.6176
 20
143.016
 30
0.000000
  70
    32
  0
VERTEX
  8
0
  5
863
 10
51.7679
 20
142.963
 30
0.000000
  70
    32
  0
VERTEX
  8
0
  5
864
 10
51.9225
 20
142.911
 30
0.000000
  70
    32
  0
VERTEX
  8
0
  5
865
 10
52.0810
 20
142.861
 30
0.000000
  70
    32
  0
VERTEX
  8
0
  5
866
 10
52.2435
 20
142.812
 30
0.000000
  70
    32
  0
VERTEX
  8
0
  5
867
 10
52.4098
 20
142.764
 30
0.000000
  70
    32
  0
VERTEX
  8
0
  5
868
 10
52.5799
 20
142.717
 30
0.000000
  70
    32
  0
VERTEX
  8
0
  5
869
 10
52.7536
 20
142.672
 30
0.000000
  70
    32
  0
VERTEX
  8
0
  5
86A
 10
52.9309
 20
142.628
 30
0.000000
  70
    32
  0
VERTEX
  8
0
  5
86B
 10
53.1115
 20
142.585
 30
0.000000
  70
    32
  0
VERTEX
  8
0
  5
86C
 10
53.2955
 20
142.544
 30
0.000000
  70
    32
  0
VERTEX
  8
0
  5
86D
 10
53.4827
 20
142.504
 30
0.000000
  70
    32
  0
VERTEX
  8
0
  5
86E
 10
53.6730
 20
142.466
 30
0.000000
  70
    32
  0
VERTEX
  8
0
  5
86F
 10
53.8663
 20
142.429
 30
0.000000
  70
    32
  0
VERTEX
  8
0
  5
870
 10
54.0624
 20
142.393
 30
0.000000
  70
    32
  0
VERTEX
  8
0
  5
871
 10
54.2613
 20
142.359
 30
0.000000
  70
    32
  0
VERTEX
  8
0
  5
872
 10
54.4628
 20
142.327
 30
0.000000
  70
    32
  0
VERTEX
  8
0
  5
873
 10
54.6669
 20
142.296
 30
0.000000
  70
    32
  0
VERTEX
  8
0
  5
874
 10
54.8733
 20
142.267
 30
0.000000
  70
    32
  0
VERTEX
  8
0
  5
875
 10
55.0819
 20
142.239
 30
0.000000
  70
    32
  0
VERTEX
  8
0
  5
876
 10
55.2927
 20
142.213
 30
0.000000
  70
    32
  0
VERTEX
  8
0
  5
877
 10
55.5055
 20
142.188
 30
0.000000
  70
    32
  0
VERTEX
  8
0
  5
878
 10
55.7202
 20
142.165
 30
0.000000
  70
    32
  0
VERTEX
  8
0
  5
879
 10
55.9366
 20
142.144
 30
0.000000
  70
    32
  0
VERTEX
  8
0
  5
87A
 10
56.1547
 20
142.124
 30
0.000000
  70
    32
  0
VERTEX
  8
0
  5
87B
 10
56.3742
 20
142.107
 30
0.000000
  70
    32
  0
VERTEX
  8
0
  5
87C
 10
56.5951
 20
142.090
 30
0.000000
  70
    32
  0
VERTEX
  8
0
  5
87D
 10
56.8172
 20
142.076
 30
0.000000
  70
    32
  0
VERTEX
  8
0
  5
87E
 10
57.0403
 20
142.063
 30
0.000000
  70
    32
  0
VERTEX
  8
0
  5
87F
 10
57.2645
 20
142.052
 30
0.000000
  70
    32
  0
VERTEX
  8
0
  5
880
 10
57.4894
 20
142.042
 30
0.000000
  70
    32
  0
VERTEX
  8
0
  5
881
 10
57.7151
 20
142.034
 30
0.000000
  70
    32
  0
VERTEX
  8
0
  5
882
 10
57.9413
 20
142.028
 30
0.000000
  70
    32
  0
VERTEX
  8
0
  5
883
 10
58.1679
 20
142.024
 30
0.000000
  70
    32
  0
VERTEX
  8
0
  5
884
 10
58.3947
 20
142.021
 30
0.000000
  70
    32
  0
VERTEX
  8
0
  5
885
 10
58.6217
 20
142.021
 30
0.000000
  70
    32
  0
VERTEX
  8
0
  5
886
 10
58.8488
 20
142.021
 30
0.000000
  70
    32
  0
VERTEX
  8
0
  5
887
 10
59.0756
 20
142.024
 30
0.000000
  70
    32
  0
VERTEX
  8
0
  5
888
 10
59.3022
 20
142.028
 30
0.000000
  70
    32
  0
VERTEX
  8
0
  5
889
 10
59.5284
 20
142.034
 30
0.000000
  70
    32
  0
VERTEX
  8
0
  5
88A
 10
59.7540
 20
142.042
 30
0.000000
  70
    32
  0
VERTEX
  8
0
  5
88B
 10
59.9790
 20
142.052
 30
0.000000
  70
    32
  0
VERTEX
  8
0
  5
88C
 10
60.2031
 20
142.063
 30
0.000000
  70
    32
  0
VERTEX
  8
0
  5
88D
 10
60.4263
 20
142.076
 30
0.000000
  70
    32
  0
VERTEX
  8
0
  5
88E
 10
60.6484
 20
142.090
 30
0.000000
  70
    32
  0
VERTEX
  8
0
  5
88F
 10
60.8693
 20
142.107
 30
0.000000
  70
    32
  0
VERTEX
  8
0
  5
890
 10
61.0888
 20
142.124
 30
0.000000
  70
    32
  0
VERTEX
  8
0
  5
891
 10
61.3069
 20
142.144
 30
0.000000
  70
    32
  0
VERTEX
  8
0
  5
892
 10
61.5233
 20
142.165
 30
0.000000
  70
    32
  0
VERTEX
  8
0
  5
893
 10
61.7380
 20
142.188
 30
0.000000
  70
    32
  0
VERTEX
  8
0
  5
894
 10
61.9508
 20
142.213
 30
0.000000
  70
    32
  0
VERTEX
  8
0
  5
895
 10
62.1616
 20
142.239
 30
0.000000
  70
    32
  0
VERTEX
  8
0
  5
896
 10
62.3702
 20
142.267
 30
0.000000
  70
    32
  0
VERTEX
  8
0
  5
897
 10
62.5766
 20
142.296
 30
0.000000
  70
    32
  0
VERTEX
  8
0
  5
898
 10
62.7806
 20
142.327
 30
0.000000
  70
    32
  0
VERTEX
  8
0
  5
899
 10
62.9822
 20
142.359
 30
0.000000
  70
    32
  0
VERTEX
  8
0
  5
89A
 10
63.1811
 20
142.393
 30
0.000000
  70
    32
  0
VERTEX
  8
0
  5
89B
 10
63.3772
 20
142.429
 30
0.000000
  70
    32
  0
VERTEX
  8
0
  5
89C
 10
63.5705
 20
142.466
 30
0.000000
  70
    32
  0
VERTEX
  8
0
  5
89D
 10
63.7608
 20
142.504
 30
0.000000
  70
    32
  0
VERTEX
  8
0
  5
89E
 10
63.9480
 20
142.544
 30
0.000000
  70
    32
  0
VERTEX
  8
0
  5
89F
 10
64.1320
 20
142.585
 30
0.000000
  70
    32
  0
VERTEX
  8
0
  5
8A0
 10
64.3126
 20
142.628
 30
0.000000
  70
    32
  0
VERTEX
  8
0
  5
8A1
 10
64.4899
 20
142.672
 30
0.000000
  70
    32
  0
VERTEX
  8
0
  5
8A2
 10
64.6636
 20
142.717
 30
0.000000
  70
    32
  0
VERTEX
  8
0
  5
8A3
 10
64.8337
 20
142.764
 30
0.000000
  70
    32
  0
VERTEX
  8
0
  5
8A4
 10
65.0000
 20
142.812
 30
0.000000
  70
    32
  0
VERTEX
  8
0
  5
8A5
 10
65.1625
 20
142.861
 30
0.000000
  70
    32
  0
VERTEX
  8
0
  5
8A6
 10
65.3210
 20
142.911
 30
0.000000
  70
    32
  0
VERTEX
  8
0
  5
8A7
 10
65.4755
 20
142.963
 30
0.000000
  70
    32
  0
VERTEX
  8
0
  5
8A8
 10
65.6259
 20
143.016
 30
0.000000
  70
    32
  0
VERTEX
  8
0
  5
8A9
 10
65.7721
 20
143.069
 30
0.000000
  70
    32
  0
VERTEX
  8
0
  5
8AA
 10
65.9139
 20
143.124
 30
0.000000
  70
    32
  0
VERTEX
  8
0
  5
8AB
 10
66.0514
 20
143.180
 30
0.000000
  70
    32
  0
VERTEX
  8
0
  5
8AC
 10
66.1844
 20
143.237
 30
0.000000
  70
    32
  0
VERTEX
  8
0
  5
8AD
 10
66.3128
 20
143.296
 30
0.000000
  70
    32
  0
VERTEX
  8
0
  5
8AE
 10
66.4366
 20
143.355
 30
0.000000
  70
    32
  0
VERTEX
  8
0
  5
8AF
 10
66.5557
 20
143.414
 30
0.000000
  70
    32
  0
VERTEX
  8
0
  5
8B0
 10
66.6700
 20
143.475
 30
0.000000
  70
    32
  0
VERTEX
  8
0
  5
8B1
 10
66.7795
 20
143.537
 30
0.000000
  70
    32
  0
VERTEX
  8
0
  5
8B2
 10
66.8841
 20
143.600
 30
0.000000
  70
    32
  0
VERTEX
  8
0
  5
8B3
 10
66.9836
 20
143.663
 30
0.000000
  70
    32
  0
VERTEX
  8
0
  5
8B4
 10
67.0782
 20
143.727
 30
0.000000
  70
    32
  0
VERTEX
  8
0
  5
8B5
 10
67.1676
 20
143.792
 30
0.000000
  70
    32
  0
VERTEX
  8
0
  5
8B6
 10
67.2519
 20
143.857
 30
0.000000
  70
    32
  0
VERTEX
  8
0
  5
8B7
 10
67.3310
 20
143.923
 30
0.000000
  70
    32
  0
VERTEX
  8
0
  5
8B8
 10
67.4049
 20
143.989
 30
0.000000
  70
    32
  0
VERTEX
  8
0
  5
8B9
 10
67.4734
 20
144.057
 30
0.000000
  70
    32
  0
VERTEX
  8
0
  5
8BA
 10
67.5367
 20
144.124
 30
0.000000
  70
    32
  0
VERTEX
  8
0
  5
8BB
 10
67.5945
 20
144.192
 30
0.000000
  70
    32
  0
VERTEX
  8
0
  5
8BC
 10
67.6470
 20
144.261
 30
0.000000
  70
    32
  0
VERTEX
  8
0
  5
8BD
 10
67.6940
 20
144.330
 30
0.000000
  70
    32
  0
VERTEX
  8
0
  5
8BE
 10
67.7356
 20
144.399
 30
0.000000
  70
    32
  0
VERTEX
  8
0
  5
8BF
 10
67.7716
 20
144.468
 30
0.000000
  70
    32
  0
VERTEX
  8
0
  5
8C0
 10
67.8022
 20
144.538
 30
0.000000
  70
    32
  0
VERTEX
  8
0
  5
8C1
 10
67.8272
 20
144.608
 30
0.000000
  70
    32
  0
VERTEX
  8
0
  5
8C2
 10
67.8467
 20
144.678
 30
0.000000
  70
    32
  0
VERTEX
  8
0
  5
8C3
 10
67.8606
 20
144.749
 30
0.000000
  70
    32
  0
VERTEX
  8
0
  5
8C4
 10
67.8690
 20
144.819
 30
0.000000
  70
    32
  0
VERTEX
  8
0
  5
8C5
 10
67.8717
 20
144.889
 30
0.000000
  70
    32
  0
SEQEND
  8
0
  5
8C6
  0
ARC
  5
254
  8
0
 10
130.3089380275911
 20
143.65304062503151
 30
0.0
 40
2.0
 50
270.0
 51
290.00000000000011
  0
ARC
  5
255
  8
0
 10
134.56074628949781
 20
140.83876427291341
 30
0.0
 40
22.199999999999999
 50
158.96014851211919
 51
176.94852124196149
  0
ARC
  5
256
  8
0
 10
143.5772371165541
 20
149.07300170106419
 30
0.0
 40
15.0
 50
187.31842682407839
 51
209.6476012883511
  0
LINE
  5
257
  8
0
 10
171.17818695055911
 20
164.7568994054752
 30
0.0
 11
114.51531128314539
 21
149.41585484594219
 31
0.0
  0
ARC
  5
258
  8
0
 10
143.57091895366929
 20
149.12155160911649
 30
0.0
 40
15.0
 50
165.6275391096238
 51
187.5056706222685
  0
LINE
  5
259
  8
1
 10
68.871743846428274
 20
163.06374714780151
 30
0.0
 11
48.371743846428267
 21
163.06374714780151
 31
0.0
  0
ARC
  5
25A
  8
3
 10
133.8443475013147
 20
218.24616410138239
 30
0.0
 40
0.1341589092123741
 50
180.0
 51
298.07248693585848
  0
LINE
  5
25B
  8
3
 10
133.7101885921023
 20
218.41791816502419
 30
0.0
 11
133.7101885921023
 21
218.24616410138239
 31
0.0
  0
LINE
  5
25C
  8
3
 10
133.07569586853299
 20
218.12778859325391
 30
0.0
 11
133.7101885921023
 21
218.41791816502419
 31
0.0
  0
ARC
  5
25D
  8
3
 10
133.0125622641977
 20
218.24616410138239
 30
0.0
 40
0.1341589092124025
 50
180.0
 51
298.07248693585848
  0
LINE
  5
25E
  8
3
 10
132.87840335498529
 20
218.75596795638961
 30
0.0
 11
132.87840335498529
 21
218.24616410138239
 31
0.0
  0
LINE
  5
25F
  8
3
 10
132.74424444577301
 20
218.75596795638961
 30
0.0
 11
132.87840335498529
 21
218.75596795638961
 31
0.0
  0
LINE
  5
260
  8
3
 10
132.74424444577301
 20
218.1120051921701
 30
0.0
 11
132.74424444577301
 21
218.75596795638961
 31
0.0
  0
LINE
  5
261
  8
3
 10
131.67097317207379
 20
218.1120051921701
 30
0.0
 11
132.74424444577301
 21
218.1120051921701
 31
0.0
  0
LINE
  5
262
  8
3
 10
131.67097317207379
 20
220.5961091545349
 30
0.0
 11
131.67097317207379
 21
218.1120051921701
 31
0.0
  0
ARC
  5
263
  8
3
 10
131.45631891733399
 20
220.5961091545349
 30
0.0
 40
0.2146542547398051
 50
359.99999999999591
 51
60.000000000000632
  0
LINE
  5
264
  8
3
 10
132.85157157314291
 20
220.78200519217
 30
0.0
 11
131.56364604470389
 21
220.78200519217
 31
0.0
  0
ARC
  5
265
  8
3
 10
132.9588987005128
 20
220.59610915453499
 30
0.0
 40
0.2146542547397701
 50
120.0000000000114
 51
180.0000000000154
  0
LINE
  5
266
  8
3
 10
132.74424444577301
 20
219.560921411664
 30
0.0
 11
132.74424444577301
 21
220.59610915453499
 31
0.0
  0
LINE
  5
267
  8
3
 10
133.46160288131151
 20
221.64428158334709
 30
0.0
 11
132.74424444577301
 21
219.560921411664
 31
0.0
  0
ARC
  5
268
  8
3
 10
133.71530236279619
 20
221.55692584639459
 30
0.0
 40
0.2683178184247765
 50
89.999999999993491
 51
160.99999999999471
  0
LINE
  5
269
  8
3
 10
134.10260056588649
 20
221.82524366481931
 30
0.0
 11
133.71530236279631
 21
221.82524366481931
 31
0.0
  0
LINE
  5
26A
  8
3
 10
134.10260056588649
 20
221.77158010113439
 30
0.0
 11
134.10260056588649
 21
221.82524366481931
 31
0.0
  0
LINE
  5
26B
  8
3
 10
135.3036203379755
 20
221.8290331190054
 30
0.0
 11
134.10260056588649
 21
221.77158010113439
 31
0.0
  0
ARC
  5
26C
  8
3
 10
135.31003074879811
 20
221.6950274491472
 30
0.0
 40
0.1341589092123741
 50
359.99999999998778
 51
92.738762511495295
  0
LINE
  5
26D
  8
3
 10
135.44418965801049
 20
221.41882424364189
 30
0.0
 11
135.44418965801049
 21
221.6950274491472
 31
0.0
  0
ARC
  5
26E
  8
3
 10
135.31003074879811
 20
221.41882424364189
 30
0.0
 40
0.1341589092123765
 50
267.26123748850472
 51
0.0000000000122133
  0
LINE
  5
26F
  8
3
 10
134.10260056588649
 20
221.34227159165471
 30
0.0
 11
135.3036203379755
 21
221.28481857378381
 31
0.0
  0
LINE
  5
270
  8
3
 10
134.10260056588649
 20
221.28860802796979
 30
0.0
 11
134.10260056588649
 21
221.34227159165471
 31
0.0
  0
LINE
  5
271
  8
3
 10
133.9456305278305
 20
221.28860802796979
 30
0.0
 11
134.10260056588649
 21
221.28860802796979
 31
0.0
  0
ARC
  5
272
  8
3
 10
133.94563052783039
 20
221.1544491187573
 30
0.0
 40
0.1341589092123918
 50
89.999999999977206
 51
160.99999999997931
  0
LINE
  5
273
  8
3
 10
133.21809000517911
 20
219.45359428429401
 30
0.0
 11
133.818780787088
 21
221.19812698723359
 31
0.0
  0
LINE
  5
274
  8
3
 10
133.46870255552
 20
219.45359428429401
 30
0.0
 11
133.21809000517911
 21
219.45359428429401
 31
0.0
  0
ARC
  5
275
  8
3
 10
133.46870255552
 20
219.34626715692411
 30
0.0
 40
0.1073271273698992
 50
0.0
 51
90.0
  0
LINE
  5
276
  8
3
 10
133.5760296828899
 20
218.9706222111293
 30
0.0
 11
133.5760296828899
 21
219.34626715692411
 31
0.0
  0
ARC
  5
277
  8
3
 10
135.97094403518949
 20
214.77650876597289
 30
0.0
 40
4.8297207316461801
 50
117.9105394925507
 51
119.7271455112981
  0
LINE
  5
278
  8
3
 10
133.7101885921023
 20
219.45359428429401
 30
0.0
 11
133.7101885921023
 21
219.0444341603822
 31
0.0
  0
LINE
  5
279
  8
3
 10
134.24682422895179
 20
219.45359428429401
 30
0.0
 11
133.7101885921023
 21
219.45359428429401
 31
0.0
  0
LINE
  5
27A
  8
3
 10
134.24682422895179
 20
218.9706222111293
 30
0.0
 11
134.24682422895179
 21
219.45359428429401
 31
0.0
  0
ARC
  5
27B
  8
3
 10
136.6417385812515
 20
214.77650876597281
 30
0.0
 40
4.829720731646244
 50
117.55354984775489
 51
119.7271455112981
  0
LINE
  5
27C
  8
3
 10
134.4076187750137
 20
219.45359428429401
 30
0.0
 11
134.4076187750137
 21
219.05843719100159
 31
0.0
  0
LINE
  5
27D
  8
3
 10
134.91761877501381
 20
219.45359428429401
 30
0.0
 11
134.4076187750137
 21
219.4535942842939
 31
0.0
  0
LINE
  5
27E
  8
3
 10
134.91761877501381
 20
219.28800665907119
 30
0.0
 11
134.91761877501381
 21
219.45359428429401
 31
0.0
  0
ARC
  5
27F
  8
3
 10
136.64173858125079
 20
214.77650876597221
 30
0.0
 40
4.829720731646435
 50
104.6488905276772
 51
110.9149203627648
  0
ARC
  5
280
  8
3
 10
135.45425441186339
 20
219.31943537508161
 30
0.0
 40
0.1341589092124025
 50
0.0
 51
104.64889052766711
  0
LINE
  5
281
  8
3
 10
135.58841332107579
 20
218.9706222111293
 30
0.0
 11
135.58841332107579
 21
219.31943537508161
 31
0.0
  0
ARC
  5
282
  8
3
 10
137.9833276733753
 20
214.7765087659711
 30
0.0
 40
4.8297207316477486
 50
117.55354984774399
 51
119.72714551128681
  0
LINE
  5
283
  8
3
 10
135.74920786713761
 20
219.45359428429401
 30
0.0
 11
135.74920786713761
 21
219.05843719100159
 31
0.0
  0
LINE
  5
284
  8
3
 10
136.2592078671376
 20
219.45359428429401
 30
0.0
 11
135.74920786713761
 21
219.45359428429401
 31
0.0
  0
LINE
  5
285
  8
3
 10
136.2592078671376
 20
219.28800665907119
 30
0.0
 11
136.2592078671376
 21
219.45359428429401
 31
0.0
  0
ARC
  5
286
  8
3
 10
137.98332767337459
 20
214.7765087659721
 30
0.0
 40
4.8297207316464617
 50
104.6488905276772
 51
110.9149203627648
  0
ARC
  5
287
  8
3
 10
136.79584350398741
 20
219.31943537508161
 30
0.0
 40
0.1341589092124025
 50
0.0
 51
104.64889052768061
  0
LINE
  5
288
  8
3
 10
136.9300024131997
 20
218.9706222111293
 30
0.0
 11
136.9300024131997
 21
219.31943537508161
 31
0.0
  0
ARC
  5
289
  8
3
 10
139.32491676549819
 20
214.77650876597289
 30
0.0
 40
4.829720731645569
 50
117.5509252952383
 51
119.72714551128681
  0
LINE
  5
28A
  8
3
 10
137.09099310425461
 20
218.39463329424419
 30
0.0
 11
137.09099310425461
 21
219.05853952501971
 31
0.0
  0
LINE
  5
28B
  8
3
 10
136.59065928989779
 20
218.12778859325391
 30
0.0
 11
137.09099310425461
 21
218.39463329424419
 31
0.0
  0
ARC
  5
28C
  8
3
 10
136.52752568556261
 20
218.2461641013825
 30
0.0
 40
0.1341589092124025
 50
180.00000000000571
 51
298.0724869358549
  0
LINE
  5
28D
  8
3
 10
136.39336677635021
 20
218.59497726533471
 30
0.0
 11
136.39336677635021
 21
218.24616410138239
 31
0.0
  0
LINE
  5
28E
  8
3
 10
136.2592078671376
 20
218.5413137016497
 30
0.0
 11
136.39336677635021
 21
218.59497726533471
 31
0.0
  0
LINE
  5
28F
  8
3
 10
136.2592078671376
 20
217.62903311900541
 30
0.0
 11
136.2592078671376
 21
218.5413137016497
 31
0.0
  0
LINE
  5
290
  8
3
 10
135.74920786713761
 20
217.62903311900541
 30
0.0
 11
136.2592078671376
 21
217.62903311900541
 31
0.0
  0
LINE
  5
291
  8
3
 10
135.74920786713761
 20
218.3945286835812
 30
0.0
 11
135.74920786713761
 21
217.62903311900541
 31
0.0
  0
LINE
  5
292
  8
3
 10
135.2490701977739
 20
218.12778859325391
 30
0.0
 11
135.74920786713761
 21
218.3945286835812
 31
0.0
  0
ARC
  5
293
  8
3
 10
135.18593659343861
 20
218.24616410138239
 30
0.0
 40
0.1341589092124025
 50
180.0
 51
298.07248693585848
  0
LINE
  5
294
  8
3
 10
135.05177768422629
 20
218.59497726533471
 30
0.0
 11
135.05177768422629
 21
218.24616410138239
 31
0.0
  0
LINE
  5
295
  8
3
 10
134.91761877501381
 20
218.5413137016497
 30
0.0
 11
135.05177768422629
 21
218.59497726533471
 31
0.0
  0
LINE
  5
296
  8
3
 10
134.91761877501381
 20
217.62903311900541
 30
0.0
 11
134.91761877501381
 21
218.5413137016497
 31
0.0
  0
LINE
  5
297
  8
3
 10
134.4076187750137
 20
217.62903311900541
 30
0.0
 11
134.91761877501381
 21
217.62903311900541
 31
0.0
  0
LINE
  5
298
  8
3
 10
134.4076187750137
 20
218.3945286835812
 30
0.0
 11
134.4076187750137
 21
217.62903311900541
 31
0.0
  0
LINE
  5
299
  8
3
 10
133.90748110564991
 20
218.12778859325391
 30
0.0
 11
134.4076187750137
 21
218.3945286835812
 31
0.0
  0
POLYLINE
  5
29A
  8
3
 66
     1
 10
0.0
 20
0.0
 30
0.0
 70
     1
  0
VERTEX
  5
29B
  8
3
 10
134.30048779263669
 20
219.99022992114359
 30
0.0
 42
1.0000000552842581
  0
VERTEX
  5
29C
  8
3
 10
133.65652502841741
 20
219.99022992114359
 30
0.0
 42
1.0000000552842581
  0
SEQEND
  5
29D
  8
3
  0
LINE
  5
29E
  8
0
 10
172.326926087744
 20
215.00405717335249
 30
0.0
 11
126.2103721385873
 21
212.91957542676229
 31
0.0
  0
LINE
  5
29F
  8
0
 10
172.326926087744
 20
223.7040571733524
 30
0.0
 11
126.21037213858671
 21
225.78853891994271
 31
0.0
  0
LINE
  5
2A0
  8
1
 10
178.74097317207381
 20
229.6040571733524
 30
0.0
 11
178.74097317207381
 21
209.1040571733524
 31
0.0
  0
LINE
  5
2A1
  8
1
 10
121.49097317207379
 20
231.10405717335249
 30
0.0
 11
121.49097317207379
 21
207.60405717335249
 31
0.0
  0
LINE
  5
2A2
  8
1
 10
188.99097317207381
 20
219.35405717335249
 30
0.0
 11
109.74097317207379
 21
219.35405717335249
 31
0.0
  0
LINE
  5
2A3
  8
1
 10
58.621743846428267
 20
173.31374714780151
 30
0.0
 11
58.62174384642821
 21
107.31374714780149
 31
0.0
  0
LINE
  5
2A4
  8
0
 10
66.896507326949802
 20
131.31374714780151
 30
0.0
 11
50.346980365906752
 21
131.31374714780151
 31
0.0
  0
LINE
  5
2A5
  8
0
 10
49.721743846428261
 20
141.3530406250315
 30
0.0
 11
50.041744643975498
 21
131.61370145634839
 31
0.0
  0
LINE
  5
2A6
  8
0
 10
50.041744643975498
 20
131.61370145634839
 30
0.0
 11
50.346980365906752
 21
131.31374714780151
 31
0.0
  0
LINE
  5
2A7
  8
0
 10
67.201743048880985
 20
131.61370145634839
 30
0.0
 11
66.896507326949802
 21
131.31374714780151
 31
0.0
  0
LINE
  5
2A8
  8
0
 10
67.521743846428336
 20
141.3530406250315
 30
0.0
 11
67.201743048880985
 21
131.61370145634839
 31
0.0
  0
LINE
  5
2A9
  8
0
 10
50.041744643975498
 20
131.61370145634839
 30
0.0
 11
67.201743048880985
 21
131.61370145634839
 31
0.0
  0
LINE
  5
2AA
  8
0
 10
67.521743846428336
 20
141.3530406250315
 30
0.0
 11
49.721743846428261
 21
141.3530406250315
 31
0.0
  0
ARC
  5
2AB
  8
0
 10
49.421743846428249
 20
141.3530406250315
 30
0.0
 40
0.3
 50
0.0
 51
90.0
  0
LINE
  5
2AC
  8
0
 10
67.821743846428234
 20
141.65304062503151
 30
0.0
 11
49.421743846428249
 21
141.65304062503151
 31
0.0
  0
LINE
  5
2AD
  8
0
 10
130.3089380275911
 20
141.65304062503151
 30
0.0
 11
112.4409731720738
 21
141.65304062503151
 31
0.0
  0
ARC
  5
2AE
  8
0
 10
112.4409731720738
 20
141.3530406250315
 30
0.0
 40
0.3
 50
0.0
 51
90.0
  0
LINE
  5
2AF
  8
0
 10
130.24097317207381
 20
141.3530406250315
 30
0.0
 11
112.74097317207379
 21
141.3530406250315
 31
0.0
  0
LINE
  5
2B0
  8
0
 10
112.9109739696211
 20
131.61370145634839
 30
0.0
 11
130.0709723745266
 21
131.61370145634839
 31
0.0
  0
LINE
  5
2B1
  8
0
 10
130.24097317207381
 20
141.3530406250315
 30
0.0
 11
130.0709723745266
 21
131.61370145634839
 31
0.0
  0
LINE
  5
2B2
  8
0
 10
130.0709723745266
 20
131.61370145634839
 30
0.0
 11
129.76573665259531
 21
131.31374714780151
 31
0.0
  0
LINE
  5
2B3
  8
0
 10
112.9109739696211
 20
131.61370145634839
 30
0.0
 11
113.21620969155219
 21
131.31374714780151
 31
0.0
  0
LINE
  5
2B4
  8
0
 10
112.74097317207379
 20
141.3530406250315
 30
0.0
 11
112.9109739696211
 21
131.61370145634839
 31
0.0
  0
LINE
  5
2B5
  8
0
 10
129.76573665259531
 20
131.31374714780151
 30
0.0
 11
113.21620969155219
 21
131.31374714780151
 31
0.0
  0
LINE
  5
2B6
  8
0
 10
173.51809374980229
 20
157.33801308652929
 30
0.0
 11
130.99297831424249
 21
141.7736553834597
 31
0.0
  0
LINE
  5
2B7
  8
1
 10
175.658738727155
 20
172.83934589297081
 30
0.0
 11
181.8232076169927
 21
153.2881484026322
 31
0.0
  0
LINE
  5
2B8
  8
1
 10
188.516460657046
 20
166.14633444277851
 30
0.0
 11
121.49097317207379
 21
144.90417637811561
 31
0.0
  0
LINE
  5
2B9
  8
1
 10
121.49097317207379
 20
156.31374714780151
 30
0.0
 11
121.49097317207379
 21
107.31374714780149
 31
0.0
  0
ARC
  5
2C3
  8
0
 10
179.98876062653889
 20
219.3540571733524
 30
0.0
 40
8.8105736759799491
 50
150.4142931645975
 51
209.58570683540111
  0
ARC
  5
2DB
  8
0
 10
159.5632844346521
 20
157.01512982961069
 30
0.0
 40
13.95854421563374
 50
1.325460434467469
 51
33.684948745345849
  0
LINE
  5
3B8
  8
0
 10
61.421743846428171
 20
109.81374714780149
 30
0.0
 11
62.621743846428217
 21
111.0137471478015
 31
0.0
  0
LINE
  5
3B9
  8
0
 10
62.621743846428217
 20
111.0137471478015
 30
0.0
 11
62.621743846428217
 21
124.4137471478015
 31
0.0
  0
ARC
  5
3BA
  8
0
 10
63.021743846428251
 20
124.4137471478015
 30
0.0
 40
0.4
 50
90.0
 51
180.0
  0
LINE
  5
3BB
  8
3
 10
62.621743846428217
 20
124.4137471478121
 30
0.0
 11
61.945243846428241
 21
123.2420147764918
 31
0.0
  0
LINE
  5
3BC
  8
3
 10
61.945243846428241
 20
123.2420147764918
 30
0.0
 11
61.945243846428241
 21
110.33724714780151
 31
0.0
  0
LINE
  5
3BD
  8
3
 10
55.298243846428193
 20
123.2420147764918
 30
0.0
 11
55.298243846428193
 21
110.33724714780151
 31
0.0
  0
LINE
  5
3BE
  8
3
 10
54.62174384642821
 20
124.4137471478121
 30
0.0
 11
55.298243846428193
 21
123.2420147764918
 31
0.0
  0
ARC
  5
3BF
  8
0
 10
54.22174384642824
 20
124.4137471478015
 30
0.0
 40
0.4
 50
0.0
 51
90.0
  0
LINE
  5
3C0
  8
0
 10
54.62174384642821
 20
111.0137471478015
 30
0.0
 11
54.62174384642821
 21
124.4137471478015
 31
0.0
  0
LINE
  5
3C1
  8
0
 10
55.821743846428262
 20
109.81374714780149
 30
0.0
 11
54.62174384642821
 21
111.0137471478015
 31
0.0
  0
LINE
  5
3C2
  8
0
 10
54.62174384642821
 20
123.2420147764836
 30
0.0
 11
62.621743846428217
 21
123.2420147764836
 31
0.0
  0
LINE
  5
3C3
  8
0
 10
54.62174384642821
 20
111.0137471478015
 30
0.0
 11
62.621743846428217
 21
111.0137471478015
 31
0.0
  0
LINE
  5
3C4
  8
0
 10
55.821743846428262
 20
109.81374714780149
 30
0.0
 11
61.421743846428171
 21
109.81374714780149
 31
0.0
  0
LINE
  5
3D3
  8
0
 10
118.6909731720739
 20
109.81374714780149
 30
0.0
 11
124.29097317207381
 21
109.81374714780149
 31
0.0
  0
LINE
  5
3D4
  8
0
 10
117.49097317207379
 20
111.0137471478015
 30
0.0
 11
125.49097317207379
 21
111.0137471478015
 31
0.0
  0
LINE
  5
3D5
  8
0
 10
117.49097317207379
 20
123.2420147764836
 30
0.0
 11
125.49097317207379
 21
123.2420147764836
 31
0.0
  0
LINE
  5
3D6
  8
0
 10
118.6909731720739
 20
109.81374714780149
 30
0.0
 11
117.49097317207379
 21
111.0137471478015
 31
0.0
  0
LINE
  5
3D7
  8
0
 10
117.49097317207379
 20
111.0137471478015
 30
0.0
 11
117.49097317207379
 21
124.4137471478015
 31
0.0
  0
ARC
  5
3D8
  8
0
 10
117.0909731720738
 20
124.4137471478015
 30
0.0
 40
0.4
 50
0.0
 51
90.0
  0
LINE
  5
3D9
  8
3
 10
117.49097317207379
 20
124.4137471478121
 30
0.0
 11
118.1674731720738
 21
123.2420147764918
 31
0.0
  0
LINE
  5
3DA
  8
3
 10
118.1674731720738
 20
123.2420147764918
 30
0.0
 11
118.1674731720738
 21
110.33724714780151
 31
0.0
  0
LINE
  5
3DB
  8
3
 10
124.8144731720738
 20
123.2420147764918
 30
0.0
 11
124.8144731720738
 21
110.33724714780151
 31
0.0
  0
LINE
  5
3DC
  8
3
 10
125.49097317207379
 20
124.4137471478121
 30
0.0
 11
124.8144731720738
 21
123.2420147764918
 31
0.0
  0
ARC
  5
3DD
  8
0
 10
125.8909731720738
 20
124.4137471478015
 30
0.0
 40
0.4
 50
90.0
 51
180.0
  0
LINE
  5
3DE
  8
0
 10
125.49097317207379
 20
111.0137471478015
 30
0.0
 11
125.49097317207379
 21
124.4137471478015
 31
0.0
  0
LINE
  5
3DF
  8
0
 10
124.29097317207381
 20
109.81374714780149
 30
0.0
 11
125.49097317207379
 21
111.0137471478015
 31
0.0
  0
LINE
  5
3E0
  8
0
 10
242.0602024977193
 20
109.81374714780149
 30
0.0
 11
243.26020249771929
 21
111.0137471478015
 31
0.0
  0
LINE
  5
3E1
  8
0
 10
243.26020249771929
 20
111.0137471478015
 30
0.0
 11
243.26020249771929
 21
124.4137471478015
 31
0.0
  0
ARC
  5
3E2
  8
0
 10
243.66020249771941
 20
124.4137471478015
 30
0.0
 40
0.4
 50
90.0
 51
180.0
  0
LINE
  5
3E3
  8
3
 10
243.26020249771929
 20
124.4137471478121
 30
0.0
 11
242.5837024977194
 21
123.2420147764918
 31
0.0
  0
LINE
  5
3E4
  8
3
 10
242.5837024977194
 20
123.2420147764918
 30
0.0
 11
242.5837024977194
 21
110.33724714780151
 31
0.0
  0
LINE
  5
3E5
  8
3
 10
235.9367024977193
 20
123.2420147764918
 30
0.0
 11
235.9367024977193
 21
110.33724714780151
 31
0.0
  0
LINE
  5
3E6
  8
3
 10
235.26020249771929
 20
124.4137471478121
 30
0.0
 11
235.9367024977193
 21
123.2420147764918
 31
0.0
  0
ARC
  5
3E7
  8
0
 10
234.86020249771931
 20
124.4137471478015
 30
0.0
 40
0.4
 50
0.0
 51
90.0
  0
LINE
  5
3E8
  8
0
 10
235.26020249771929
 20
111.0137471478015
 30
0.0
 11
235.26020249771929
 21
124.4137471478015
 31
0.0
  0
LINE
  5
3E9
  8
0
 10
236.46020249771939
 20
109.81374714780149
 30
0.0
 11
235.26020249771929
 21
111.0137471478015
 31
0.0
  0
LINE
  5
3EA
  8
0
 10
235.26020249771929
 20
123.2420147764836
 30
0.0
 11
243.26020249771929
 21
123.2420147764836
 31
0.0
  0
LINE
  5
3EB
  8
0
 10
235.26020249771929
 20
111.0137471478015
 30
0.0
 11
243.26020249771929
 21
111.0137471478015
 31
0.0
  0
LINE
  5
3EC
  8
0
 10
236.46020249771939
 20
109.81374714780149
 30
0.0
 11
242.0602024977193
 21
109.81374714780149
 31
0.0
  0
TEXT
  5
4A4
  8
0
 62
     3
 10
0.0
 20
0.0
 30
0.0
 40
10.0
  1
KR8X15-SUS
  7
STANDARD1
  0
ENDSEC
  0
EOF
