  0
SECTION
  2
HEADER
  9
$ACADVER
  1
AC1009
  9
$INSBASE
 10
0.0
 20
0.0
 30
0.0
  9
$EXTMIN
 10
0.0
 20
-1.4802182810368341
 30
0.0
  9
$EXTMAX
 10
145.52066100528651
 20
99.153607662154684
 30
0.0
  9
$LIMMIN
 10
0.0
 20
0.0
  9
$LIMMAX
 10
275.0
 20
175.0
  9
$ORTHOMODE
 70
     0
  9
$REGENMODE
 70
     1
  9
$FILLMODE
 70
     1
  9
$QTEXTMODE
 70
     0
  9
$MIRRTEXT
 70
     0
  9
$DRAGMODE
 70
     2
  9
$LTSCALE
 40
10.0
  9
$OSMODE
 70
  3071
  9
$ATTMODE
 70
     1
  9
$TEXTSIZE
 40
0.2
  9
$TRACEWID
 40
0.05
  9
$TEXTSTYLE
  7
STANDARD
  9
$CLAYER
  8
0
  9
$CELTYPE
  6
BYLAYER
  9
$CECOLOR
 62
   256
  9
$DIMSCALE
 40
1.0
  9
$DIMASZ
 40
3.0
  9
$DIMEXO
 40
1.0
  9
$DIMDLI
 40
6.0
  9
$DIMRND
 40
0.0
  9
$DIMDLE
 40
0.0
  9
$DIMEXE
 40
1.0
  9
$DIMTP
 40
495.0
  9
$DIMTM
 40
0.0
  9
$DIMTXT
 40
3.0
  9
$DIMCEN
 40
0.0
  9
$DIMTSZ
 40
0.0
  9
$DIMTOL
 70
     0
  9
$DIMLIM
 70
     0
  9
$DIMTIH
 70
     0
  9
$DIMTOH
 70
     0
  9
$DIMSE1
 70
     0
  9
$DIMSE2
 70
     0
  9
$DIMTAD
 70
     1
  9
$DIMZIN
 70
     0
  9
$DIMBLK
  1

  9
$DIMASO
 70
     0
  9
$DIMSHO
 70
     0
  9
$DIMPOST
  1

  9
$DIMAPOST
  1

  9
$DIMALT
 70
     0
  9
$DIMALTD
 70
     2
  9
$DIMALTF
 40
25.399999999999999
  9
$DIMLFAC
 40
1.0
  9
$DIMTOFL
 70
     1
  9
$DIMTVP
 40
0.0
  9
$DIMTIX
 70
     1
  9
$DIMSOXD
 70
     0
  9
$DIMSAH
 70
     0
  9
$DIMBLK1
  1

  9
$DIMBLK2
  1

  9
$DIMSTYLE
  2
STANDARD
  9
$DIMCLRD
 70
     0
  9
$DIMCLRE
 70
     0
  9
$DIMCLRT
 70
     4
  9
$DIMTFAC
 40
1.0
  9
$DIMGAP
 40
1.0
  9
$LUNITS
 70
     2
  9
$LUPREC
 70
     4
  9
$SKETCHINC
 40
0.1
  9
$FILLETRAD
 40
0.0
  9
$AUNITS
 70
     0
  9
$AUPREC
 70
     0
  9
$MENU
  1
E:\r13\win\SUPPORT\ACAD
  9
$ELEVATION
 40
0.0
  9
$PELEVATION
 40
0.0
  9
$THICKNESS
 40
0.0
  9
$LIMCHECK
 70
     0
  9
$BLIPMODE
 70
     0
  9
$CHAMFERA
 40
0.0
  9
$CHAMFERB
 40
0.0
  9
$SKPOLY
 70
     0
  9
$TDCREATE
 40
2450653.5278402781
  9
$TDUPDATE
 40
2456597.5462620258
  9
$TDINDWG
 40
0.1154098843
  9
$TDUSRTIMER
 40
0.1154098843
  9
$USRTIMER
 70
     1
  9
$ANGBASE
 50
0.0
  9
$ANGDIR
 70
     0
  9
$PDMODE
 70
     0
  9
$PDSIZE
 40
0.0
  9
$PLINEWID
 40
0.0
  9
$COORDS
 70
     1
  9
$SPLFRAME
 70
     0
  9
$SPLINETYPE
 70
     6
  9
$SPLINESEGS
 70
     8
  9
$ATTDIA
 70
     0
  9
$ATTREQ
 70
     1
  9
$HANDLING
 70
     1
  9
$HANDSEED
  5
11D6
  9
$SURFTAB1
 70
     6
  9
$SURFTAB2
 70
     6
  9
$SURFTYPE
 70
     6
  9
$SURFU
 70
     6
  9
$SURFV
 70
     6
  9
$UCSNAME
  2

  9
$UCSORG
 10
0.0
 20
0.0
 30
0.0
  9
$UCSXDIR
 10
1.0
 20
0.0
 30
0.0
  9
$UCSYDIR
 10
0.0
 20
1.0
 30
0.0
  9
$PUCSNAME
  2

  9
$PUCSORG
 10
0.0
 20
0.0
 30
0.0
  9
$PUCSXDIR
 10
1.0
 20
0.0
 30
0.0
  9
$PUCSYDIR
 10
0.0
 20
1.0
 30
0.0
  9
$USERI1
 70
     4
  9
$USERI2
 70
     1
  9
$USERI3
 70
     0
  9
$USERI4
 70
     0
  9
$USERI5
 70
     0
  9
$USERR1
 40
1.0
  9
$USERR2
 40
3.0
  9
$USERR3
 40
3.0
  9
$USERR4
 40
3.0
  9
$USERR5
 40
10.0
  9
$WORLDVIEW
 70
     1
  9
$SHADEDGE
 70
     3
  9
$SHADEDIF
 70
    70
  9
$TILEMODE
 70
     1
  9
$MAXACTVP
 70
    16
  9
$PLIMCHECK
 70
     0
  9
$PEXTMIN
 10
1.0000000000000000E+020
 20
1.0000000000000000E+020
 30
1.0000000000000000E+020
  9
$PEXTMAX
 10
-1.0000000000000000E+020
 20
-1.0000000000000000E+020
 30
-1.0000000000000000E+020
  9
$PLIMMIN
 10
0.0
 20
0.0
  9
$PLIMMAX
 10
12.0
 20
9.0
  9
$UNITMODE
 70
     0
  9
$VISRETAIN
 70
     0
  9
$PLINEGEN
 70
     0
  9
$PSLTSCALE
 70
     0
  0
ENDSEC
  0
SECTION
  2
TABLES
  0
TABLE
  2
VPORT
 70
     1
  0
VPORT
  2
*ACTIVE
 70
     0
 10
0.0
 20
0.0
 11
1.0
 21
1.0
 12
137.495804153145
 22
105.73139746702969
 13
0.0
 23
0.0
 14
5.0
 24
5.0
 15
10.0
 25
10.0
 16
0.0
 26
0.0
 36
1.0
 17
0.0
 27
0.0
 37
0.0
 40
216.46608528090289
 41
1.9089595375722539
 42
50.0
 43
0.0
 44
0.0
 50
0.0
 51
0.0
 71
     0
 72
   100
 73
     1
 74
     0
 75
     0
 76
     0
 77
     0
 78
     0
  0
ENDTAB
  0
TABLE
  2
LTYPE
 70
     4
  0
LTYPE
  2
CONTINUOUS
 70
     0
  3
Solid Line
 72
    65
 73
     0
 40
0.0
  0
LTYPE
  2
CENTER
 70
     0
  3
____ _ ____ _ ____ _ ____ _ ____ _ ____ _ ____
 72
    65
 73
     4
 40
2.0
 49
1.25
 49
-0.25
 49
0.25
 49
-0.25
  0
LTYPE
  2
HIDDEN
 70
     0
  3
__ __ __ __ __ __ __ __ __ __ __ __ __ __ __ __
 72
    65
 73
     2
 40
0.375
 49
0.25
 49
-0.125
  0
LTYPE
  2
PHANTOM2
 70
     0
  3
___ _ _ ___ _ _ ___ _ _ ___ _ _
 72
    65
 73
     6
 40
1.25
 49
0.625
 49
-0.125
 49
0.125
 49
-0.125
 49
0.125
 49
-0.125
  0
ENDTAB
  0
TABLE
  2
LAYER
 70
     4
  0
LAYER
  2
0
 70
     0
 62
     7
  6
CONTINUOUS
  0
LAYER
  2
1
 70
     0
 62
     1
  6
CENTER
  0
LAYER
  2
2
 70
     0
 62
     2
  6
HIDDEN
  0
LAYER
  2
3
 70
     0
 62
     3
  6
CONTINUOUS
  0
ENDTAB
  0
TABLE
  2
STYLE
 70
     2
  0
STYLE
  2
STANDARD
 70
     0
 40
0.0
 41
1.0
 50
0.0
 71
     0
 42
0.2
  3
simplex
  4
bigfont
  0
STYLE
  2
STANDARD1
 70
     0
 40
0.0
 41
1.0
 50
0.0
 71
     0
 42
3.0
  3
txt
  4

  0
ENDTAB
  0
TABLE
  2
VIEW
 70
     0
  0
ENDTAB
  0
TABLE
  2
UCS
 70
     0
  0
ENDTAB
  0
TABLE
  2
APPID
 70
    45
  0
APPID
  2
ACAD
 70
     0
  0
APPID
  2
GENIUS_GENODEF_13
 70
     0
  0
APPID
  2
GENIUS_GENOBJ-N-FIL_13
 70
     0
  0
APPID
  2
GENIUS_GENOENT_13
 70
     0
  0
APPID
  2
GENIUS_GENOBJ_13
 70
     0
  0
APPID
  2
GENIUS_GENOLIS_13
 70
     0
  0
APPID
  2
GENIUS_GENOREF_13
 70
     0
  0
APPID
  2
GENIUS_GENOBJ-N-SEC_13
 70
     0
  0
APPID
  2
GENIUS_GENOBJ-N-CRS_13
 70
     0
  0
APPID
  2
GENIUS_GENBH_13
 70
     0
  0
APPID
  2
GENIUS_GENOBJ-NBEHI-BHF_13
 70
     0
  0
APPID
  2
GENIUS_GENOBJ-NBEHI-BHB_13
 70
     0
  0
APPID
  2
GENIUS_GENOBJ-F-PART_13
 70
     0
  0
APPID
  2
GENIUS_GEFSTDP_13
 70
     0
  0
APPID
  2
GENIUS_GENOBJ-N-RSSYM_13
 70
     0
  0
APPID
  2
GENIUS_GENSYMENT_13
 70
     0
  0
APPID
  2
GENIUS_GEFINERT_13
 70
     0
  0
APPID
  2
GENIUS_GENOBJ-F-INER_13
 70
     0
  0
APPID
  2
GENIUS_GENOBJ-N-TIT_13
 70
     0
  0
APPID
  2
GENIUS_GENTITLE_13
 70
     0
  0
APPID
  2
GENIUS_GENZVEED_13
 70
     0
  0
APPID
  2
GENIUS_GENOBJ-N-LEADER_13
 70
     0
  0
APPID
  2
GENIUS_GENOBJ-N-ZOO_13
 70
     0
  0
APPID
  2
GENIUS_GENZOO_13
 70
     0
  0
APPID
  2
GENIUS_GENOBJ-F-TOL_13
 70
     0
  0
APPID
  2
GENIUS_GENOBJ-N-REV_13
 70
     0
  0
APPID
  2
GENIUS_GENOBJ-F-ROD_13
 70
     0
  0
APPID
  2
GENIUS_GENOBJ-F-SPR_13
 70
     0
  0
APPID
  2
GENIUS_GEFSPRING_13
 70
     0
  0
APPID
  2
GENIUS_GENCFG_13
 70
     0
  0
APPID
  2
GENIUS_GENCFG0_13
 70
     0
  0
APPID
  2
GENIUS_GENCFG1_13
 70
     0
  0
APPID
  2
GENIUS_GENCFG2_13
 70
     0
  0
APPID
  2
GENIUS_GENCFG3_13
 70
     0
  0
APPID
  2
GENIUS_GENCFG4_13
 70
     0
  0
APPID
  2
GENIUS_GEVCFG0_13
 70
     0
  0
APPID
  2
GENIUS_GENOBJ-N-REC_13
 70
     0
  0
APPID
  2
GENIUS_GENFIL_13
 70
     0
  0
APPID
  2
GENIUS_GENOBJ-N-CHA_13
 70
     0
  0
APPID
  2
GENIUS_GENREC_13
 70
     0
  0
APPID
  2
GENIUS_GENOBJ-F-FEM_13
 70
     0
  0
APPID
  2
GENIUS_GEFFEM_13
 70
     0
  0
APPID
  2
GENIUS_GENOBJ-N-CEN_13
 70
     0
  0
APPID
  2
ACAD_MLEADERVER
 70
     0
  0
APPID
  2
ACAD_NAV_VCDISPLAY
 70
     0
  0
ENDTAB
  0
TABLE
  2
DIMSTYLE
 70
     1
  0
DIMSTYLE
  2
STANDARD
 70
     0
  3

  4

  5

  6

  7

 40
1.0
 41
0.18
 42
0.0625
 43
0.38
 44
0.18
 45
0.0
 46
0.0
 47
0.0
 48
0.0
140
0.18
141
0.09
142
0.0
143
25.399999999999999
144
1.0
145
0.0
146
1.0
147
0.09
 71
     0
 72
     0
 73
     1
 74
     1
 75
     0
 76
     0
 77
     0
 78
     0
170
     0
171
     2
172
     0
173
     0
174
     0
175
     0
176
     0
177
     0
178
     0
  0
ENDTAB
  0
ENDSEC
  0
SECTION
  2
BLOCKS
  0
BLOCK
  8
0
  2
$MODEL_SPACE
 70
     0
 10
0.0
 20
0.0
 30
0.0
  3
$MODEL_SPACE
  1

  0
ENDBLK
  5
1093
  8
0
  0
BLOCK
 67
     1
  8
0
  2
$PAPER_SPACE
 70
     0
 10
0.0
 20
0.0
 30
0.0
  3
$PAPER_SPACE
  1

  0
ENDBLK
  5
1091
 67
     1
  8
0
  0
ENDSEC
  0
SECTION
  2
ENTITIES
  0
LINE
  5
F84
  8
0
 10
70.737783683012765
 20
55.402050348603609
 30
0.0
 11
87.737783683014072
 21
55.402050348603836
 31
0.0
  0
LINE
  5
F85
  8
3
 10
68.737783683014015
 20
55.902050348601733
 30
0.0
 11
88.237783683012083
 21
55.902050348601684
 31
0.0
  0
LINE
  5
F86
  8
3
 10
68.737783683014015
 20
61.90205034860594
 30
0.0
 11
88.237783683012083
 21
61.902050348605883
 31
0.0
  0
LINE
  5
F87
  8
0
 10
70.737783683012765
 20
62.402050348604057
 30
0.0
 11
87.737783683014072
 21
62.402050348603723
 31
0.0
  0
LINE
  5
F88
  8
1
 10
58.922911717421186
 20
58.902050348603829
 30
0.0
 11
121.2531910675342
 21
58.902050348603723
 31
0.0
  0
LINE
  5
F89
  8
2
 10
60.737783683013902
 20
58.15205034860378
 30
0.0
 11
62.737783683013959
 21
58.15205034860378
 31
0.0
  0
LINE
  5
F8A
  8
2
 10
62.737783683013959
 20
59.652050348603836
 30
0.0
 11
60.737783683013902
 21
59.652050348603836
 31
0.0
  0
LINE
  5
F8B
  8
2
 10
62.737783683013959
 20
60.402050348603723
 30
0.0
 11
60.737783683013902
 21
60.402050348603723
 31
0.0
  0
LINE
  5
F8C
  8
2
 10
60.737783683013902
 20
57.402050348603893
 30
0.0
 11
62.737783683013959
 21
57.402050348603893
 31
0.0
  0
ARC
  5
F8D
  8
0
 10
61.137783683013993
 20
56.302050348603757
 30
0.0
 40
0.3999999999999773
 50
179.99999999999989
 51
270.00000000000313
  0
ARC
  5
F8E
  8
0
 10
61.137783683013993
 20
61.502050348603859
 30
0.0
 40
0.4000000000000001
 50
89.999999999999915
 51
179.99999999999659
  0
LINE
  5
F8F
  8
0
 10
60.737783683013902
 20
61.502050348603859
 30
0.0
 11
60.737783683013902
 21
56.302050348603757
 31
0.0
  0
LINE
  5
F90
  8
0
 10
38.133850659929131
 20
60.056750886983082
 30
0.0
 11
38.133850659929131
 21
58.902050348603829
 31
0.0
  0
LINE
  5
F91
  8
0
 10
42.13385065992918
 20
60.056750886983082
 30
0.0
 11
42.13385065992918
 21
58.902050348603829
 31
0.0
  0
LINE
  5
F92
  8
1
 10
40.133850659929116
 20
58.902050348603829
 30
0.0
 11
40.133850659929116
 21
62.826154252886568
 31
0.0
  0
ARC
  5
F93
  8
0
 10
40.133850659929116
 20
58.902050348603829
 30
0.0
 40
2.5
 50
0.000000000000007
 51
180.0
  0
LINE
  5
F94
  8
0
 10
42.13385065992918
 20
60.056750886983082
 30
0.0
 11
40.133850659929116
 21
61.21145142536232
 31
0.0
1001
GENIUS_GENOREF_13
1005
0
  0
LINE
  5
F95
  8
0
 10
40.133850659929116
 20
61.21145142536232
 30
0.0
 11
38.133850659929131
 21
60.056750886983082
 31
0.0
  0
LINE
  5
F96
  8
0
 10
43.133850659925997
 20
60.70482598634112
 30
0.0
 11
43.133850659925997
 21
58.902050348603829
 31
0.0
  0
ARC
  5
F97
  8
0
 10
40.133850659929116
 20
58.902050348603829
 30
0.0
 40
3.5
 50
31.00271913397453
 51
180.0
  0
ARC
  5
F98
  8
0
 10
40.133850659929116
 20
58.902050348603829
 30
0.0
 40
3.0
 50
0.000000000000007
 51
180.0
  0
LINE
  5
F99
  8
1
 10
40.133850659929116
 20
58.902050348603829
 30
0.0
 11
40.133850659929116
 21
54.977946444321041
 31
0.0
  0
LINE
  5
F9A
  8
0
 10
38.133850659929131
 20
57.747349810224591
 30
0.0
 11
38.133850659929131
 21
58.902050348603829
 31
0.0
  0
LINE
  5
F9B
  8
0
 10
42.13385065992918
 20
57.747349810224591
 30
0.0
 11
40.133850659929116
 21
56.592649271845339
 31
0.0
1001
GENIUS_GENOREF_13
1005
0
  0
LINE
  5
F9C
  8
0
 10
42.13385065992918
 20
57.747349810224591
 30
0.0
 11
42.13385065992918
 21
58.902050348603829
 31
0.0
  0
LINE
  5
F9D
  8
0
 10
43.133850659925997
 20
57.099274710866553
 30
0.0
 11
43.133850659925997
 21
58.902050348603829
 31
0.0
  0
ARC
  5
F9E
  8
0
 10
40.133850659929116
 20
58.902050348603829
 30
0.0
 40
2.5
 50
180.0
 51
0.000000000000007
  0
LINE
  5
F9F
  8
0
 10
40.133850659929116
 20
56.592649271845339
 30
0.0
 11
38.133850659929131
 21
57.747349810224591
 31
0.0
  0
ARC
  5
FA0
  8
0
 10
40.133850659929116
 20
58.902050348603829
 30
0.0
 40
3.0
 50
180.0
 51
0.000000000000007
  0
ARC
  5
FA1
  8
0
 10
40.133850659929116
 20
58.902050348603829
 30
0.0
 40
3.5
 50
180.0
 51
328.99728086602539
  0
LINE
  5
FA2
  8
1
 10
44.233850659929089
 20
58.902050348603829
 30
0.0
 11
36.033850659929158
 21
58.902050348603829
 31
0.0
1001
GENIUS_GENOREF_13
1005
0
1005
0
  0
LINE
  5
FA3
  8
0
 10
68.737783683014015
 20
55.902050348605989
 30
0.0
 11
64.937783683014061
 21
55.902050348601733
 31
0.0
  0
LINE
  5
FA4
  8
0
 10
68.737783683014015
 20
55.902050348601733
 30
0.0
 11
70.737783683012765
 21
55.402050348603609
 31
0.0
  0
LINE
  5
FA5
  8
0
 10
64.737783683013944
 20
61.90205034860378
 30
0.0
 11
61.137783683013993
 21
61.90205034860378
 31
0.0
  0
LINE
  5
FA6
  8
0
 10
68.737783683014015
 20
61.90205034860594
 30
0.0
 11
70.737783683012765
 21
62.402050348604057
 31
0.0
  0
LINE
  5
FA7
  8
0
 10
68.537783683014084
 20
61.902050348601961
 30
0.0
 11
68.537783683014084
 21
61.902050348601961
 31
0.0
  0
LINE
  5
FA8
  8
0
 10
68.737783683014015
 20
61.90205034860594
 30
0.0
 11
64.937783683014061
 21
61.902050348601669
 31
0.0
  0
LINE
  5
FA9
  8
0
 10
64.737783683014129
 20
61.10205034860212
 30
0.0
 11
64.737783683013944
 21
61.702050348601567
 31
0.0
  0
LINE
  5
FAA
  8
0
 10
64.737783683014129
 20
61.10205034860212
 30
0.0
 11
64.737783683014129
 21
61.002050348602211
 31
0.0
  0
LINE
  5
FAB
  8
2
 10
63.487783683013951
 20
58.902050348603829
 30
0.0
 11
62.737783683013959
 21
60.402050348603723
 31
0.0
  0
LINE
  5
FAC
  8
0
 10
61.137783683013993
 20
55.902050348603836
 30
0.0
 11
64.737783683013944
 21
55.902050348603836
 31
0.0
  0
LINE
  5
FAD
  8
0
 10
64.737783683013944
 20
56.802050348602052
 30
0.0
 11
64.737783683014129
 21
56.702050348602143
 31
0.0
  0
LINE
  5
FAE
  8
0
 10
64.737783683014129
 20
56.702050348602143
 30
0.0
 11
64.737783683013944
 21
56.10205034860212
 31
0.0
  0
LINE
  5
FAF
  8
0
 10
64.937783683014061
 20
55.90205034860201
 30
0.0
 11
64.737783683013944
 21
56.10205034860212
 31
0.0
  0
LINE
  5
FB0
  8
0
 10
64.737783683013944
 20
56.802050348602052
 30
0.0
 11
64.737783683013944
 21
61.002050348602211
 31
0.0
  0
LINE
  5
FB1
  8
2
 10
62.737783683013959
 20
57.402050348603893
 30
0.0
 11
63.487783683013951
 21
58.902050348603829
 31
0.0
  0
LINE
  5
FB2
  8
2
 10
62.737783683013959
 20
57.402050348603893
 30
0.0
 11
62.737783683013959
 21
60.402050348603723
 31
0.0
  0
LINE
  5
FB3
  8
0
 10
70.737783683012765
 20
57.002050348604087
 30
0.0
 11
70.737783683012765
 21
55.402050348603609
 31
0.0
  0
LINE
  5
FB4
  8
1
 10
70.737783683012765
 20
57.68355945557726
 30
0.0
 11
70.737783683012765
 21
59.990347870375551
 31
0.0
  0
LINE
  5
FB5
  8
0
 10
70.737783683012765
 20
62.402050348604057
 30
0.0
 11
70.737783683012765
 21
60.802050348604091
 31
0.0
  0
LINE
  5
FB6
  8
0
 10
64.737783683013944
 20
55.902050348603836
 30
0.0
 11
64.737783683013944
 21
61.90205034860378
 31
0.0
  0
LINE
  5
FB7
  8
0
 10
68.737783683014015
 20
61.90205034860594
 30
0.0
 11
68.737783683014015
 21
55.90205034860201
 31
0.0
  0
LINE
  5
FB8
  8
0
 10
64.737783683013944
 20
61.702050348601567
 30
0.0
 11
64.937783683014061
 21
61.902050348601669
 31
0.0
  0
CIRCLE
  5
FB9
  8
0
 10
70.737783683012765
 20
58.902050348604121
 30
0.0
 40
1.8999999999999999
  0
LINE
  5
FBA
  8
3
 10
113.7199419694805
 20
55.902050348601513
 30
0.0
 11
94.219941969482477
 21
55.902050348601513
 31
0.0
  0
LINE
  5
FBB
  8
0
 10
111.71994196948179
 20
55.402050348603382
 30
0.0
 11
94.719941969480487
 21
55.402050348603673
 31
0.0
  0
LINE
  5
FBC
  8
0
 10
111.71994196948179
 20
62.402050348604121
 30
0.0
 11
94.719941969480487
 21
62.402050348603836
 31
0.0
  0
LINE
  5
FBD
  8
3
 10
113.7199419694805
 20
61.902050348605997
 30
0.0
 11
94.219941969482477
 21
61.902050348605997
 31
0.0
  0
CIRCLE
  5
FBE
  8
0
 10
111.71994196948179
 20
58.902050348604178
 30
0.0
 40
1.8999999999999999
  0
LINE
  5
FBF
  8
0
 10
88.737783683014015
 20
56.40205034860378
 30
0.0
 11
87.737783683014072
 21
55.402050348603836
 31
0.0
1001
GENIUS_GENOREF_13
1005
0
  0
LINE
  5
FC0
  8
0
 10
93.719941969480544
 20
56.402050348603659
 30
0.0
 11
94.719941969480487
 21
55.402050348603673
 31
0.0
1001
GENIUS_GENOREF_13
1005
0
  0
LINE
  5
FC1
  8
0
 10
88.737783683014015
 20
56.402050348604057
 30
0.0
 11
88.737783683014015
 21
61.40205034860378
 31
0.0
1001
GENIUS_GENOREF_13
1005
0
  0
LINE
  5
FC2
  8
0
 10
93.719941969480544
 20
61.40205034860395
 30
0.0
 11
93.719941969480544
 21
56.402050348604227
 31
0.0
  0
LINE
  5
FC3
  8
0
 10
88.737783683014015
 20
60.90205034860395
 30
0.0
 11
93.737783683014015
 21
60.90205034860395
 31
0.0
  0
LINE
  5
FC4
  8
0
 10
88.737783683014015
 20
56.902050348603893
 30
0.0
 11
93.737783683014015
 21
56.902050348603893
 31
0.0
  0
LINE
  5
FC5
  8
3
 10
88.737783683014015
 20
60.472645348603969
 30
0.0
 11
93.737783683014015
 21
60.472645348603969
 31
0.0
  0
LINE
  5
FC6
  8
3
 10
88.737783683014015
 20
57.331455348603917
 30
0.0
 11
93.737783683014015
 21
57.331455348603917
 31
0.0
  0
LINE
  5
FC7
  8
0
 10
94.719941969480487
 20
62.402050348604121
 30
0.0
 11
94.719941969480487
 21
55.402050348603673
 31
0.0
  0
LINE
  5
FC8
  8
0
 10
93.719941969480544
 20
61.40205034860395
 30
0.0
 11
94.719941969480487
 21
62.402050348603836
 31
0.0
1001
GENIUS_GENOREF_13
1005
0
  0
LINE
  5
FC9
  8
0
 10
87.737783683014072
 20
62.402050348604007
 30
0.0
 11
87.737783683014072
 21
55.402050348603836
 31
0.0
  0
LINE
  5
FCA
  8
0
 10
88.737783683014015
 20
61.40205034860378
 30
0.0
 11
87.737783683014072
 21
62.402050348603723
 31
0.0
1001
GENIUS_GENOREF_13
1005
0
  0
LINE
  5
FCB
  8
0
 10
113.7199419694805
 20
55.902050348602081
 30
0.0
 11
117.5199419694805
 21
55.902050348597811
 31
0.0
  0
LINE
  5
FCC
  8
0
 10
113.7199419694805
 20
55.902050348601513
 30
0.0
 11
111.71994196948179
 21
55.402050348603382
 31
0.0
  0
LINE
  5
FCD
  8
0
 10
113.7199419694805
 20
61.902050348605997
 30
0.0
 11
117.5199419694805
 21
61.90205034860174
 31
0.0
  0
LINE
  5
FCE
  8
0
 10
113.9199419694804
 20
61.902050348602017
 30
0.0
 11
113.9199419694804
 21
61.902050348602017
 31
0.0
  0
LINE
  5
FCF
  8
0
 10
113.7199419694805
 20
61.902050348605997
 30
0.0
 11
111.71994196948179
 21
62.402050348604121
 31
0.0
  0
LINE
  5
FD0
  8
0
 10
111.71994196948179
 20
57.0020503486042
 30
0.0
 11
111.71994196948179
 21
55.402050348603382
 31
0.0
  0
LINE
  5
FD1
  8
1
 10
111.71994196948179
 20
57.683559455577331
 30
0.0
 11
111.71994196948179
 21
59.990347870375622
 31
0.0
  0
LINE
  5
FD2
  8
0
 10
117.7199419694804
 20
61.102050348602177
 30
0.0
 11
117.7199419694804
 21
61.002050348602268
 31
0.0
  0
LINE
  5
FD3
  8
0
 10
117.7199419694804
 20
61.102050348602177
 30
0.0
 11
117.7199419694806
 21
61.702050348601631
 31
0.0
  0
LINE
  5
FD4
  8
0
 10
117.5199419694805
 20
55.902050348602081
 30
0.0
 11
117.7199419694806
 21
56.102050348602177
 31
0.0
  0
LINE
  5
FD5
  8
0
 10
117.7199419694804
 20
56.702050348602199
 30
0.0
 11
117.7199419694806
 21
56.102050348602177
 31
0.0
  0
LINE
  5
FD6
  8
0
 10
117.7199419694806
 20
56.802050348602108
 30
0.0
 11
117.7199419694804
 21
56.702050348602199
 31
0.0
  0
LINE
  5
FD7
  8
0
 10
117.7199419694806
 20
56.802050348602108
 30
0.0
 11
117.7199419694806
 21
61.002050348602268
 31
0.0
  0
LINE
  5
FD8
  8
0
 10
117.7199419694806
 20
61.702050348601631
 30
0.0
 11
117.5199419694805
 21
61.90205034860174
 31
0.0
  0
LINE
  5
FD9
  8
0
 10
113.7199419694805
 20
61.902050348605997
 30
0.0
 11
113.7199419694805
 21
55.902050348602081
 31
0.0
  0
LINE
  5
FDA
  8
0
 10
111.71994196948179
 20
62.402050348604121
 30
0.0
 11
111.71994196948179
 21
60.802050348604212
 31
0.0
  0
LINE
  5
FDB
  8
1
 10
58.922911717421186
 20
96.153607662152865
 30
0.0
 11
121.2531910675342
 21
96.153607662152865
 31
0.0
  0
LINE
  5
FDC
  8
0
 10
70.737783683012765
 20
92.653607662152638
 30
0.0
 11
87.737783683014072
 21
92.653607662152936
 31
0.0
  0
LINE
  5
FDD
  8
3
 10
68.737783683014015
 20
93.153607662150776
 30
0.0
 11
88.237783683012083
 21
93.153607662150776
 31
0.0
  0
LINE
  5
FDE
  8
0
 10
64.937783683014061
 20
99.153607662154684
 30
0.0
 11
88.237783683012083
 21
99.153607662154684
 31
0.0
  0
LINE
  5
FDF
  8
0
 10
60.737783683013902
 20
93.553607662152785
 30
0.0
 11
60.737783683013902
 21
98.753607662152888
 31
0.0
  0
LINE
  5
FE0
  8
0
 10
64.737783683014129
 20
98.353607662154559
 30
0.0
 11
64.737783683013944
 21
98.953607662154596
 31
0.0
  0
LINE
  5
FE1
  8
0
 10
68.737783683014015
 20
93.153607662150776
 30
0.0
 11
68.737783683014015
 21
99.153607662154684
 31
0.0
  0
LINE
  5
FE2
  8
0
 10
64.737783683013944
 20
99.153607662152808
 30
0.0
 11
64.737783683013944
 21
93.153607662152865
 31
0.0
  0
LINE
  5
FE3
  8
0
 10
70.737783683012765
 20
92.653607662152638
 30
0.0
 11
70.737783683012765
 21
99.153607662154684
 31
0.0
  0
ARC
  5
FE4
  8
0
 10
61.137783683013993
 20
93.553607662152785
 30
0.0
 40
0.4000000000000001
 50
180.00000000000321
 51
270.0
  0
LINE
  5
FE5
  8
2
 10
62.737783683013959
 20
94.653607662152922
 30
0.0
 11
60.737783683013902
 21
94.653607662152922
 31
0.0
  0
LINE
  5
FE6
  8
2
 10
62.737783683013959
 20
95.403607662152808
 30
0.0
 11
60.737783683013902
 21
95.403607662152808
 31
0.0
  0
LINE
  5
FE7
  8
2
 10
60.737783683013902
 20
97.653607662152751
 30
0.0
 11
62.737783683013959
 21
97.653607662152751
 31
0.0
  0
LINE
  5
FE8
  8
2
 10
60.737783683013902
 20
96.903607662152865
 30
0.0
 11
62.737783683013959
 21
96.903607662152865
 31
0.0
  0
LINE
  5
FE9
  8
2
 10
63.487783683013951
 20
96.153607662152865
 30
0.0
 11
62.737783683013959
 21
94.653607662152922
 31
0.0
  0
LINE
  5
FEA
  8
2
 10
62.737783683013959
 20
97.653607662152751
 30
0.0
 11
62.737783683013959
 21
94.653607662152922
 31
0.0
  0
LINE
  5
FEB
  8
2
 10
62.737783683013959
 20
97.653607662152751
 30
0.0
 11
63.487783683013951
 21
96.153607662152865
 31
0.0
  0
LINE
  5
FEC
  8
0
 10
64.737783683013944
 20
93.353607662155127
 30
0.0
 11
64.937783683014061
 21
93.153607662155025
 31
0.0
  0
LINE
  5
FED
  8
0
 10
68.737783683014015
 20
93.153607662150776
 30
0.0
 11
64.937783683014061
 21
93.153607662155025
 31
0.0
  0
LINE
  5
FEE
  8
0
 10
64.737783683014129
 20
93.953607662154596
 30
0.0
 11
64.737783683014129
 21
94.053607662154505
 31
0.0
  0
LINE
  5
FEF
  8
0
 10
64.737783683014129
 20
93.953607662154596
 30
0.0
 11
64.737783683013944
 21
93.353607662155127
 31
0.0
  0
LINE
  5
FF0
  8
0
 10
68.537783683014084
 20
93.153607662154755
 30
0.0
 11
68.537783683014084
 21
93.153607662154755
 31
0.0
  0
LINE
  5
FF1
  8
0
 10
64.737783683013944
 20
98.253607662154664
 30
0.0
 11
64.737783683014129
 21
98.353607662154559
 31
0.0
  0
LINE
  5
FF2
  8
0
 10
64.737783683013944
 20
98.253607662154664
 30
0.0
 11
64.737783683013944
 21
94.053607662154505
 31
0.0
  0
LINE
  5
FF3
  8
0
 10
68.737783683014015
 20
93.153607662150776
 30
0.0
 11
70.737783683012765
 21
92.653607662152638
 31
0.0
  0
LINE
  5
FF4
  8
0
 10
64.737783683013944
 20
93.153607662152865
 30
0.0
 11
61.137783683013993
 21
93.153607662152865
 31
0.0
  0
ARC
  5
FF5
  8
0
 10
61.137783683013993
 20
98.753607662152888
 30
0.0
 40
0.3999999999999773
 50
89.99999999999676
 51
180.0
  0
LINE
  5
FF6
  8
0
 10
64.937783683014061
 20
99.153607662154684
 30
0.0
 11
64.737783683013944
 21
98.953607662154596
 31
0.0
  0
LINE
  5
FF7
  8
0
 10
61.137783683013993
 20
99.153607662152808
 30
0.0
 11
64.737783683013944
 21
99.153607662152808
 31
0.0
  0
LINE
  5
FF8
  8
0
 10
88.737783683014015
 20
98.653607662152595
 30
0.0
 11
88.737783683014015
 21
93.653607662152865
 31
0.0
1001
GENIUS_GENOREF_13
1005
0
  0
LINE
  5
FF9
  8
0
 10
87.737783683014072
 20
92.653607662152638
 30
0.0
 11
87.737783683014072
 21
99.153607662154684
 31
0.0
  0
LINE
  5
FFA
  8
0
 10
94.719941969480487
 20
92.653607662152467
 30
0.0
 11
94.719941969480487
 21
99.153607662154513
 31
0.0
  0
LINE
  5
FFB
  8
0
 10
93.719941969480544
 20
93.653607662152695
 30
0.0
 11
93.719941969480544
 21
98.65360766215241
 31
0.0
  0
LINE
  5
FFC
  8
0
 10
111.71994196948179
 20
92.653607662152467
 30
0.0
 11
111.71994196948179
 21
99.153607662154513
 31
0.0
  0
LINE
  5
FFD
  8
0
 10
113.7199419694805
 20
93.153607662150591
 30
0.0
 11
113.7199419694805
 21
99.153607662154513
 31
0.0
  0
LINE
  5
FFE
  8
0
 10
117.7199419694804
 20
98.353607662154388
 30
0.0
 11
117.7199419694806
 21
98.953607662154411
 31
0.0
  0
LINE
  5
FFF
  8
3
 10
113.7199419694805
 20
93.153607662150591
 30
0.0
 11
94.219941969482477
 21
93.153607662150591
 31
0.0
  0
LINE
  5
1000
  8
0
 10
111.71994196948179
 20
92.653607662152467
 30
0.0
 11
94.719941969480487
 21
92.653607662152751
 31
0.0
  0
LINE
  5
1001
  8
0
 10
88.737783683014015
 20
93.653607662152865
 30
0.0
 11
87.737783683014072
 21
92.653607662152936
 31
0.0
1001
GENIUS_GENOREF_13
1005
0
  0
LINE
  5
1002
  8
0
 10
93.719941969480544
 20
93.653607662152695
 30
0.0
 11
94.719941969480487
 21
92.653607662152751
 31
0.0
1001
GENIUS_GENOREF_13
1005
0
  0
LINE
  5
1003
  8
3
 10
88.737783683014015
 20
97.72420266215272
 30
0.0
 11
93.737783683014015
 21
97.72420266215272
 31
0.0
  0
LINE
  5
1004
  8
3
 10
88.737783683014015
 20
94.583012662152669
 30
0.0
 11
93.737783683014015
 21
94.583012662152669
 31
0.0
  0
LINE
  5
1005
  8
0
 10
88.737783683014015
 20
98.153607662152766
 30
0.0
 11
93.737783683014015
 21
98.153607662152766
 31
0.0
  0
LINE
  5
1006
  8
0
 10
88.737783683014015
 20
94.153607662152695
 30
0.0
 11
93.737783683014015
 21
94.153607662152695
 31
0.0
  0
LINE
  5
1007
  8
0
 10
113.9199419694804
 20
93.15360766215457
 30
0.0
 11
113.9199419694804
 21
93.15360766215457
 31
0.0
  0
LINE
  5
1008
  8
0
 10
113.7199419694805
 20
93.153607662150591
 30
0.0
 11
111.71994196948179
 21
92.653607662152467
 31
0.0
  0
LINE
  5
1009
  8
0
 10
117.7199419694804
 20
93.953607662154411
 30
0.0
 11
117.7199419694806
 21
93.353607662154957
 31
0.0
  0
LINE
  5
100A
  8
0
 10
117.7199419694804
 20
93.953607662154411
 30
0.0
 11
117.7199419694804
 21
94.05360766215432
 31
0.0
  0
LINE
  5
100B
  8
0
 10
117.7199419694806
 20
93.353607662154957
 30
0.0
 11
117.5199419694805
 21
93.153607662154855
 31
0.0
  0
LINE
  5
100C
  8
0
 10
117.7199419694806
 20
98.253607662154479
 30
0.0
 11
117.7199419694804
 21
98.353607662154388
 31
0.0
  0
LINE
  5
100D
  8
0
 10
117.7199419694806
 20
98.253607662154479
 30
0.0
 11
117.7199419694806
 21
94.05360766215432
 31
0.0
  0
LINE
  5
100E
  8
0
 10
113.7199419694805
 20
93.153607662150591
 30
0.0
 11
117.5199419694805
 21
93.153607662154855
 31
0.0
  0
LINE
  5
100F
  8
0
 10
117.5199419694805
 20
99.153607662154513
 30
0.0
 11
94.219941969482477
 21
99.153607662154513
 31
0.0
  0
LINE
  5
1010
  8
0
 10
88.237783683012083
 20
99.153607662154684
 30
0.0
 11
88.737783683014015
 21
98.653607662152595
 31
0.0
1001
GENIUS_GENOREF_13
1005
0
  0
LINE
  5
1011
  8
0
 10
94.219941969482477
 20
99.153607662154513
 30
0.0
 11
93.719941969480544
 21
98.65360766215241
 31
0.0
1001
GENIUS_GENOREF_13
1005
0
  0
LINE
  5
1012
  8
0
 10
117.5199419694805
 20
99.153607662154513
 30
0.0
 11
117.7199419694806
 21
98.953607662154411
 31
0.0
  0
LINE
  5
1013
  8
1
 10
137.32066100528661
 20
58.902050348603723
 30
0.0
 11
145.52066100528651
 21
58.902050348603723
 31
0.0
1001
GENIUS_GENOREF_13
1005
0
1005
0
  0
ARC
  5
1014
  8
3
 10
141.4206610052866
 20
58.902050348603723
 30
0.0
 40
2.0
 50
180.0
 51
0.0
  0
ARC
  5
1015
  8
0
 10
141.4206610052866
 20
58.902050348603723
 30
0.0
 40
1.621
 50
180.0
 51
0.0
  0
LINE
  5
1016
  8
1
 10
141.4206610052866
 20
58.902050348603723
 30
0.0
 11
141.4206610052866
 21
54.977946444320992
 31
0.0
  0
LINE
  5
1017
  8
0
 10
138.42066100528979
 20
58.902050348603723
 30
0.0
 11
138.42066100528979
 21
57.099274710866432
 31
0.0
  0
ARC
  5
1018
  8
0
 10
141.4206610052866
 20
58.902050348603723
 30
0.0
 40
3.5
 50
211.00271913397449
 51
0.0
  0
ARC
  5
1019
  8
3
 10
141.4206610052866
 20
58.902050348603723
 30
0.0
 40
2.0
 50
0.0
 51
79.999999999999815
  0
ARC
  5
101A
  8
3
 10
141.4206610052866
 20
58.902050348603723
 30
0.0
 40
2.0
 50
150.0000000000002
 51
180.0
  0
ARC
  5
101B
  8
0
 10
141.4206610052866
 20
58.902050348603723
 30
0.0
 40
1.621
 50
0.0
 51
180.0
  0
LINE
  5
101C
  8
1
 10
141.4206610052866
 20
58.902050348603723
 30
0.0
 11
141.4206610052866
 21
62.826154252886511
 31
0.0
  0
LINE
  5
101D
  8
0
 10
138.42066100528979
 20
58.902050348603723
 30
0.0
 11
138.42066100528979
 21
60.704825986341
 31
0.0
  0
ARC
  5
101E
  8
0
 10
141.4206610052866
 20
58.902050348603723
 30
0.0
 40
3.5
 50
0.0
 51
148.99728086602551
  0
TEXT
  5
1148
  8
0
 62
     3
 10
0.0
 20
0.0
 30
0.0
 40
5.0
  1
L5-ABT7
  7
STANDARD1
  0
ENDSEC
  0
EOF
