  0
SECTION
  2
HEADER
  9
$ACADVER
  1
AC1009
  9
$INSBASE
 10
460.3149215290025
 20
261.13910035935311
 30
0.0
  9
$EXTMIN
 10
0.0
 20
-2.960436562073669
 30
0.0
  9
$EXTMAX
 10
199.2997769603522
 20
224.55749138860961
 30
0.0
  9
$LIMMIN
 10
0.0
 20
0.0
  9
$LIMMAX
 10
187.5
 20
139.0
  9
$ORTHOMODE
 70
     1
  9
$REGENMODE
 70
     1
  9
$FILLMODE
 70
     1
  9
$QTEXTMODE
 70
     0
  9
$MIRRTEXT
 70
     0
  9
$DRAGMODE
 70
     2
  9
$LTSCALE
 40
4.0
  9
$OSMODE
 70
  3071
  9
$ATTMODE
 70
     1
  9
$TEXTSIZE
 40
0.2
  9
$TRACEWID
 40
0.05
  9
$TEXTSTYLE
  7
STANDARD
  9
$CLAYER
  8
0
  9
$CELTYPE
  6
BYLAYER
  9
$CECOLOR
 62
   256
  9
$DIMSCALE
 40
1.0
  9
$DIMASZ
 40
3.0
  9
$DIMEXO
 40
1.0
  9
$DIMDLI
 40
6.0
  9
$DIMRND
 40
0.0
  9
$DIMDLE
 40
0.0
  9
$DIMEXE
 40
1.0
  9
$DIMTP
 40
495.0
  9
$DIMTM
 40
0.0
  9
$DIMTXT
 40
3.0
  9
$DIMCEN
 40
0.0
  9
$DIMTSZ
 40
0.0
  9
$DIMTOL
 70
     0
  9
$DIMLIM
 70
     0
  9
$DIMTIH
 70
     0
  9
$DIMTOH
 70
     0
  9
$DIMSE1
 70
     0
  9
$DIMSE2
 70
     0
  9
$DIMTAD
 70
     1
  9
$DIMZIN
 70
     0
  9
$DIMBLK
  1

  9
$DIMASO
 70
     0
  9
$DIMSHO
 70
     0
  9
$DIMPOST
  1

  9
$DIMAPOST
  1

  9
$DIMALT
 70
     0
  9
$DIMALTD
 70
     2
  9
$DIMALTF
 40
25.399999999999999
  9
$DIMLFAC
 40
1.0
  9
$DIMTOFL
 70
     1
  9
$DIMTVP
 40
0.0
  9
$DIMTIX
 70
     1
  9
$DIMSOXD
 70
     0
  9
$DIMSAH
 70
     0
  9
$DIMBLK1
  1

  9
$DIMBLK2
  1

  9
$DIMSTYLE
  2
STANDARD
  9
$DIMCLRD
 70
     0
  9
$DIMCLRE
 70
     0
  9
$DIMCLRT
 70
     4
  9
$DIMTFAC
 40
1.0
  9
$DIMGAP
 40
1.0
  9
$LUNITS
 70
     2
  9
$LUPREC
 70
     4
  9
$SKETCHINC
 40
0.1
  9
$FILLETRAD
 40
0.8
  9
$AUNITS
 70
     0
  9
$AUPREC
 70
     8
  9
$MENU
  1
C:\R13\WIN\SUPPORT\ACAD-I
  9
$ELEVATION
 40
0.0
  9
$PELEVATION
 40
0.0
  9
$THICKNESS
 40
0.0
  9
$LIMCHECK
 70
     0
  9
$BLIPMODE
 70
     0
  9
$CHAMFERA
 40
0.0
  9
$CHAMFERB
 40
0.0
  9
$SKPOLY
 70
     0
  9
$TDCREATE
 40
2450837.486061343
  9
$TDUPDATE
 40
2456597.5463322569
  9
$TDINDWG
 40
0.5770834954
  9
$TDUSRTIMER
 40
0.5770833218
  9
$USRTIMER
 70
     1
  9
$ANGBASE
 50
0.0
  9
$ANGDIR
 70
     0
  9
$PDMODE
 70
     0
  9
$PDSIZE
 40
0.0
  9
$PLINEWID
 40
0.0
  9
$COORDS
 70
     1
  9
$SPLFRAME
 70
     0
  9
$SPLINETYPE
 70
     6
  9
$SPLINESEGS
 70
     8
  9
$ATTDIA
 70
     0
  9
$ATTREQ
 70
     1
  9
$HANDLING
 70
     1
  9
$HANDSEED
  5
152C
  9
$SURFTAB1
 70
     6
  9
$SURFTAB2
 70
     6
  9
$SURFTYPE
 70
     6
  9
$SURFU
 70
     6
  9
$SURFV
 70
     6
  9
$UCSNAME
  2

  9
$UCSORG
 10
0.0
 20
0.0
 30
0.0
  9
$UCSXDIR
 10
1.0
 20
0.0
 30
0.0
  9
$UCSYDIR
 10
0.0
 20
1.0
 30
0.0
  9
$PUCSNAME
  2

  9
$PUCSORG
 10
0.0
 20
0.0
 30
0.0
  9
$PUCSXDIR
 10
1.0
 20
0.0
 30
0.0
  9
$PUCSYDIR
 10
0.0
 20
1.0
 30
0.0
  9
$USERI1
 70
     4
  9
$USERI2
 70
     1
  9
$USERI3
 70
     0
  9
$USERI4
 70
     0
  9
$USERI5
 70
     0
  9
$USERR1
 40
1.0
  9
$USERR2
 40
3.0
  9
$USERR3
 40
3.0
  9
$USERR4
 40
3.0
  9
$USERR5
 40
10.0
  9
$WORLDVIEW
 70
     1
  9
$SHADEDGE
 70
     3
  9
$SHADEDIF
 70
    70
  9
$TILEMODE
 70
     1
  9
$MAXACTVP
 70
    16
  9
$PLIMCHECK
 70
     0
  9
$PEXTMIN
 10
1.0000000000000000E+020
 20
1.0000000000000000E+020
 30
1.0000000000000000E+020
  9
$PEXTMAX
 10
-1.0000000000000000E+020
 20
-1.0000000000000000E+020
 30
-1.0000000000000000E+020
  9
$PLIMMIN
 10
0.0
 20
0.0
  9
$PLIMMAX
 10
12.0
 20
9.0
  9
$UNITMODE
 70
     0
  9
$VISRETAIN
 70
     0
  9
$PLINEGEN
 70
     0
  9
$PSLTSCALE
 70
     0
  0
ENDSEC
  0
SECTION
  2
TABLES
  0
TABLE
  2
VPORT
 70
     1
  0
VPORT
  2
*ACTIVE
 70
     0
 10
0.0
 20
0.0
 11
1.0
 21
1.0
 12
99.649888944207021
 22
135.2602769178288
 13
0.0
 23
0.0
 14
5.0
 24
5.0
 15
5.0
 25
5.0
 16
0.0
 26
0.0
 36
1.0
 17
0.0
 27
0.0
 37
0.0
 40
279.07740708910512
 41
1.9089595375722539
 42
50.0
 43
0.0
 44
0.0
 50
0.0
 51
0.0
 71
     0
 72
   100
 73
     1
 74
     0
 75
     0
 76
     0
 77
     0
 78
     0
  0
ENDTAB
  0
TABLE
  2
LTYPE
 70
     3
  0
LTYPE
  2
CONTINUOUS
 70
     0
  3
Solid Line
 72
    65
 73
     0
 40
0.0
  0
LTYPE
  2
CENTER
 70
     0
  3
____ _ ____ _ ____ _ ____ _ ____ _ ____ _ ____
 72
    65
 73
     4
 40
2.0
 49
1.25
 49
-0.25
 49
0.25
 49
-0.25
  0
LTYPE
  2
PHANTOM2
 70
     0
  3
___ _ _ ___ _ _ ___ _ _ ___ _ _
 72
    65
 73
     6
 40
1.25
 49
0.625
 49
-0.125
 49
0.125
 49
-0.125
 49
0.125
 49
-0.125
  0
ENDTAB
  0
TABLE
  2
LAYER
 70
     3
  0
LAYER
  2
0
 70
     0
 62
     7
  6
CONTINUOUS
  0
LAYER
  2
1
 70
     0
 62
     1
  6
CENTER
  0
LAYER
  2
3
 70
     0
 62
     3
  6
CONTINUOUS
  0
ENDTAB
  0
TABLE
  2
STYLE
 70
     2
  0
STYLE
  2
STANDARD
 70
     0
 40
0.0
 41
1.0
 50
0.0
 71
     0
 42
0.2
  3
SIMPLEX
  4
BIGFONT
  0
STYLE
  2
STANDARD1
 70
     0
 40
0.0
 41
1.0
 50
0.0
 71
     0
 42
3.0
  3
txt
  4

  0
ENDTAB
  0
TABLE
  2
VIEW
 70
     1
  0
VIEW
  2
OLE1
 70
     0
 40
39.511898139097383
 10
120.2696948272591
 20
104.363849043076
 41
71.206694128373329
 11
0.0
 21
0.0
 31
1.0
 12
0.0
 22
0.0
 32
0.0
 42
50.0
 43
0.0
 44
0.0
 50
0.0
 71
     0
  0
ENDTAB
  0
TABLE
  2
UCS
 70
     0
  0
ENDTAB
  0
TABLE
  2
APPID
 70
    69
  0
APPID
  2
ACAD
 70
     0
  0
APPID
  2
GENIUS_GENODEF_13
 70
     0
  0
APPID
  2
GENIUS_GENOREF_13
 70
     0
  0
APPID
  2
GENIUS_GENOBJ-N-FIL_13
 70
     0
  0
APPID
  2
GENIUS_GENOBJ-N-REC_13
 70
     0
  0
APPID
  2
GENIUS_GENOBJ-N-CEN_13
 70
     0
  0
APPID
  2
GENIUS_GENOENT_13
 70
     0
  0
APPID
  2
GENIUS_GENOBJ_13
 70
     0
  0
APPID
  2
GENIUS_GENOLIS_13
 70
     0
  0
APPID
  2
GENIUS_GENOBJ-N-SEC_13
 70
     0
  0
APPID
  2
GENIUS_GENOBJ-N-CRS_13
 70
     0
  0
APPID
  2
GENIUS_GENBH_13
 70
     0
  0
APPID
  2
GENIUS_GENOBJ-NBEHI-BHF_13
 70
     0
  0
APPID
  2
GENIUS_GENOBJ-NBEHI-BHB_13
 70
     0
  0
APPID
  2
GENIUS_GENOBJ-F-PART_13
 70
     0
  0
APPID
  2
GENIUS_GEFSTDP_13
 70
     0
  0
APPID
  2
GENIUS_GENOBJ-N-RSSYM_13
 70
     0
  0
APPID
  2
GENIUS_GENSYMENT_13
 70
     0
  0
APPID
  2
GENIUS_GEFINERT_13
 70
     0
  0
APPID
  2
GENIUS_GENOBJ-F-INER_13
 70
     0
  0
APPID
  2
GENIUS_GENOBJ-N-TIT_13
 70
     0
  0
APPID
  2
GENIUS_GENTITLE_13
 70
     0
  0
APPID
  2
GENIUS_GENZVEED_13
 70
     0
  0
APPID
  2
GENIUS_GENOBJ-N-LEADER_13
 70
     0
  0
APPID
  2
GENIUS_GENOBJ-N-ZOO_13
 70
     0
  0
APPID
  2
GENIUS_GENZOO_13
 70
     0
  0
APPID
  2
GENIUS_GENOBJ-F-TOL_13
 70
     0
  0
APPID
  2
GENIUS_GENOBJ-N-REV_13
 70
     0
  0
APPID
  2
GENIUS_GENOBJ-F-ROD_13
 70
     0
  0
APPID
  2
GENIUS_GENOBJ-F-SPR_13
 70
     0
  0
APPID
  2
GENIUS_GEFSPRING_13
 70
     0
  0
APPID
  2
GENIUS_GENOBJ-N-FITL_13
 70
     0
  0
APPID
  2
GENIUS_GENCFG_13
 70
     0
  0
APPID
  2
GENIUS_GEFCFG0_13
 70
     0
  0
APPID
  2
GENIUS_GENCFG0_13
 70
     0
  0
APPID
  2
GENIUS_GENCFG1_13
 70
     0
  0
APPID
  2
GENIUS_GENCFG2_13
 70
     0
  0
APPID
  2
GENIUS_GENCFG3_13
 70
     0
  0
APPID
  2
GENIUS_GENCFG4_13
 70
     0
  0
APPID
  2
GENIUS_GENCFG5_13
 70
     0
  0
APPID
  2
GENIUS_GEVCFG0_13
 70
     0
  0
APPID
  2
GENIUS_GENFIL_13
 70
     0
  0
APPID
  2
GENIUS_GENOBJ-N-CHA_13
 70
     0
  0
APPID
  2
GENIUS_GENREC_13
 70
     0
  0
APPID
  2
GENIUS_GENOBJ-F-EDG_13
 70
     0
  0
APPID
  2
GEV_VCCNULL_SWITCH_OFF
 70
     0
  0
APPID
  2
GEVID930736656
 70
     0
  0
APPID
  2
GEVDC
 70
     0
  0
APPID
  2
GEVCON
 70
     0
  0
APPID
  2
GEVRADREF
 70
     0
  0
APPID
  2
VCC
 70
     0
  0
APPID
  2
GEVXXX
 70
     0
  0
APPID
  2
GEVPT
 70
     0
  0
APPID
  2
GEVIT
 70
     0
  0
APPID
  2
GENBH
 70
     0
  0
APPID
  2
GEVMK
 70
     0
  0
APPID
  2
GENIUS_GEFPARTINS_13
 70
     0
  0
APPID
  2
GENIUS_GENINF13_13
 70
     0
  0
APPID
  2
GENIUS_GENOBJ-N-INFOPT_13
 70
     0
  0
APPID
  2
GENIUS_GENSCSYM_13
 70
     0
  0
APPID
  2
GENIUS_GEFINFNAM_13
 70
     0
  0
APPID
  2
GEVID930736657
 70
     0
  0
APPID
  2
GEVID930736658
 70
     0
  0
APPID
  2
GEVID930736659
 70
     0
  0
APPID
  2
GEVID930736660
 70
     0
  0
APPID
  2
GEVID930736661
 70
     0
  0
APPID
  2
ACAD_EXEMPT_FROM_CAD_STANDARDS
 70
     0
  0
APPID
  2
ACAD_MLEADERVER
 70
     0
  0
APPID
  2
ACAD_NAV_VCDISPLAY
 70
     0
  0
ENDTAB
  0
TABLE
  2
DIMSTYLE
 70
     1
  0
DIMSTYLE
  2
STANDARD
 70
     0
  3

  4

  5

  6

  7

 40
1.0
 41
0.18
 42
0.0625
 43
0.38
 44
0.18
 45
0.0
 46
0.0
 47
0.0
 48
0.0
140
0.18
141
0.09
142
0.0
143
25.399999999999999
144
1.0
145
0.0
146
1.0
147
0.09
 71
     0
 72
     0
 73
     1
 74
     1
 75
     0
 76
     0
 77
     0
 78
     0
170
     0
171
     2
172
     0
173
     0
174
     0
175
     0
176
     0
177
     0
178
     0
  0
ENDTAB
  0
ENDSEC
  0
SECTION
  2
BLOCKS
  0
BLOCK
  8
0
  2
$MODEL_SPACE
 70
     0
 10
0.0
 20
0.0
 30
0.0
  3
$MODEL_SPACE
  1

  0
ENDBLK
  5
B60
  8
0
  0
BLOCK
 67
     1
  8
0
  2
$PAPER_SPACE
 70
     0
 10
0.0
 20
0.0
 30
0.0
  3
$PAPER_SPACE
  1

  0
ENDBLK
  5
B5C
 67
     1
  8
0
  0
ENDSEC
  0
SECTION
  2
ENTITIES
  0
LINE
  5
30
  8
0
 10
139.2997769603522
 20
141.09984332085281
 30
0.0
 11
139.2997769603524
 21
99.999843320852861
 31
0.0
  0
LINE
  5
31
  8
0
 10
199.29977696035209
 20
141.09984332085281
 30
0.0
 11
199.2997769603522
 21
99.999843320852861
 31
0.0
  0
LINE
  5
34
  8
0
 10
199.2997769603522
 20
99.999843320852904
 30
0.0
 11
139.2997769603524
 21
99.999843320852861
 31
0.0
  0
LINE
  5
6C
  8
0
 10
112.54454123841209
 20
182.3574807721277
 30
0.0
 11
112.5445412384271
 21
206.757480772126
 31
0.0
  0
LINE
  5
6D
  8
1
 10
110.2945412384112
 20
179.35748077212841
 30
0.0
 11
110.2945412384296
 21
209.7574807721281
 31
0.0
  0
LINE
  5
6E
  8
0
 10
108.04454123841261
 20
182.35748077212889
 30
0.0
 11
108.0445412384275
 21
206.75748077213021
 31
0.0
  0
LINE
  5
6F
  8
0
 10
99.999813845001768
 20
224.5574913886077
 30
0.0
 11
99.999813845001768
 21
164.5574913886077
 31
0.0
  0
LINE
  5
71
  8
0
 10
119.2997769603523
 20
224.55749138860961
 30
0.0
 11
119.2997769603523
 21
164.55749138860961
 31
0.0
1001
GENIUS_GENOREF_13
1005
0
  0
LINE
  5
73
  8
0
 10
113.99977696035219
 20
165.05748077212581
 30
0.0
 11
113.99977696035219
 21
224.05748077212601
 31
0.0
  0
ARC
  5
74
  8
0
 10
109.04454123841241
 20
182.35748077212821
 30
0.0
 40
1.0
 50
179.9999999999618
 51
270.0000000000021
1001
GENIUS_GENODEF_13
1002
{
1000
HIER
1070
     0
1002
}
1002
{
1000
MANEDIT
1070
     0
1002
}
1002
{
1000
NOSEL
1070
     0
1002
}
1002
{
1000
BEHIND
1070
     0
1002
}
1002
{
1000
REACTOR
1002
}
1001
GENIUS_GENOBJ-N-FIL_13
1002
{
1000
OWNER
1000
GEN
1002
}
  0
ARC
  5
75
  8
0
 10
109.9998838173863
 20
174.5574913886087
 30
0.0
 40
2.149999999999999
 50
62.816781936107937
 51
244.7300567340628
  0
LINE
  5
76
  8
0
 10
119.29961899701711
 20
164.55749138860961
 30
0.0
 11
99.999883817381843
 21
164.5574913886077
 31
0.0
  0
LINE
  5
B3
  8
1
 10
155.29976634534549
 20
132.399843278785
 30
0.0
 11
141.2997663453456
 21
132.399843278785
 31
0.0
  0
CIRCLE
  5
B4
  8
0
 10
148.2997663453456
 20
132.399843278785
 30
0.0
 40
5.0
  0
LINE
  5
DA
  8
1
 10
148.2997663453483
 20
139.399843278785
 30
0.0
 11
148.2997663453483
 21
125.3998432787849
 31
0.0
  0
LINE
  5
DC
  8
0
 10
146.79721226977929
 20
131.53234327878499
 30
0.0
 11
146.79721226977929
 21
133.26734327878489
 31
0.0
  0
LINE
  5
DD
  8
0
 10
146.79721226977929
 20
133.26734327878489
 30
0.0
 11
148.2997663453456
 21
134.13484327878501
 31
0.0
  0
LINE
  5
DE
  8
0
 10
149.80232042091151
 20
133.26734327878489
 30
0.0
 11
149.80232042091151
 21
131.53234327878499
 31
0.0
  0
LINE
  5
DF
  8
0
 10
148.2997663453456
 20
134.13484327878501
 30
0.0
 11
149.80232042091151
 21
133.26734327878489
 31
0.0
  0
CIRCLE
  5
E0
  8
0
 10
148.2997663453456
 20
132.399843278785
 30
0.0
 40
1.7350000000000001
  0
LINE
  5
E1
  8
0
 10
149.80232042091151
 20
131.53234327878499
 30
0.0
 11
148.2997663453456
 21
130.66484327878501
 31
0.0
  0
LINE
  5
E2
  8
0
 10
148.2997663453456
 20
130.66484327878501
 30
0.0
 11
146.79721226977929
 21
131.53234327878499
 31
0.0
  0
LINE
  5
E3
  8
0
 10
115.0997769603523
 20
165.05748077212581
 30
0.0
 11
115.0997769603523
 21
164.55749138860961
 31
0.0
  0
LINE
  5
E4
  8
0
 10
115.499776960305
 20
165.05748077212581
 30
0.0
 11
113.99977696035219
 21
165.05748077212581
 31
0.0
  0
ARC
  5
E6
  8
0
 10
112.5831102936873
 20
177.02158238874659
 30
0.0
 40
1.5833333333357411
 50
133.1735511072967
 51
226.8264488926873
  0
LINE
  5
E7
  8
0
 10
110.98208422171849
 20
169.4243749592477
 30
0.0
 11
110.98208422171849
 21
177.6905865879809
 31
0.0
  0
LINE
  5
E8
  8
1
 10
107.0820842217143
 20
173.55748077360769
 30
0.0
 11
121.2997769603523
 21
173.55748077360761
 31
0.0
  0
LINE
  5
E9
  8
0
 10
111.4997769603478
 20
171.24807969685031
 30
0.0
 11
113.99977696035219
 21
171.24807969685031
 31
0.0
  0
LINE
  5
EA
  8
0
 10
111.49977696035219
 20
175.86688185036411
 30
0.0
 11
113.99977696035219
 21
175.86688185036411
 31
0.0
  0
ARC
  5
EB
  8
0
 10
116.391991186757
 20
173.55748077361011
 30
0.0
 40
5.4099069650384761
 50
154.7300464393235
 51
205.2699535607027
  0
LINE
  5
F4
  8
0
 10
111.49977696034961
 20
168.9386786200929
 30
0.0
 11
110.98208422171849
 21
169.4243749592477
 31
0.0
  0
LINE
  5
F5
  8
0
 10
111.49977696035219
 20
168.93867862009151
 30
0.0
 11
113.99977696035219
 21
168.93867862009151
 31
0.0
  0
ARC
  5
F6
  8
0
 10
112.5831102936918
 20
170.09337915847101
 30
0.0
 40
1.5833333333384521
 50
133.1735511073926
 51
226.8264488924805
  0
ARC
  5
F7
  8
0
 10
111.54454123841209
 20
182.3574807721285
 30
0.0
 40
1.0
 50
270.0000000000025
 51
359.99999999995998
1001
GENIUS_GENODEF_13
1002
{
1000
HIER
1070
     0
1002
}
1002
{
1000
MANEDIT
1070
     0
1002
}
1002
{
1000
NOSEL
1070
     0
1002
}
1002
{
1000
BEHIND
1070
     0
1002
}
1002
{
1000
REACTOR
1002
}
1001
GENIUS_GENOBJ-N-FIL_13
1002
{
1000
OWNER
1000
GEN
1002
}
  0
LINE
  5
F8
  8
0
 10
111.54454123841209
 20
181.3574807721285
 30
0.0
 11
109.04454123841241
 21
181.35748077212821
 31
0.0
  0
LINE
  5
F9
  8
0
 10
111.49977696034
 20
178.1762829271286
 30
0.0
 11
110.98208422171849
 21
177.6905865879809
 31
0.0
  0
LINE
  5
FA
  8
0
 10
111.4997769603515
 20
178.17628292712689
 30
0.0
 11
113.99977696035219
 21
178.17628292712689
 31
0.0
  0
LINE
  5
FB
  8
1
 10
99.794541238415292
 20
194.55748077212229
 30
0.0
 11
120.49977696035231
 21
194.55748077212201
 31
0.0
  0
ARC
  5
FC
  8
0
 10
109.0445412384275
 20
206.75748077212961
 30
0.0
 40
1.0
 50
89.999999999928349
 51
179.9999999999668
1001
GENIUS_GENODEF_13
1002
{
1000
HIER
1070
     0
1002
}
1002
{
1000
MANEDIT
1070
     0
1002
}
1002
{
1000
NOSEL
1070
     0
1002
}
1002
{
1000
BEHIND
1070
     0
1002
}
1002
{
1000
REACTOR
1002
}
1001
GENIUS_GENOBJ-N-FIL_13
1002
{
1000
OWNER
1000
GEN
1002
}
  0
ARC
  5
FD
  8
0
 10
109.9998838173843
 20
214.55749138860881
 30
0.0
 40
2.149999999999999
 50
115.2699432658782
 51
297.1832180639513
  0
LINE
  5
FF
  8
0
 10
119.2997769603523
 20
224.55749138860961
 30
0.0
 11
99.999813845001768
 21
224.55749138860961
 31
0.0
  0
LINE
  5
100
  8
0
 10
104.7945412384064
 20
190.53742835118629
 30
0.0
 11
104.794541238424
 21
198.53742835126479
 31
0.0
  0
LINE
  5
101
  8
0
 10
106.2945412384171
 20
189.8574807721306
 30
0.0
 11
106.29454123842299
 21
199.25748077213069
 31
0.0
  0
LINE
  5
102
  8
0
 10
105.2945412383352
 20
199.03742835122469
 30
0.0
 11
105.2945412384107
 21
190.03742835118129
 31
0.0
  0
LINE
  5
103
  8
0
 10
106.58930551648579
 20
189.5575264635836
 30
0.0
 11
108.0445412384171
 21
189.53212522957051
 31
0.0
  0
ARC
  5
104
  8
0
 10
106.59454123841699
 20
189.85748077213049
 30
0.0
 40
0.3
 50
179.99999999996101
 51
268.99999999997448
1001
GENIUS_GENODEF_13
1002
{
1000
HIER
1070
     0
1002
}
1002
{
1000
MANEDIT
1070
     0
1002
}
1002
{
1000
NOSEL
1070
     0
1002
}
1002
{
1000
BEHIND
1070
     0
1002
}
1002
{
1000
REACTOR
1002
}
1001
GENIUS_GENOBJ-N-FIL_13
1002
{
1000
OWNER
1000
GEN
1002
}
  0
LINE
  5
105
  8
0
 10
106.2945412383996
 20
190.03742835122171
 30
0.0
 11
105.2945412383948
 21
190.03742835122409
 31
0.0
1001
GENIUS_GENODEF_13
1002
{
1000
HIER
1070
     0
1002
}
1002
{
1000
MANEDIT
1070
     0
1002
}
1002
{
1000
NOSEL
1070
     0
1002
}
1002
{
1000
BEHIND
1070
     0
1002
}
1002
{
1000
REACTOR
1002
}
1001
GENIUS_GENOBJ-N-CEN_13
1002
{
1000
OWNER
1000
GEN
1002
}
  0
LINE
  5
106
  8
0
 10
105.294541238368
 20
190.03742835122409
 30
0.0
 11
104.79454123839039
 21
190.53742835120261
 31
0.0
  0
LINE
  5
107
  8
0
 10
106.5893055164919
 20
199.55743508067741
 30
0.0
 11
108.04454123842319
 21
199.58283631468879
 31
0.0
  0
LINE
  5
108
  8
0
 10
105.29454123838769
 20
199.03742835122469
 30
0.0
 11
104.794541238408
 21
198.53742835124859
 31
0.0
  0
ARC
  5
109
  8
0
 10
106.59454123842291
 20
199.25748077213041
 30
0.0
 40
0.3
 50
90.999999999954042
 51
179.9999999999674
1001
GENIUS_GENODEF_13
1002
{
1000
HIER
1070
     0
1002
}
1002
{
1000
MANEDIT
1070
     0
1002
}
1002
{
1000
NOSEL
1070
     0
1002
}
1002
{
1000
BEHIND
1070
     0
1002
}
1002
{
1000
REACTOR
1002
}
1001
GENIUS_GENOBJ-N-FIL_13
1002
{
1000
OWNER
1000
GEN
1002
}
  0
LINE
  5
10A
  8
0
 10
106.2945412384195
 20
199.03742835122279
 30
0.0
 11
105.2945412384145
 21
199.03742835122469
 31
0.0
1001
GENIUS_GENODEF_13
1002
{
1000
HIER
1070
     0
1002
}
1002
{
1000
MANEDIT
1070
     0
1002
}
1002
{
1000
NOSEL
1070
     0
1002
}
1002
{
1000
BEHIND
1070
     0
1002
}
1002
{
1000
REACTOR
1002
}
1001
GENIUS_GENOBJ-N-CEN_13
1002
{
1000
OWNER
1000
GEN
1002
}
  0
LINE
  5
10E
  8
0
 10
112.5445412384171
 20
189.5321252295677
 30
0.0
 11
113.9997769603482
 21
189.55752646357891
 31
0.0
  0
ARC
  5
10F
  8
0
 10
111.5445412384271
 20
206.7574807721266
 30
0.0
 40
1.0
 50
359.99999999996868
 51
89.999999999927226
1001
GENIUS_GENODEF_13
1002
{
1000
HIER
1070
     0
1002
}
1002
{
1000
MANEDIT
1070
     0
1002
}
1002
{
1000
NOSEL
1070
     0
1002
}
1002
{
1000
BEHIND
1070
     0
1002
}
1002
{
1000
REACTOR
1002
}
1001
GENIUS_GENOBJ-N-FIL_13
1002
{
1000
OWNER
1000
GEN
1002
}
  0
LINE
  5
110
  8
0
 10
111.54454123842839
 20
207.7574807721266
 30
0.0
 11
109.04454123842871
 21
207.75748077212961
 31
0.0
  0
LINE
  5
112
  8
0
 10
112.54454123842319
 20
199.58283631468581
 30
0.0
 11
113.99977696035459
 21
199.5574350806728
 31
0.0
  0
LINE
  5
113
  8
0
 10
111.49977696034
 20
220.17628292416521
 30
0.0
 11
110.98208422171849
 21
219.6905865850176
 31
0.0
  0
ARC
  5
114
  8
0
 10
112.5831102936873
 20
219.02158238578329
 30
0.0
 40
1.5833333333357411
 50
133.1735511072967
 51
226.8264488926873
  0
LINE
  5
115
  8
1
 10
107.0820842217143
 20
215.55748077064561
 30
0.0
 11
121.2997769603523
 21
215.5574807706455
 31
0.0
  0
ARC
  5
116
  8
0
 10
116.391991186757
 20
215.55748077064681
 30
0.0
 40
5.4099069650384761
 50
154.7300464393235
 51
205.2699535607027
  0
LINE
  5
117
  8
0
 10
111.49977696035219
 20
217.8668818474008
 30
0.0
 11
113.99977696035219
 21
217.8668818474008
 31
0.0
  0
LINE
  5
118
  8
0
 10
111.4997769603478
 20
213.24807969388709
 30
0.0
 11
113.99977696035219
 21
213.24807969388709
 31
0.0
  0
LINE
  5
121
  8
0
 10
111.49977696034961
 20
210.93867861712971
 30
0.0
 11
110.98208422171849
 21
211.42437495628431
 31
0.0
  0
LINE
  5
122
  8
0
 10
111.49977696035219
 20
210.9386786171282
 30
0.0
 11
113.99977696035219
 21
210.9386786171282
 31
0.0
  0
ARC
  5
123
  8
0
 10
112.5831102936918
 20
212.09337915550771
 30
0.0
 40
1.5833333333384521
 50
133.1735511073926
 51
226.8264488924805
  0
LINE
  5
124
  8
0
 10
110.98208422171849
 20
211.42437495628431
 30
0.0
 11
110.98208422171849
 21
219.6905865850176
 31
0.0
  0
LINE
  5
125
  8
0
 10
115.0997769603523
 20
224.55749138860961
 30
0.0
 11
115.0997769603523
 21
224.05748077212601
 31
0.0
  0
LINE
  5
126
  8
0
 10
115.499776960305
 20
224.05748077212601
 30
0.0
 11
113.99977696035219
 21
224.05748077212601
 31
0.0
  0
LINE
  5
127
  8
0
 10
111.4997769603515
 20
220.1762829241637
 30
0.0
 11
113.99977696035219
 21
220.1762829241637
 31
0.0
  0
LINE
  5
129
  8
1
 10
190.29976634239779
 20
139.3998432787867
 30
0.0
 11
190.29976634239779
 21
125.3998432787867
 31
0.0
  0
CIRCLE
  5
12A
  8
0
 10
190.29976634239881
 20
132.3998432787867
 30
0.0
 40
5.0
  0
LINE
  5
12B
  8
1
 10
197.2997663423987
 20
132.399843278795
 30
0.0
 11
183.2997663423987
 21
132.399843278795
 31
0.0
  0
LINE
  5
12C
  8
0
 10
188.7972122668325
 20
131.53234327878661
 30
0.0
 11
188.7972122668325
 21
133.2673432787866
 31
0.0
  0
LINE
  5
12D
  8
0
 10
191.80232041796469
 20
133.26734327878671
 30
0.0
 11
191.80232041796469
 21
131.53234327878661
 31
0.0
  0
LINE
  5
12E
  8
0
 10
190.29976634239881
 20
134.1348432787866
 30
0.0
 11
191.80232041796469
 21
133.26734327878671
 31
0.0
  0
LINE
  5
12F
  8
0
 10
188.7972122668325
 20
133.2673432787866
 30
0.0
 11
190.29976634239881
 21
134.1348432787866
 31
0.0
  0
CIRCLE
  5
130
  8
0
 10
190.29976634239881
 20
132.3998432787867
 30
0.0
 40
1.7350000000000001
  0
LINE
  5
131
  8
0
 10
191.80232041796469
 20
131.53234327878661
 30
0.0
 11
190.29976634239881
 21
130.66484327878669
 31
0.0
  0
LINE
  5
132
  8
0
 10
190.29976634239881
 20
130.66484327878669
 30
0.0
 11
188.7972122668325
 21
131.53234327878661
 31
0.0
  0
LINE
  5
9E4
  8
0
 10
105.2945412383859
 20
126.8998432787963
 30
0.0
 11
104.7945412384059
 21
127.399843278772
 31
0.0
  0
LINE
  5
9E5
  8
0
 10
106.29454123841769
 20
126.8998432787988
 30
0.0
 11
105.29454123841271
 21
126.8998432787963
 31
0.0
1001
GENIUS_GENODEF_13
1002
{
1000
HIER
1070
     0
1002
}
1002
{
1000
MANEDIT
1070
     0
1002
}
1002
{
1000
NOSEL
1070
     0
1002
}
1002
{
1000
BEHIND
1070
     0
1002
}
1002
{
1000
REACTOR
1002
}
1001
GENIUS_GENOBJ-N-CEN_13
1002
{
1000
OWNER
1000
GEN
1002
}
  0
LINE
  5
9E6
  8
0
 10
105.29454123836059
 20
135.89984327879671
 30
0.0
 11
104.7945412383833
 21
135.39984327881811
 31
0.0
  0
LINE
  5
9E7
  8
0
 10
106.2945412383924
 20
135.89984327879981
 30
0.0
 11
105.2945412383874
 21
135.89984327879671
 31
0.0
1001
GENIUS_GENODEF_13
1002
{
1000
HIER
1070
     0
1002
}
1002
{
1000
MANEDIT
1070
     0
1002
}
1002
{
1000
NOSEL
1070
     0
1002
}
1002
{
1000
BEHIND
1070
     0
1002
}
1002
{
1000
REACTOR
1002
}
1001
GENIUS_GENOBJ-N-CEN_13
1002
{
1000
OWNER
1000
GEN
1002
}
  0
LINE
  5
9E8
  8
0
 10
105.29454123833339
 20
126.8998432787962
 30
0.0
 11
105.2945412384035
 21
135.89984327883951
 31
0.0
  0
LINE
  5
9E9
  8
0
 10
104.7945412383993
 20
135.39984327883411
 30
0.0
 11
104.794541238422
 21
127.3998432787558
 31
0.0
  0
LINE
  5
9EA
  8
3
 10
110.98208422171849
 20
130.33283463825919
 30
0.0
 11
109.13984286225001
 21
130.33283463825919
 31
0.0
  0
LINE
  5
9EB
  8
3
 10
110.98208422171849
 20
134.46683463825929
 30
0.0
 11
109.1398255811785
 21
134.46683463825929
 31
0.0
  0
LINE
  5
9ED
  8
0
 10
111.4997769603532
 20
128.39983463826039
 30
0.0
 11
110.98208422171849
 21
129.3236477927743
 31
0.0
  0
LINE
  5
9EE
  8
0
 10
111.49977696035241
 20
128.39983463826039
 30
0.0
 11
113.9997769603531
 21
128.39983463826039
 31
0.0
  0
LINE
  5
9F0
  8
0
 10
111.49977696035241
 20
132.39983463825911
 30
0.0
 11
113.9997769603531
 21
132.39983463825979
 31
0.0
  0
LINE
  5
9F1
  8
0
 10
110.98208422171849
 20
135.46683608116831
 30
0.0
 11
110.98208422171849
 21
129.3236477927743
 31
0.0
  0
ARC
  5
9F2
  8
0
 10
115.0953545568369
 20
134.40213098890291
 30
0.0
 40
4.1132709761199324
 50
150.94344107231109
 51
209.05655892766711
  0
LINE
  5
9F3
  8
0
 10
111.4997769603532
 20
136.39983463826019
 30
0.0
 11
110.98208422171849
 21
135.46683608116831
 31
0.0
  0
LINE
  5
9F4
  8
0
 10
111.4997769603514
 20
136.39983463826019
 30
0.0
 11
113.9997769603513
 21
136.39983463826019
 31
0.0
  0
ARC
  5
9F5
  8
0
 10
117.29977696032429
 20
101.99984327882279
 30
0.0
 40
2.0000000000278519
 50
270.00000000080121
 51
359.9999999979579
  0
LINE
  5
9F6
  8
0
 10
111.1343440672695
 20
106.3498432787429
 30
0.0
 11
108.86520985377911
 21
106.3498432787143
 31
0.0
  0
ARC
  5
9F7
  8
0
 10
102.6321885743268
 20
114.91743166472619
 30
0.0
 40
0.8324116139077734
 50
45.000200652728047
 51
180.00000000073771
  0
ARC
  5
9F8
  8
0
 10
101.4997769604463
 20
112.79984327861899
 30
0.0
 40
0.3000000000000682
 50
270.00000000073601
 51
0.0000000007800247
  0
ARC
  5
9F9
  8
0
 10
101.4997769605131
 20
107.1998432786195
 30
0.0
 40
0.3000000000000682
 50
0.0000000008028229
 51
90.000000000758845
  0
LINE
  5
9FA
  8
0
 10
101.7997769604189
 20
114.91743166471549
 30
0.0
 11
101.79977696044639
 21
112.7998432786232
 31
0.0
  0
LINE
  5
9FB
  8
0
 10
105.4710973040003
 20
113.25573072897549
 30
0.0
 11
103.22079040993491
 21
115.5060376229759
 31
0.0
  0
LINE
  5
9FC
  8
0
 10
106.34977696049729
 20
108.8652761719367
 30
0.0
 11
106.34977696046811
 21
111.1344103854273
 31
0.0
  0
ARC
  5
9FD
  8
0
 10
103.3497769604939
 20
108.86527617190529
 30
0.0
 40
3.0000000000034102
 50
315.00000000059902
 51
0.0000000005976389
  0
ARC
  5
9FE
  8
0
 10
103.3497769604682
 20
111.13441038538851
 30
0.0
 40
2.999999999999885
 50
0.0000000007425705
 51
45.000000000740677
  0
ARC
  5
9FF
  8
0
 10
100.79980764329321
 20
106.6998432786107
 30
0.0
 40
0.8
 50
90.000000000732797
 51
179.9996259597753
1001
GENIUS_GENODEF_13
1002
{
1000
HIER
1070
     0
1002
}
1002
{
1000
MANEDIT
1070
     0
1002
}
1002
{
1000
NOSEL
1070
     0
1002
}
1002
{
1000
BEHIND
1070
     0
1002
}
1002
{
1000
REACTOR
1002
}
1001
GENIUS_GENOBJ-N-FIL_13
1002
{
1000
OWNER
1000
GEN
1002
}
  0
ARC
  5
A00
  8
0
 10
100.7998507296341
 20
113.29984327861069
 30
0.0
 40
0.8
 50
179.9996259597753
 51
270.000000000684
1001
GENIUS_GENODEF_13
1002
{
1000
HIER
1070
     0
1002
}
1002
{
1000
MANEDIT
1070
     0
1002
}
1002
{
1000
NOSEL
1070
     0
1002
}
1002
{
1000
BEHIND
1070
     0
1002
}
1002
{
1000
REACTOR
1002
}
1001
GENIUS_GENOBJ-N-FIL_13
1002
{
1000
OWNER
1000
GEN
1002
}
  0
LINE
  5
A01
  8
0
 10
100.799807643283
 20
107.4998432786107
 30
0.0
 11
101.499776960509
 21
107.49984327861959
 31
0.0
  0
LINE
  5
A02
  8
0
 10
101.49977696045021
 20
112.499843278619
 30
0.0
 11
100.79985072964359
 21
112.4998432786107
 31
0.0
  0
CIRCLE
  5
A03
  8
0
 10
109.99977696047939
 20
109.9998432787262
 30
0.0
 40
2.149999999999999
  0
LINE
  5
A04
  8
1
 10
124.2997769603523
 20
109.9998432787263
 30
0.0
 11
94.999795129014359
 21
109.9998432787262
 31
0.0
  0
LINE
  5
A05
  8
0
 10
112.4997769608416
 20
100.799843278757
 30
0.0
 11
112.4997769608328
 21
101.49984327837809
 31
0.0
  0
ARC
  5
A06
  8
0
 10
112.7997769605862
 20
101.4998432787587
 30
0.0
 40
0.3000000000000682
 50
90.000000000716497
 51
180.0000000006724
  0
LINE
  5
A08
  8
0
 10
115.5059713049101
 20
103.2208567283118
 30
0.0
 11
113.2556644108398
 21
105.4711636223243
 31
0.0
  0
LINE
  5
A09
  8
0
 10
112.79977696058241
 20
101.7998432787588
 30
0.0
 11
114.917365346675
 21
101.7998432787861
 31
0.0
  0
ARC
  5
A0A
  8
0
 10
114.91736534666239
 20
102.63225489269919
 30
0.0
 40
0.8324116139093007
 50
0.0000000003387164
 51
44.999799347572988
  0
ARC
  5
A0B
  8
0
 10
114.9173653466639
 20
102.6322548926936
 30
0.0
 40
0.8324116139076663
 50
270.00000000075551
 51
0.0000000007197722
  0
LINE
  5
A0C
  8
0
 10
113.2997769608417
 20
99.999843278767216
 30
0.0
 11
117.29977696035201
 21
99.999843278767216
 31
0.0
  0
ARC
  5
A0D
  8
0
 10
102.6321885744493
 20
105.0822548925306
 30
0.0
 40
0.8324116139036732
 50
180.0000000003761
 51
314.99979934836858
  0
ARC
  5
A0E
  8
0
 10
105.08218857447901
 20
102.632254892573
 30
0.0
 40
0.8324116139071605
 50
135.00020065272631
 51
270.00000000073601
  0
LINE
  5
A0F
  8
0
 10
107.4997769609781
 20
100.7998432787342
 30
0.0
 11
107.4997769609689
 21
101.4998432783138
 31
0.0
  0
ARC
  5
A10
  8
0
 10
107.19977696058611
 20
101.4998432786922
 30
0.0
 40
0.3000000000001677
 50
0.0000000007344282
 51
90.000000000749083
  0
LINE
  5
A12
  8
0
 10
106.7438895102307
 20
105.47116362224619
 30
0.0
 11
104.4935826162298
 21
103.22085672818091
 31
0.0
  0
LINE
  5
A13
  8
0
 10
105.08218857448981
 20
101.7998432786659
 30
0.0
 11
107.1997769605823
 21
101.79984327869241
 31
0.0
  0
LINE
  5
A14
  8
0
 10
101.99977696035231
 20
99.999843278723674
 30
0.0
 11
106.6997769609781
 21
99.999843278723674
 31
0.0
  0
ARC
  5
A15
  8
0
 10
101.9997769602989
 20
101.99984327870609
 30
0.0
 40
1.999999999982492
 50
179.99999999949841
 51
270.00000000153062
  0
ARC
  5
A16
  8
0
 10
108.8652098538181
 20
103.3498432787143
 30
0.0
 40
3.0000000000001119
 50
90.000000000745828
 51
135.00000000074701
  0
ARC
  5
A21
  8
0
 10
111.134344067301
 20
103.34984327874081
 30
0.0
 40
3.000000000002133
 50
45.000000000602469
 51
90.000000000602526
  0
LINE
  5
A22
  8
0
 10
101.799776960513
 20
107.1998432786236
 30
0.0
 11
101.7997769605456
 21
105.0822548925252
 31
0.0
  0
LINE
  5
A23
  8
0
 10
103.220790410066
 20
104.49364893429519
 30
0.0
 11
105.4710973040781
 21
106.7439558283655
 31
0.0
  0
LINE
  5
A24
  8
0
 10
99.999807643310362
 20
106.69984850119749
 30
0.0
 11
99.999776960316467
 21
101.9998432787236
 31
0.0
  0
LINE
  5
A26
  8
1
 10
120.49977696035231
 20
131.399843278795
 30
0.0
 11
99.794541238415292
 21
131.399843278795
 31
0.0
  0
LINE
  5
A27
  8
1
 10
107.08208422171781
 20
132.399843278795
 30
0.0
 11
121.29961899701721
 21
132.399843278795
 31
0.0
  0
LINE
  5
A28
  8
0
 10
109.0820842217143
 20
134.40909327879501
 30
0.0
 11
109.0820842217143
 21
130.390593278795
 31
0.0
  0
LINE
  5
A29
  8
0
 10
109.5728342217141
 20
134.899843278795
 30
0.0
 11
109.5728342217141
 21
129.899843278795
 31
0.0
  0
LINE
  5
A2A
  8
0
 10
106.29454123841531
 20
136.09984327879499
 30
0.0
 11
106.29454123841531
 21
126.6998432787951
 31
0.0
  0
LINE
  5
A2B
  8
0
 10
112.5445412384222
 20
128.39984327879409
 30
0.0
 11
112.5445412384222
 21
119.1998432787979
 31
0.0
  0
LINE
  5
A2C
  8
0
 10
112.5445412384222
 20
143.59984327879209
 30
0.0
 11
112.5445412384222
 21
136.3998432787939
 31
0.0
  0
LINE
  5
A2D
  8
0
 10
108.0445412384221
 20
143.59984327879209
 30
0.0
 11
108.0445412384221
 21
119.1998432787979
 31
0.0
  0
LINE
  5
A2E
  8
0
 10
113.99977696035219
 20
137.899843278795
 30
0.0
 11
116.49977696035501
 21
137.899843278795
 31
0.0
  0
LINE
  5
A2F
  8
0
 10
113.99977696035219
 20
125.899843278795
 30
0.0
 11
113.99977696035219
 21
137.899843278795
 31
0.0
  0
LINE
  5
A30
  8
0
 10
113.99977696035219
 20
125.899843278795
 30
0.0
 11
116.49977696035501
 21
125.899843278795
 31
0.0
  0
LINE
  5
A31
  8
0
 10
105.3035828826397
 20
116.6036492010825
 30
0.0
 11
102.44204945263969
 21
119.4651826310825
 31
0.0
  0
LINE
  5
A35
  8
0
 10
99.999776960352335
 20
118.399843278795
 30
0.0
 11
99.999850729651143
 21
113.2998485011974
 31
0.0
  0
ARC
  5
A36
  8
0
 10
109.8997769603523
 20
121.199843278795
 30
0.0
 40
6.4999999999999449
 50
224.9999999999998
 51
270.0
  0
ARC
  5
A37
  8
0
 10
117.7997769603523
 20
139.59984327879499
 30
0.0
 40
1.5000000000000071
 50
0.0
 51
90.0
  0
LINE
  5
A38
  8
0
 10
119.2997769603523
 20
101.999843278795
 30
0.0
 11
119.2997769603523
 21
139.59984327879499
 31
0.0
  0
ARC
  5
A39
  8
0
 10
109.8997769603523
 20
119.899843278795
 30
0.0
 40
5.2000000000000313
 50
270.0
 51
0.0
  0
LINE
  5
A3F
  8
0
 10
115.7997769603523
 20
141.09984327879499
 30
0.0
 11
117.7997769603523
 21
141.09984327879499
 31
0.0
  0
LINE
  5
A47
  8
0
 10
109.0820842217143
 20
130.390593278795
 30
0.0
 11
109.5728342217141
 21
129.899843278795
 31
0.0
  0
LINE
  5
A48
  8
0
 10
109.5728342217141
 20
134.899843278795
 30
0.0
 11
109.0820842217143
 21
134.40909327879501
 31
0.0
  0
LINE
  5
A49
  8
0
 10
109.5728342217141
 20
129.899843278795
 30
0.0
 11
110.98208422171849
 21
129.899843278795
 31
0.0
  0
LINE
  5
A4A
  8
0
 10
110.98208422171849
 20
134.899843278795
 30
0.0
 11
109.5728342217141
 21
134.89984327879489
 31
0.0
  0
ARC
  5
A4E
  8
0
 10
111.5445412384222
 20
143.59984327879209
 30
0.0
 40
1.0000000000000131
 50
0.0
 51
90.0
  0
ARC
  5
A4F
  8
0
 10
111.5445412384222
 20
119.1998432787979
 30
0.0
 40
1.0
 50
270.0
 51
0.0
  0
ARC
  5
A50
  8
0
 10
109.0445412384221
 20
143.59984327879209
 30
0.0
 40
1.0000000000000131
 50
90.0
 51
180.0
  0
ARC
  5
A51
  8
0
 10
109.0445412384221
 20
119.1998432787979
 30
0.0
 40
1.0
 50
180.0
 51
270.0
  0
LINE
  5
A52
  8
0
 10
111.5445412384222
 20
144.59984327879209
 30
0.0
 11
109.0445412384221
 21
144.59984327879209
 31
0.0
  0
LINE
  5
A53
  8
0
 10
109.0445412384221
 20
118.1998432787979
 30
0.0
 11
111.5445412384222
 21
118.1998432787979
 31
0.0
  0
LINE
  5
A54
  8
0
 10
119.2997769603523
 20
126.899843278795
 30
0.0
 11
119.3005607063651
 21
126.89858928517459
 31
0.0
  0
LINE
  5
A55
  8
0
 10
119.3005607063651
 20
137.90109727241551
 30
0.0
 11
119.2997769603523
 21
137.899843278795
 31
0.0
  0
LINE
  5
A72
  8
0
 10
79.499989383512798
 20
136.1158192825585
 30
0.0
 11
79.999999999999574
 21
136.1158192825585
 31
0.0
  0
LINE
  5
A73
  8
0
 10
79.499989383512798
 20
137.89968659953149
 30
0.0
 11
80.0
 21
137.89968659953149
 31
0.0
  0
LINE
  5
A74
  8
0
 10
73.309390458805154
 20
136.3998346382601
 30
0.0
 11
75.618791535562963
 21
132.39983463825979
 31
0.0
  0
LINE
  5
A75
  8
0
 10
75.618791535562963
 20
132.39983463825979
 30
0.0
 11
73.309390458803705
 21
128.3998346382601
 31
0.0
  0
LINE
  5
A76
  8
0
 10
73.309390458803705
 20
128.3998346382601
 30
0.0
 11
68.690588305286724
 21
128.39983463826101
 31
0.0
  0
LINE
  5
A77
  8
0
 10
68.69058830528806
 20
136.39983463826101
 30
0.0
 11
73.309390458805154
 21
136.3998346382601
 31
0.0
  0
CIRCLE
  5
A78
  8
3
 10
70.999989382045527
 20
132.39983463825931
 30
0.0
 40
2.0669999999999931
  0
LINE
  5
A79
  8
0
 10
79.499989383512798
 20
137.89968659955039
 30
0.0
 11
79.499989383513366
 21
125.89968659955051
 31
0.0
  0
LINE
  5
A7A
  8
1
 10
70.999989382045527
 20
138.39983463825931
 30
0.0
 11
70.999989382045527
 21
126.39983463825931
 31
0.0
  0
CIRCLE
  5
A7B
  8
0
 10
50.0
 20
131.39983463825931
 30
0.0
 40
4.0000086405693329
  0
CIRCLE
  5
A7C
  8
0
 10
50.000000000001698
 20
131.39983463825729
 30
0.0
 40
5.0253641830968832
  0
CIRCLE
  5
A7D
  8
0
 10
50.0
 20
131.39983463825931
 30
0.0
 40
4.5000086405272413
  0
LINE
  5
A7E
  8
1
 10
50.0
 20
146.59983463825631
 30
0.0
 11
50.0
 21
116.1998346382622
 31
0.0
  0
LINE
  5
A7F
  8
0
 10
79.499989383512798
 20
137.89968659955039
 30
0.0
 11
61.488773845859832
 21
137.8996865995494
 31
0.0
  0
LINE
  5
A80
  8
0
 10
79.499989383513594
 20
125.89968659955051
 30
0.0
 11
61.999515471562809
 21
125.8996865995493
 31
0.0
  0
LINE
  5
A81
  8
0
 10
61.976470963859619
 20
125.8496865995285
 30
0.0
 11
80.0
 21
125.8496865995285
 31
0.0
  0
LINE
  5
A82
  8
0
 10
58.952653238007173
 20
141.0998346382593
 30
0.0
 11
80.0
 21
141.0998346382593
 31
0.0
  0
LINE
  5
A83
  8
1
 10
77.618791535560945
 20
132.39983463825931
 30
0.0
 11
64.381187228530109
 21
132.39983463825931
 31
0.0
  0
LINE
  5
A84
  8
0
 10
66.381187228528916
 20
132.39983463826141
 30
0.0
 11
68.69058830528806
 21
136.39983463826101
 31
0.0
  0
LINE
  5
A85
  8
0
 10
68.690588305286724
 20
128.39983463826101
 30
0.0
 11
66.381187228528916
 21
132.39983463826141
 31
0.0
  0
CIRCLE
  5
A86
  8
0
 10
70.999989382045527
 20
132.39983463825931
 30
0.0
 40
3.0715941441969932
  0
CIRCLE
  5
A87
  8
0
 10
70.999989382045527
 20
132.39983463825931
 30
0.0
 40
2.5
  0
CIRCLE
  5
A88
  8
0
 10
28.999989384995839
 20
132.39983463825931
 30
0.0
 40
2.5
  0
CIRCLE
  5
A89
  8
3
 10
28.999989384995839
 20
132.39983463825931
 30
0.0
 40
2.0669999999999931
  0
LINE
  5
A8A
  8
0
 10
26.690588308238372
 20
136.39983463826101
 30
0.0
 11
31.309390461755459
 21
136.3998346382601
 31
0.0
  0
LINE
  5
A8B
  8
0
 10
31.309390461753981
 20
128.3998346382601
 30
0.0
 11
26.69058830823699
 21
128.39983463826101
 31
0.0
  0
LINE
  5
A8C
  8
0
 10
33.618791538513271
 20
132.39983463825979
 30
0.0
 11
31.309390461753981
 21
128.3998346382601
 31
0.0
  0
LINE
  5
A8D
  8
0
 10
31.309390461755459
 20
136.3998346382601
 30
0.0
 11
33.618791538513271
 21
132.39983463825979
 31
0.0
  0
CIRCLE
  5
A8E
  8
0
 10
28.999989384995839
 20
132.39983463825931
 30
0.0
 40
3.0715941441969932
  0
LINE
  5
A90
  8
0
 10
19.999999999999531
 20
136.1158192825585
 30
0.0
 11
20.499989383512681
 21
136.1158192825585
 31
0.0
  0
LINE
  5
A91
  8
0
 10
20.0
 20
137.89968659953149
 30
0.0
 11
20.49998938351278
 21
137.89968659953149
 31
0.0
  0
LINE
  5
A92
  8
0
 10
20.49998938351278
 20
137.89968659954681
 30
0.0
 11
38.511226154139358
 21
137.89968659954801
 31
0.0
  0
LINE
  5
A93
  8
1
 10
35.618791538511253
 20
132.39983463825931
 30
0.0
 11
22.381187231480421
 21
132.39983463825931
 31
0.0
  0
LINE
  5
A94
  8
0
 10
26.69058830823699
 20
128.39983463826101
 30
0.0
 11
24.381187231479188
 21
132.39983463826141
 31
0.0
  0
LINE
  5
A95
  8
0
 10
24.381187231479188
 20
132.39983463826141
 30
0.0
 11
26.690588308238372
 21
136.39983463826101
 31
0.0
  0
LINE
  5
A96
  8
0
 10
20.49998938351359
 20
125.8996865995468
 30
0.0
 11
38.000484528437831
 21
125.89968659954791
 31
0.0
  0
LINE
  5
A97
  8
0
 10
20.0
 20
125.8496865995285
 30
0.0
 11
38.023529036140367
 21
125.8496865995285
 31
0.0
  0
LINE
  5
A98
  8
0
 10
20.49998938351257
 20
137.89968659954681
 30
0.0
 11
20.49998938351359
 21
125.8996865995468
 31
0.0
  0
LINE
  5
A99
  8
1
 10
28.999989384995839
 20
138.39983463825931
 30
0.0
 11
28.999989384995839
 21
126.39983463825931
 31
0.0
  0
CIRCLE
  5
A9B
  8
0
 10
49.99999999999725
 20
131.39983463825649
 30
0.0
 40
10.700008641992589
  0
LINE
  5
A9C
  8
0
 10
19.999999999999531
 20
107.4998432786151
 30
0.0
 11
79.999999999999574
 21
107.4998432786151
 31
0.0
  0
LINE
  5
A9D
  8
0
 10
20.0
 20
112.49968659946521
 30
0.0
 11
80.0
 21
112.49968659946521
 31
0.0
  0
LINE
  5
A9E
  8
0
 10
20.0
 20
119.8998432861148
 30
0.0
 11
80.0
 21
119.8998432861148
 31
0.0
  0
LINE
  5
A9F
  8
0
 10
20.0
 20
141.0998346382593
 30
0.0
 11
41.04734676199282
 21
141.0998346382593
 31
0.0
  0
LINE
  5
AA0
  8
1
 10
65.199999999997061
 20
131.39983463825931
 30
0.0
 11
34.800000000002903
 21
131.39983463825931
 31
0.0
  0
LINE
  5
AA3
  8
0
 10
20.0
 20
99.999843320852861
 30
0.0
 11
80.0
 21
99.999843320852861
 31
0.0
  0
LINE
  5
AA4
  8
0
 10
20.0
 20
141.0998346382593
 30
0.0
 11
20.0
 21
99.999843320852861
 31
0.0
  0
LINE
  5
AA5
  8
0
 10
80.0
 20
141.0998346382593
 30
0.0
 11
80.0
 21
99.999843320852861
 31
0.0
  0
LINE
  5
AD5
  8
0
 10
199.2997769603522
 20
141.09984332085281
 30
0.0
 11
139.2997769603524
 21
141.09984332085281
 31
0.0
  0
ARC
  5
AD9
  8
0
 10
169.29977696034959
 20
131.39992709208821
 30
0.0
 40
10.699916188160939
 50
65.031680694084798
 51
114.9683193059155
  0
LINE
  5
ADA
  8
1
 10
184.49977696034941
 20
131.39983463825931
 30
0.0
 11
154.09977696035509
 21
131.39983463825931
 31
0.0
  0
LINE
  5
ADB
  8
1
 10
169.2997769603522
 20
146.59983463825631
 30
0.0
 11
169.2997769603522
 21
116.1998346382622
 31
0.0
  0
LINE
  5
AE6
  8
0
 10
106.5893055164872
 20
136.39979758735029
 30
0.0
 11
108.0445412384185
 21
136.4251988213615
 31
0.0
  0
LINE
  5
AE7
  8
0
 10
106.5893055164811
 20
126.3998889702564
 30
0.0
 11
108.04454123841241
 21
126.3744877362434
 31
0.0
  0
ARC
  5
AEA
  8
0
 10
106.5945412384182
 20
136.09984327880321
 30
0.0
 40
0.3
 50
90.999999999954042
 51
179.9999999999674
1001
GENIUS_GENODEF_13
1002
{
1000
HIER
1070
     0
1002
}
1002
{
1000
MANEDIT
1070
     0
1002
}
1002
{
1000
NOSEL
1070
     0
1002
}
1002
{
1000
BEHIND
1070
     0
1002
}
1002
{
1000
REACTOR
1002
}
1001
GENIUS_GENOBJ-N-FIL_13
1002
{
1000
OWNER
1000
GEN
1002
}
  0
ARC
  5
AEB
  8
0
 10
106.59454123841221
 20
126.6998432788033
 30
0.0
 40
0.3
 50
179.99999999996101
 51
268.99999999997448
1001
GENIUS_GENODEF_13
1002
{
1000
HIER
1070
     0
1002
}
1002
{
1000
MANEDIT
1070
     0
1002
}
1002
{
1000
NOSEL
1070
     0
1002
}
1002
{
1000
BEHIND
1070
     0
1002
}
1002
{
1000
REACTOR
1002
}
1001
GENIUS_GENOBJ-N-FIL_13
1002
{
1000
OWNER
1000
GEN
1002
}
  0
LINE
  5
AEE
  8
0
 10
110.98208422171849
 20
176.05748077360789
 30
0.0
 11
109.5728342217141
 21
176.05748077360781
 31
0.0
  0
LINE
  5
AEF
  8
0
 10
109.5728342217141
 20
171.05748077360781
 30
0.0
 11
110.98208422171849
 21
171.05748077360781
 31
0.0
  0
LINE
  5
AF0
  8
0
 10
109.5728342217141
 20
176.05748077360781
 30
0.0
 11
109.0820842217143
 21
175.56673077360779
 31
0.0
  0
LINE
  5
AF1
  8
0
 10
109.0820842217143
 20
171.54823077360771
 30
0.0
 11
109.5728342217141
 21
171.05748077360781
 31
0.0
  0
LINE
  5
AF2
  8
0
 10
109.5728342217141
 20
176.05748077360781
 30
0.0
 11
109.5728342217141
 21
171.05748077360781
 31
0.0
  0
LINE
  5
AF3
  8
0
 10
109.0820842217143
 20
175.56673077360779
 30
0.0
 11
109.0820842217143
 21
171.54823077360771
 31
0.0
  0
LINE
  5
AF4
  8
3
 10
110.98208422171849
 20
175.6244807736077
 30
0.0
 11
109.1398342217141
 21
175.6244807736077
 31
0.0
  0
LINE
  5
AF5
  8
3
 10
110.98208422171849
 20
171.4904807736076
 30
0.0
 11
109.13983422171439
 21
171.4904807736076
 31
0.0
  0
LINE
  5
AF6
  8
0
 10
110.98208422171849
 20
218.05748077064561
 30
0.0
 11
109.5728342217142
 21
218.05748077064561
 31
0.0
  0
LINE
  5
AF7
  8
0
 10
109.5728342217141
 20
213.05748077064561
 30
0.0
 11
110.98208422171849
 21
213.05748077064561
 31
0.0
  0
LINE
  5
AF8
  8
0
 10
109.5728342217141
 20
218.05748077064561
 30
0.0
 11
109.0820842217143
 21
217.56673077064559
 31
0.0
  0
LINE
  5
AF9
  8
0
 10
109.0820842217143
 20
213.54823077064569
 30
0.0
 11
109.5728342217141
 21
213.05748077064561
 31
0.0
  0
LINE
  5
AFA
  8
0
 10
109.5728342217141
 20
218.05748077064561
 30
0.0
 11
109.5728342217141
 21
213.05748077064561
 31
0.0
  0
LINE
  5
AFB
  8
0
 10
109.0820842217143
 20
217.56673077064559
 30
0.0
 11
109.0820842217143
 21
213.54823077064569
 31
0.0
  0
LINE
  5
AFC
  8
3
 10
110.98208422171849
 20
217.6244807706455
 30
0.0
 11
109.1398342217142
 21
217.6244807706455
 31
0.0
  0
LINE
  5
AFD
  8
3
 10
110.98208422171849
 20
213.49048077064549
 30
0.0
 11
109.13983422171439
 21
213.4904807706456
 31
0.0
  0
LINE
  5
AFE
  8
1
 10
110.2945412384167
 20
146.59984327879209
 30
0.0
 11
110.2945412384166
 21
116.1998432787979
 31
0.0
  0
LINE
  5
B01
  8
0
 10
119.29977696035201
 20
20.000000000000011
 30
0.0
 11
99.999792301813358
 21
19.999999999999979
 31
0.0
  0
LINE
  5
B02
  8
0
 10
119.29977696035201
 20
79.999999999999986
 30
0.0
 11
99.999792301813358
 21
79.999999999999986
 31
0.0
  0
LINE
  5
B03
  8
0
 10
107.4997769609781
 20
79.999999999999986
 30
0.0
 11
107.4997769609781
 21
20.000000000000011
 31
0.0
  0
LINE
  5
B04
  8
0
 10
112.4997769608416
 20
79.999999999999986
 30
0.0
 11
112.4997769608416
 21
20.000000000000011
 31
0.0
  0
LINE
  5
B05
  8
0
 10
99.999792301813358
 20
79.999999999999986
 30
0.0
 11
99.999792301813358
 21
19.999999999999979
 31
0.0
  0
LINE
  5
B06
  8
0
 10
119.29977696035201
 20
79.999999999999986
 30
0.0
 11
119.29977696035201
 21
20.000000000000011
 31
0.0
  0
ARC
  5
B20
  8
0
 10
113.2997769608417
 20
100.7998432787672
 30
0.0
 40
0.8
 50
180.00000000072581
 51
270.0
  0
ARC
  5
B24
  8
0
 10
106.6997769609781
 20
100.7998432787236
 30
0.0
 40
0.8
 50
270.0
 51
0.0000000007538169
  0
ARC
  5
D75
  8
0
 10
115.0953545568369
 20
130.39753828761559
 30
0.0
 40
4.1132709761199324
 50
150.94344107233249
 51
209.0565589276882
  0
ARC
  5
10B2
  8
0
 10
101.38148042615521
 20
118.404730107711
 30
0.0
 40
1.499788723208497
 50
44.996852867112239
 51
85.474656092699874
  0
ARC
  5
10B3
  8
0
 10
101.4998399272388
 20
118.39978031813339
 30
0.0
 40
1.5000629682082001
 50
90.000996224519895
 51
179.99759492161999
  0
ARC
  5
1141
  8
0
 10
169.2997769603522
 20
131.48348858036189
 30
0.0
 40
13.116346057894461
 50
47.151802303589911
 51
132.84819769641001
  0
ARC
  5
1158
  8
0
 10
115.3997769603523
 20
125.5498432787949
 30
0.0
 40
0.3000000000000114
 50
90.0
 51
180.0
  0
LINE
  5
1159
  8
0
 10
116.68214426242611
 20
137.89984327879739
 30
0.0
 11
115.6997769603686
 21
137.899843278795
 31
0.0
  0
ARC
  5
115A
  8
0
 10
115.7997769603523
 20
140.79984327879501
 30
0.0
 40
0.3000000000000114
 50
90.0
 51
180.0
  0
LINE
  5
115B
  8
0
 10
115.0997769603523
 20
119.899843278795
 30
0.0
 11
115.0997769603523
 21
125.5498432787949
 31
0.0
  0
LINE
  5
115D
  8
0
 10
115.49977696035241
 20
138.0998432787523
 30
0.0
 11
115.49977696035231
 21
140.79984327879501
 31
0.0
  0
ARC
  5
115E
  8
0
 10
115.6997769603686
 20
138.0998432787523
 30
0.0
 40
0.1999999999999886
 50
180.000000000342
 51
270.0000000026381
  0
ARC
  5
115F
  8
0
 10
116.68214426242611
 20
138.1998432787974
 30
0.0
 40
0.3000000000000126
 50
270.0
 51
290.00000000001029
  0
LINE
  5
1160
  8
0
 10
117.19717091733671
 20
138.06804431929589
 30
0.0
 11
116.7847503054238
 21
137.9179354925617
 31
0.0
  0
ARC
  5
1161
  8
0
 10
117.2997769603345
 20
137.78613653306019
 30
0.0
 40
0.3000000000000114
 50
0.0000000013141543
 51
110.0
  0
ARC
  5
1162
  8
0
 10
117.29977696037049
 20
136.2135500245177
 30
0.0
 40
0.299999999999989
 50
249.99999999952519
 51
0.0000000013141543
  0
LINE
  5
1163
  8
0
 10
116.7681809890347
 20
136.08778180300101
 30
0.0
 11
117.1971709173705
 21
135.93164223828279
 31
0.0
  0
ARC
  5
1164
  8
0
 10
116.699776960368
 20
135.8998432788444
 30
0.0
 40
0.1999999999999886
 50
69.999999999525244
 51
180.0
  0
ARC
  5
1165
  8
0
 10
116.199776960368
 20
125.84984327879739
 30
0.0
 40
0.2999999999999991
 50
203.57817847822531
 51
0.0
  0
ARC
  5
1166
  8
0
 10
115.7415193908725
 20
125.64984327879721
 30
0.0
 40
0.1999999999999886
 50
23.578178478212941
 51
89.999999999967429
  0
LINE
  5
1167
  8
0
 10
115.3997769603377
 20
125.84984327879759
 30
0.0
 11
115.7415193908725
 21
125.8498432787972
 31
0.0
  0
LINE
  5
1168
  8
0
 10
117.59977696037041
 20
136.2135500245177
 30
0.0
 11
117.59977696033449
 21
137.78613653306019
 31
0.0
  0
LINE
  5
116F
  8
0
 10
116.49977696035501
 20
137.89984327879671
 30
0.0
 11
116.49977696035501
 21
125.84984327879739
 31
0.0
1001
GENIUS_GENODEF_13
1002
{
1000
HIER
1070
     0
1002
}
1002
{
1000
MANEDIT
1070
     0
1002
}
1002
{
1000
NOSEL
1070
     0
1002
}
1002
{
1000
BEHIND
1070
     0
1002
}
1002
{
1000
REACTOR
1002
}
1001
GENIUS_GENOBJ-N-REC_13
1002
{
1000
OWNER
1000
GEN
1002
}
  0
LINE
  5
132B
  8
1
 10
109.9997769603475
 20
116.7014061604509
 30
0.0
 11
109.9997769603475
 21
94.999843278767216
 31
0.0
  0
LINE
  5
134F
  8
0
 10
112.5445412384197
 20
126.3744963767715
 30
0.0
 11
113.9997769603508
 21
126.3998976107827
 31
0.0
  0
LINE
  5
136A
  8
0
 10
115.49977696035231
 20
164.55749138860921
 30
0.0
 11
115.49977696035231
 21
224.55749138860961
 31
0.0
  0
ARC
  5
13F4
  8
0
 10
50.0
 20
131.39983463825931
 30
0.0
 40
13.199999999999999
 50
299.40027370094288
 51
240.5997262990571
  0
LINE
  5
1409
  8
1
 10
109.9997769603475
 20
84.999999999999986
 30
0.0
 11
109.9997769603475
 21
15.0
 31
0.0
  0
LINE
  5
140A
  8
1
 10
114.14977696034749
 20
69.999999999999986
 30
0.0
 11
105.8497769603475
 21
69.999999999999986
 31
0.0
  0
LINE
  5
140B
  8
1
 10
114.14977696034749
 20
30.0
 30
0.0
 11
105.8497769603475
 21
29.999999999999989
 31
0.0
  0
CIRCLE
  5
140E
  8
0
 10
109.9997769603475
 20
69.999999999999986
 30
0.0
 40
2.149999999999999
  0
CIRCLE
  5
140F
  8
0
 10
109.9997769603475
 20
30.0
 30
0.0
 40
2.149999999999999
  0
LINE
  5
1426
  8
0
 10
117.2997769605314
 20
105.97643274171971
 30
0.0
 11
117.29977696041141
 21
115.3003075856512
 31
0.0
  0
ARC
  5
1427
  8
0
 10
116.46977696041159
 20
115.3003075856405
 30
0.0
 40
0.8299999999997851
 50
0.0000000007327998
 51
145.01486422666889
  0
ARC
  5
1428
  8
0
 10
109.8907913800293
 20
119.9044197403913
 30
0.0
 40
7.2000000000253177
 50
304.85350552992639
 51
325.0148642255877
  0
ARC
  5
1429
  8
0
 10
114.47977696046441
 20
113.31487413061269
 30
0.0
 40
0.8300000000241816
 50
124.8535055342211
 51
180.000000003922
  0
LINE
  5
142A
  8
0
 10
113.64977696044021
 20
113.31487413055579
 30
0.0
 11
113.64977696049741
 21
108.86527617202471
 31
0.0
  0
ARC
  5
142B
  8
0
 10
116.64977696049471
 20
108.8652761720563
 30
0.0
 40
2.999999999997299
 50
180.00000000060271
 51
225.00000000060291
  0
LINE
  5
142C
  8
0
 10
114.5284566169593
 20
106.7439558284762
 30
0.0
 11
115.88287833215421
 21
105.3895341133167
 31
0.0
  0
ARC
  5
142D
  8
0
 10
116.46977696053141
 20
105.9764327417091
 30
0.0
 40
0.8299999999999638
 50
225.00000000074149
 51
0.0000000007337667
  0
TEXT
  5
14C9
  8
0
 62
     3
 10
0.0
 20
0.0
 30
0.0
 40
10.0
  1
L5-C-SRU
  7
STANDARD1
  0
ENDSEC
  0
EOF
