  0
SECTION
  2
HEADER
  9
$ACADVER
  1
AC1009
  9
$INSBASE
 10
0.0
 20
0.0
 30
0.0
  9
$EXTMIN
 10
0.0
 20
-2.960436562073669
 30
0.0
  9
$EXTMAX
 10
249.4154757592562
 20
121.6228977923483
 30
0.0
  9
$LIMMIN
 10
0.0
 20
0.0
  9
$LIMMAX
 10
375.0
 20
270.0
  9
$ORTHOMODE
 70
     1
  9
$REGENMODE
 70
     1
  9
$FILLMODE
 70
     1
  9
$QTEXTMODE
 70
     0
  9
$MIRRTEXT
 70
     0
  9
$DRAGMODE
 70
     2
  9
$LTSCALE
 40
6.0
  9
$OSMODE
 70
    37
  9
$ATTMODE
 70
     1
  9
$TEXTSIZE
 40
0.2
  9
$TRACEWID
 40
0.05
  9
$TEXTSTYLE
  7
STANDARD
  9
$CLAYER
  8
0
  9
$CELTYPE
  6
BYLAYER
  9
$CECOLOR
 62
   256
  9
$DIMSCALE
 40
1.0
  9
$DIMASZ
 40
3.0
  9
$DIMEXO
 40
1.0
  9
$DIMDLI
 40
6.0
  9
$DIMRND
 40
0.0
  9
$DIMDLE
 40
0.0
  9
$DIMEXE
 40
1.0
  9
$DIMTP
 40
495.0
  9
$DIMTM
 40
0.0
  9
$DIMTXT
 40
3.0
  9
$DIMCEN
 40
0.0
  9
$DIMTSZ
 40
0.0
  9
$DIMTOL
 70
     0
  9
$DIMLIM
 70
     0
  9
$DIMTIH
 70
     0
  9
$DIMTOH
 70
     0
  9
$DIMSE1
 70
     0
  9
$DIMSE2
 70
     0
  9
$DIMTAD
 70
     1
  9
$DIMZIN
 70
     0
  9
$DIMBLK
  1

  9
$DIMASO
 70
     0
  9
$DIMSHO
 70
     0
  9
$DIMPOST
  1

  9
$DIMAPOST
  1

  9
$DIMALT
 70
     0
  9
$DIMALTD
 70
     2
  9
$DIMALTF
 40
25.399999999999999
  9
$DIMLFAC
 40
1.0
  9
$DIMTOFL
 70
     1
  9
$DIMTVP
 40
0.0
  9
$DIMTIX
 70
     1
  9
$DIMSOXD
 70
     0
  9
$DIMSAH
 70
     0
  9
$DIMBLK1
  1

  9
$DIMBLK2
  1

  9
$DIMSTYLE
  2
STANDARD
  9
$DIMCLRD
 70
     0
  9
$DIMCLRE
 70
     0
  9
$DIMCLRT
 70
     4
  9
$DIMTFAC
 40
1.0
  9
$DIMGAP
 40
1.0
  9
$LUNITS
 70
     2
  9
$LUPREC
 70
     4
  9
$SKETCHINC
 40
0.1
  9
$FILLETRAD
 40
2.0
  9
$AUNITS
 70
     0
  9
$AUPREC
 70
     0
  9
$MENU
  1
C:\R13\WIN\SUPPORT\ACAD-I
  9
$ELEVATION
 40
0.0
  9
$PELEVATION
 40
0.0
  9
$THICKNESS
 40
0.0
  9
$LIMCHECK
 70
     0
  9
$BLIPMODE
 70
     0
  9
$CHAMFERA
 40
0.0
  9
$CHAMFERB
 40
0.0
  9
$SKPOLY
 70
     0
  9
$TDCREATE
 40
2450834.7095229169
  9
$TDUPDATE
 40
2458753.395421864
  9
$TDINDWG
 40
0.1894120949
  9
$TDUSRTIMER
 40
0.1894120949
  9
$USRTIMER
 70
     1
  9
$ANGBASE
 50
0.0
  9
$ANGDIR
 70
     0
  9
$PDMODE
 70
     0
  9
$PDSIZE
 40
0.0
  9
$PLINEWID
 40
0.0
  9
$COORDS
 70
     1
  9
$SPLFRAME
 70
     0
  9
$SPLINETYPE
 70
     6
  9
$SPLINESEGS
 70
     8
  9
$ATTDIA
 70
     0
  9
$ATTREQ
 70
     1
  9
$HANDLING
 70
     1
  9
$HANDSEED
  5
135F
  9
$SURFTAB1
 70
     6
  9
$SURFTAB2
 70
     6
  9
$SURFTYPE
 70
     6
  9
$SURFU
 70
     6
  9
$SURFV
 70
     6
  9
$UCSNAME
  2

  9
$UCSORG
 10
0.0
 20
0.0
 30
0.0
  9
$UCSXDIR
 10
1.0
 20
0.0
 30
0.0
  9
$UCSYDIR
 10
0.0
 20
1.0
 30
0.0
  9
$PUCSNAME
  2

  9
$PUCSORG
 10
0.0
 20
0.0
 30
0.0
  9
$PUCSXDIR
 10
1.0
 20
0.0
 30
0.0
  9
$PUCSYDIR
 10
0.0
 20
1.0
 30
0.0
  9
$USERI1
 70
     4
  9
$USERI2
 70
     1
  9
$USERI3
 70
     1
  9
$USERI4
 70
     0
  9
$USERI5
 70
     0
  9
$USERR1
 40
1.0
  9
$USERR2
 40
3.0
  9
$USERR3
 40
3.0
  9
$USERR4
 40
3.0
  9
$USERR5
 40
10.0
  9
$WORLDVIEW
 70
     1
  9
$SHADEDGE
 70
     3
  9
$SHADEDIF
 70
    70
  9
$TILEMODE
 70
     1
  9
$MAXACTVP
 70
    16
  9
$PLIMCHECK
 70
     0
  9
$PEXTMIN
 10
1.0000000000000000E+020
 20
1.0000000000000000E+020
 30
1.0000000000000000E+020
  9
$PEXTMAX
 10
-1.0000000000000000E+020
 20
-1.0000000000000000E+020
 30
-1.0000000000000000E+020
  9
$PLIMMIN
 10
0.0
 20
0.0
  9
$PLIMMAX
 10
12.0
 20
9.0
  9
$UNITMODE
 70
     0
  9
$VISRETAIN
 70
     0
  9
$PLINEGEN
 70
     0
  9
$PSLTSCALE
 70
     0
  0
ENDSEC
  0
SECTION
  2
TABLES
  0
TABLE
  2
VPORT
 70
     1
  0
VPORT
  2
*ACTIVE
 70
     0
 10
0.0
 20
0.0
 11
1.0
 21
1.0
 12
362.34662576687123
 22
150.0
 13
0.0
 23
0.0
 14
10.0
 24
10.0
 15
10.0
 25
10.0
 16
0.0
 26
0.0
 36
1.0
 17
0.0
 27
0.0
 37
0.0
 40
300.0
 41
2.415644171779141
 42
50.0
 43
0.0
 44
0.0
 50
0.0
 51
0.0
 71
     0
 72
   100
 73
     1
 74
     0
 75
     0
 76
     0
 77
     0
 78
     0
  0
ENDTAB
  0
TABLE
  2
LTYPE
 70
     3
  0
LTYPE
  2
CONTINUOUS
 70
     0
  3
Solid Line
 72
    65
 73
     0
 40
0.0
  0
LTYPE
  2
CENTER
 70
     0
  3
____ _ ____ _ ____ _ ____ _ ____ _ ____ _ ____
 72
    65
 73
     4
 40
2.0
 49
1.25
 49
-0.25
 49
0.25
 49
-0.25
  0
LTYPE
  2
PHANTOM2
 70
     0
  3
___ _ _ ___ _ _ ___ _ _ ___ _ _
 72
    65
 73
     6
 40
1.25
 49
0.625
 49
-0.125
 49
0.125
 49
-0.125
 49
0.125
 49
-0.125
  0
ENDTAB
  0
TABLE
  2
LAYER
 70
     3
  0
LAYER
  2
0
 70
     0
 62
     7
  6
CONTINUOUS
  0
LAYER
  2
1
 70
     0
 62
     1
  6
CENTER
  0
LAYER
  2
3
 70
     0
 62
     3
  6
CONTINUOUS
  0
ENDTAB
  0
TABLE
  2
STYLE
 70
     2
  0
STYLE
  2
STANDARD
 70
     0
 40
0.0
 41
1.0
 50
0.0
 71
     0
 42
0.2
  3
SIMPLEX
  4
BIGFONT
  0
STYLE
  2
STANDARD1
 70
     0
 40
0.0
 41
1.0
 50
0.0
 71
     0
 42
3.0
  3
txt
  4

  0
ENDTAB
  0
TABLE
  2
VIEW
 70
     0
  0
ENDTAB
  0
TABLE
  2
UCS
 70
     0
  0
ENDTAB
  0
TABLE
  2
APPID
 70
    30
  0
APPID
  2
ACAD
 70
     0
  0
APPID
  2
GENIUS_GENOREF_13
 70
     0
  0
APPID
  2
GENIUS_GENOENT_13
 70
     0
  0
APPID
  2
GENIUS_GENBH_13
 70
     0
  0
APPID
  2
GENIUS_GENOBJ_13
 70
     0
  0
APPID
  2
GENIUS_GENODEF_13
 70
     0
  0
APPID
  2
GENIUS_GENOLIS_13
 70
     0
  0
APPID
  2
GENIUS_GENOBJ-NBEHI-BHF_13
 70
     0
  0
APPID
  2
GENIUS_GENOBJ-NBEHI-BHB_13
 70
     0
  0
APPID
  2
GENIUS_GENOBJ-F-PART_13
 70
     0
  0
APPID
  2
GENIUS_GEFSTDP_13
 70
     0
  0
APPID
  2
GENIUS_GENOBJ-N-RSSYM_13
 70
     0
  0
APPID
  2
GENIUS_GENSYMENT_13
 70
     0
  0
APPID
  2
GENIUS_GENOBJ-N-TIT_13
 70
     0
  0
APPID
  2
GENIUS_GENTITLE_13
 70
     0
  0
APPID
  2
GENIUS_GENZVEED_13
 70
     0
  0
APPID
  2
GENIUS_GENOBJ-N-LEADER_13
 70
     0
  0
APPID
  2
GENIUS_GENOBJ-N-FIL_13
 70
     0
  0
APPID
  2
GENIUS_GENOBJ-N-SEC_13
 70
     0
  0
APPID
  2
GENIUS_GENOBJ-N-CRS_13
 70
     0
  0
APPID
  2
GENIUS_GENOBJ-N-ZOO_13
 70
     0
  0
APPID
  2
GENIUS_GENZOO_13
 70
     0
  0
APPID
  2
GENIUS_GENOBJ-F-TOL_13
 70
     0
  0
APPID
  2
GENIUS_GENFIL_13
 70
     0
  0
APPID
  2
GENIUS_GENOBJ-N-CHA_13
 70
     0
  0
APPID
  2
GENIUS_GENOBJ-N-HTC_13
 70
     0
  0
APPID
  2
GENIUS_GENHATCH_13
 70
     0
  0
APPID
  2
ACAD_MLEADERVER
 70
     0
  0
APPID
  2
ACAD_NAV_VCDISPLAY
 70
     0
  0
APPID
  2
ACAD_EXEMPT_FROM_CAD_STANDARDS
 70
     0
  0
ENDTAB
  0
TABLE
  2
DIMSTYLE
 70
     1
  0
DIMSTYLE
  2
STANDARD
 70
     0
  3

  4

  5

  6

  7

 40
1.0
 41
0.18
 42
0.0625
 43
0.38
 44
0.18
 45
0.0
 46
0.0
 47
0.0
 48
0.0
140
0.18
141
0.09
142
0.0
143
25.399999999999999
144
1.0
145
0.0
146
1.0
147
0.09
 71
     0
 72
     0
 73
     1
 74
     1
 75
     0
 76
     0
 77
     0
 78
     0
170
     0
171
     2
172
     0
173
     0
174
     0
175
     0
176
     0
177
     0
178
     0
  0
ENDTAB
  0
ENDSEC
  0
SECTION
  2
BLOCKS
  0
BLOCK
  8
0
  2
$MODEL_SPACE
 70
     0
 10
0.0
 20
0.0
 30
0.0
  3
$MODEL_SPACE
  1

  0
ENDBLK
  5
949
  8
0
  0
BLOCK
 67
     1
  8
0
  2
$PAPER_SPACE
 70
     0
 10
0.0
 20
0.0
 30
0.0
  3
$PAPER_SPACE
  1

  0
ENDBLK
  5
947
 67
     1
  8
0
  0
ENDSEC
  0
SECTION
  2
ENTITIES
  0
LINE
  5
ADA
  8
0
 10
139.6076161539163
 20
114.6228977923479
 30
0.0
 11
139.52891604529569
 21
110.1141715891293
 31
0.0
  0
LINE
  5
ADE
  8
0
 10
136.53896355527431
 20
92.466888637336567
 30
0.0
 11
135.20761615391649
 21
94.555583556000272
 31
0.0
  0
LINE
  5
AE0
  8
0
 10
125.452885764347
 20
95.622897792347928
 30
0.0
 11
125.5576161539164
 21
89.62289779234797
 31
0.0
  0
LINE
  5
AE1
  8
0
 10
136.90761615391639
 20
90.122897792347942
 30
0.0
 11
136.90761615391639
 21
109.1228977923479
 31
0.0
  0
LINE
  5
AE7
  8
0
 10
119.8076161539164
 20
84.622897792347942
 30
0.0
 11
119.88631626253709
 21
89.131623995566585
 31
0.0
  0
ARC
  5
AEB
  8
0
 10
131.707616153917
 20
83.122897792347885
 30
0.0
 40
0.5
 50
270.0
 51
0.0
  0
ARC
  5
AEC
  8
0
 10
127.707616153917
 20
83.122897792347928
 30
0.0
 40
0.5
 50
180.0
 51
270.0
  0
LINE
  5
AED
  8
0
 10
127.7076161539169
 20
82.622897792347942
 30
0.0
 11
131.70761615391689
 21
82.622897792347942
 31
0.0
  0
LINE
  5
AEE
  8
0
 10
139.6076161539163
 20
84.622897792347942
 30
0.0
 11
119.8076161539164
 21
84.622897792347942
 31
0.0
  0
LINE
  5
AEF
  8
0
 10
132.20761615391689
 20
83.122897792347928
 30
0.0
 11
132.20761615391689
 21
84.622897792347942
 31
0.0
  0
LINE
  5
AF0
  8
0
 10
127.2076161539169
 20
84.622897792347942
 30
0.0
 11
127.2076161539169
 21
83.122897792347928
 31
0.0
  0
POLYLINE
  5
AF2
  8
0
 10
125.55761615391729
 20
89.62336585782289
 30
0.0
 66
     1
 70
     8
  0
VERTEX
  8
0
  5
12DD
 10
125.558
 20
89.6234
 30
0.000000
  70
    32
  0
VERTEX
  8
0
  5
12DE
 10
125.558
 20
89.6234
 30
0.000000
  70
    32
  0
VERTEX
  8
0
  5
12DF
 10
125.558
 20
89.6234
 30
0.000000
  70
    32
  0
VERTEX
  8
0
  5
12E0
 10
125.558
 20
89.6233
 30
0.000000
  70
    32
  0
VERTEX
  8
0
  5
12E1
 10
125.558
 20
89.6233
 30
0.000000
  70
    32
  0
VERTEX
  8
0
  5
12E2
 10
125.559
 20
89.6233
 30
0.000000
  70
    32
  0
VERTEX
  8
0
  5
12E3
 10
125.559
 20
89.6233
 30
0.000000
  70
    32
  0
VERTEX
  8
0
  5
12E4
 10
125.559
 20
89.6233
 30
0.000000
  70
    32
  0
VERTEX
  8
0
  5
12E5
 10
125.559
 20
89.6233
 30
0.000000
  70
    32
  0
VERTEX
  8
0
  5
12E6
 10
125.559
 20
89.6233
 30
0.000000
  70
    32
  0
VERTEX
  8
0
  5
12E7
 10
125.560
 20
89.6233
 30
0.000000
  70
    32
  0
VERTEX
  8
0
  5
12E8
 10
125.560
 20
89.6233
 30
0.000000
  70
    32
  0
VERTEX
  8
0
  5
12E9
 10
125.560
 20
89.6233
 30
0.000000
  70
    32
  0
VERTEX
  8
0
  5
12EA
 10
125.560
 20
89.6233
 30
0.000000
  70
    32
  0
VERTEX
  8
0
  5
12EB
 10
125.560
 20
89.6233
 30
0.000000
  70
    32
  0
VERTEX
  8
0
  5
12EC
 10
125.561
 20
89.6233
 30
0.000000
  70
    32
  0
VERTEX
  8
0
  5
12ED
 10
125.561
 20
89.6233
 30
0.000000
  70
    32
  0
VERTEX
  8
0
  5
12EE
 10
125.561
 20
89.6232
 30
0.000000
  70
    32
  0
VERTEX
  8
0
  5
12EF
 10
125.561
 20
89.6232
 30
0.000000
  70
    32
  0
VERTEX
  8
0
  5
12F0
 10
125.561
 20
89.6232
 30
0.000000
  70
    32
  0
VERTEX
  8
0
  5
12F1
 10
125.562
 20
89.6232
 30
0.000000
  70
    32
  0
VERTEX
  8
0
  5
12F2
 10
125.562
 20
89.6232
 30
0.000000
  70
    32
  0
VERTEX
  8
0
  5
12F3
 10
125.562
 20
89.6232
 30
0.000000
  70
    32
  0
VERTEX
  8
0
  5
12F4
 10
125.562
 20
89.6232
 30
0.000000
  70
    32
  0
VERTEX
  8
0
  5
12F5
 10
125.562
 20
89.6232
 30
0.000000
  70
    32
  0
VERTEX
  8
0
  5
12F6
 10
125.563
 20
89.6232
 30
0.000000
  70
    32
  0
VERTEX
  8
0
  5
12F7
 10
125.563
 20
89.6232
 30
0.000000
  70
    32
  0
VERTEX
  8
0
  5
12F8
 10
125.563
 20
89.6232
 30
0.000000
  70
    32
  0
VERTEX
  8
0
  5
12F9
 10
125.563
 20
89.6232
 30
0.000000
  70
    32
  0
VERTEX
  8
0
  5
12FA
 10
125.563
 20
89.6232
 30
0.000000
  70
    32
  0
VERTEX
  8
0
  5
12FB
 10
125.564
 20
89.6232
 30
0.000000
  70
    32
  0
VERTEX
  8
0
  5
12FC
 10
125.564
 20
89.6232
 30
0.000000
  70
    32
  0
VERTEX
  8
0
  5
12FD
 10
125.564
 20
89.6232
 30
0.000000
  70
    32
  0
VERTEX
  8
0
  5
12FE
 10
125.564
 20
89.6232
 30
0.000000
  70
    32
  0
VERTEX
  8
0
  5
12FF
 10
125.564
 20
89.6232
 30
0.000000
  70
    32
  0
VERTEX
  8
0
  5
1300
 10
125.565
 20
89.6231
 30
0.000000
  70
    32
  0
VERTEX
  8
0
  5
1301
 10
125.565
 20
89.6231
 30
0.000000
  70
    32
  0
VERTEX
  8
0
  5
1302
 10
125.565
 20
89.6231
 30
0.000000
  70
    32
  0
VERTEX
  8
0
  5
1303
 10
125.565
 20
89.6231
 30
0.000000
  70
    32
  0
VERTEX
  8
0
  5
1304
 10
125.565
 20
89.6231
 30
0.000000
  70
    32
  0
VERTEX
  8
0
  5
1305
 10
125.566
 20
89.6231
 30
0.000000
  70
    32
  0
VERTEX
  8
0
  5
1306
 10
125.566
 20
89.6231
 30
0.000000
  70
    32
  0
VERTEX
  8
0
  5
1307
 10
125.566
 20
89.6231
 30
0.000000
  70
    32
  0
VERTEX
  8
0
  5
1308
 10
125.566
 20
89.6231
 30
0.000000
  70
    32
  0
VERTEX
  8
0
  5
1309
 10
125.566
 20
89.6231
 30
0.000000
  70
    32
  0
VERTEX
  8
0
  5
130A
 10
125.567
 20
89.6231
 30
0.000000
  70
    32
  0
VERTEX
  8
0
  5
130B
 10
125.567
 20
89.6231
 30
0.000000
  70
    32
  0
VERTEX
  8
0
  5
130C
 10
125.567
 20
89.6231
 30
0.000000
  70
    32
  0
VERTEX
  8
0
  5
130D
 10
125.567
 20
89.6231
 30
0.000000
  70
    32
  0
VERTEX
  8
0
  5
130E
 10
125.567
 20
89.6231
 30
0.000000
  70
    32
  0
VERTEX
  8
0
  5
130F
 10
125.568
 20
89.6231
 30
0.000000
  70
    32
  0
VERTEX
  8
0
  5
1310
 10
125.568
 20
89.6231
 30
0.000000
  70
    32
  0
VERTEX
  8
0
  5
1311
 10
125.568
 20
89.6231
 30
0.000000
  70
    32
  0
VERTEX
  8
0
  5
1312
 10
125.568
 20
89.6231
 30
0.000000
  70
    32
  0
VERTEX
  8
0
  5
1313
 10
125.568
 20
89.6231
 30
0.000000
  70
    32
  0
VERTEX
  8
0
  5
1314
 10
125.569
 20
89.6231
 30
0.000000
  70
    32
  0
VERTEX
  8
0
  5
1315
 10
125.569
 20
89.6230
 30
0.000000
  70
    32
  0
VERTEX
  8
0
  5
1316
 10
125.569
 20
89.6230
 30
0.000000
  70
    32
  0
VERTEX
  8
0
  5
1317
 10
125.569
 20
89.6230
 30
0.000000
  70
    32
  0
VERTEX
  8
0
  5
1318
 10
125.569
 20
89.6230
 30
0.000000
  70
    32
  0
VERTEX
  8
0
  5
1319
 10
125.570
 20
89.6230
 30
0.000000
  70
    32
  0
VERTEX
  8
0
  5
131A
 10
125.570
 20
89.6230
 30
0.000000
  70
    32
  0
VERTEX
  8
0
  5
131B
 10
125.570
 20
89.6230
 30
0.000000
  70
    32
  0
VERTEX
  8
0
  5
131C
 10
125.570
 20
89.6230
 30
0.000000
  70
    32
  0
VERTEX
  8
0
  5
131D
 10
125.570
 20
89.6230
 30
0.000000
  70
    32
  0
VERTEX
  8
0
  5
131E
 10
125.571
 20
89.6230
 30
0.000000
  70
    32
  0
VERTEX
  8
0
  5
131F
 10
125.571
 20
89.6230
 30
0.000000
  70
    32
  0
VERTEX
  8
0
  5
1320
 10
125.571
 20
89.6230
 30
0.000000
  70
    32
  0
VERTEX
  8
0
  5
1321
 10
125.571
 20
89.6230
 30
0.000000
  70
    32
  0
VERTEX
  8
0
  5
1322
 10
125.571
 20
89.6230
 30
0.000000
  70
    32
  0
VERTEX
  8
0
  5
1323
 10
125.572
 20
89.6230
 30
0.000000
  70
    32
  0
VERTEX
  8
0
  5
1324
 10
125.572
 20
89.6230
 30
0.000000
  70
    32
  0
VERTEX
  8
0
  5
1325
 10
125.572
 20
89.6230
 30
0.000000
  70
    32
  0
VERTEX
  8
0
  5
1326
 10
125.572
 20
89.6230
 30
0.000000
  70
    32
  0
VERTEX
  8
0
  5
1327
 10
125.572
 20
89.6230
 30
0.000000
  70
    32
  0
VERTEX
  8
0
  5
1328
 10
125.573
 20
89.6230
 30
0.000000
  70
    32
  0
VERTEX
  8
0
  5
1329
 10
125.573
 20
89.6230
 30
0.000000
  70
    32
  0
VERTEX
  8
0
  5
132A
 10
125.573
 20
89.6230
 30
0.000000
  70
    32
  0
VERTEX
  8
0
  5
132B
 10
125.573
 20
89.6230
 30
0.000000
  70
    32
  0
VERTEX
  8
0
  5
132C
 10
125.573
 20
89.6230
 30
0.000000
  70
    32
  0
VERTEX
  8
0
  5
132D
 10
125.574
 20
89.6230
 30
0.000000
  70
    32
  0
VERTEX
  8
0
  5
132E
 10
125.574
 20
89.6230
 30
0.000000
  70
    32
  0
VERTEX
  8
0
  5
132F
 10
125.574
 20
89.6230
 30
0.000000
  70
    32
  0
VERTEX
  8
0
  5
1330
 10
125.574
 20
89.6230
 30
0.000000
  70
    32
  0
VERTEX
  8
0
  5
1331
 10
125.574
 20
89.6230
 30
0.000000
  70
    32
  0
VERTEX
  8
0
  5
1332
 10
125.575
 20
89.6230
 30
0.000000
  70
    32
  0
VERTEX
  8
0
  5
1333
 10
125.575
 20
89.6229
 30
0.000000
  70
    32
  0
VERTEX
  8
0
  5
1334
 10
125.575
 20
89.6229
 30
0.000000
  70
    32
  0
VERTEX
  8
0
  5
1335
 10
125.575
 20
89.6229
 30
0.000000
  70
    32
  0
VERTEX
  8
0
  5
1336
 10
125.575
 20
89.6229
 30
0.000000
  70
    32
  0
VERTEX
  8
0
  5
1337
 10
125.576
 20
89.6229
 30
0.000000
  70
    32
  0
VERTEX
  8
0
  5
1338
 10
125.576
 20
89.6229
 30
0.000000
  70
    32
  0
VERTEX
  8
0
  5
1339
 10
125.576
 20
89.6229
 30
0.000000
  70
    32
  0
VERTEX
  8
0
  5
133A
 10
125.576
 20
89.6229
 30
0.000000
  70
    32
  0
VERTEX
  8
0
  5
133B
 10
125.576
 20
89.6229
 30
0.000000
  70
    32
  0
VERTEX
  8
0
  5
133C
 10
125.577
 20
89.6229
 30
0.000000
  70
    32
  0
VERTEX
  8
0
  5
133D
 10
125.577
 20
89.6229
 30
0.000000
  70
    32
  0
VERTEX
  8
0
  5
133E
 10
125.577
 20
89.6229
 30
0.000000
  70
    32
  0
VERTEX
  8
0
  5
133F
 10
125.577
 20
89.6229
 30
0.000000
  70
    32
  0
VERTEX
  8
0
  5
1340
 10
125.577
 20
89.6229
 30
0.000000
  70
    32
  0
VERTEX
  8
0
  5
1341
 10
125.578
 20
89.6229
 30
0.000000
  70
    32
  0
VERTEX
  8
0
  5
1342
 10
125.578
 20
89.6229
 30
0.000000
  70
    32
  0
VERTEX
  8
0
  5
1343
 10
125.578
 20
89.6229
 30
0.000000
  70
    32
  0
VERTEX
  8
0
  5
1344
 10
125.578
 20
89.6229
 30
0.000000
  70
    32
  0
VERTEX
  8
0
  5
1345
 10
125.578
 20
89.6229
 30
0.000000
  70
    32
  0
VERTEX
  8
0
  5
1346
 10
125.579
 20
89.6229
 30
0.000000
  70
    32
  0
VERTEX
  8
0
  5
1347
 10
125.579
 20
89.6229
 30
0.000000
  70
    32
  0
VERTEX
  8
0
  5
1348
 10
125.579
 20
89.6229
 30
0.000000
  70
    32
  0
VERTEX
  8
0
  5
1349
 10
125.579
 20
89.6229
 30
0.000000
  70
    32
  0
VERTEX
  8
0
  5
134A
 10
125.579
 20
89.6229
 30
0.000000
  70
    32
  0
VERTEX
  8
0
  5
134B
 10
125.580
 20
89.6229
 30
0.000000
  70
    32
  0
VERTEX
  8
0
  5
134C
 10
125.580
 20
89.6229
 30
0.000000
  70
    32
  0
VERTEX
  8
0
  5
134D
 10
125.580
 20
89.6229
 30
0.000000
  70
    32
  0
VERTEX
  8
0
  5
134E
 10
125.580
 20
89.6229
 30
0.000000
  70
    32
  0
VERTEX
  8
0
  5
134F
 10
125.580
 20
89.6229
 30
0.000000
  70
    32
  0
VERTEX
  8
0
  5
1350
 10
125.581
 20
89.6229
 30
0.000000
  70
    32
  0
VERTEX
  8
0
  5
1351
 10
125.581
 20
89.6229
 30
0.000000
  70
    32
  0
VERTEX
  8
0
  5
1352
 10
125.581
 20
89.6229
 30
0.000000
  70
    32
  0
VERTEX
  8
0
  5
1353
 10
125.581
 20
89.6229
 30
0.000000
  70
    32
  0
VERTEX
  8
0
  5
1354
 10
125.581
 20
89.6229
 30
0.000000
  70
    32
  0
VERTEX
  8
0
  5
1355
 10
125.582
 20
89.6229
 30
0.000000
  70
    32
  0
VERTEX
  8
0
  5
1356
 10
125.582
 20
89.6229
 30
0.000000
  70
    32
  0
VERTEX
  8
0
  5
1357
 10
125.582
 20
89.6229
 30
0.000000
  70
    32
  0
VERTEX
  8
0
  5
1358
 10
125.582
 20
89.6229
 30
0.000000
  70
    32
  0
VERTEX
  8
0
  5
1359
 10
125.582
 20
89.6229
 30
0.000000
  70
    32
  0
VERTEX
  8
0
  5
135A
 10
125.583
 20
89.6229
 30
0.000000
  70
    32
  0
VERTEX
  8
0
  5
135B
 10
125.583
 20
89.6229
 30
0.000000
  70
    32
  0
VERTEX
  8
0
  5
135C
 10
125.583
 20
89.6229
 30
0.000000
  70
    32
  0
VERTEX
  8
0
  5
135D
 10
125.583
 20
89.6229
 30
0.000000
  70
    32
  0
SEQEND
  8
0
  5
135E
  0
ARC
  5
AF5
  8
0
 10
120.38624011011539
 20
89.122897792347956
 30
0.0
 40
0.5
 50
90.0
 51
178.99999999999821
  0
LINE
  5
AF6
  8
0
 10
120.3862401101153
 20
89.622897792347942
 30
0.0
 11
122.0076161539164
 21
89.622897792347942
 31
0.0
  0
ARC
  5
AF8
  8
0
 10
122.0076161539165
 20
91.705315001159249
 30
0.0
 40
0.5
 50
327.49999999999511
 51
0.0
  0
LINE
  5
AF9
  8
0
 10
122.42931187682279
 20
91.436665196985871
 30
0.0
 11
121.8070962937052
 21
90.459982370308296
 31
0.0
  0
ARC
  5
AFB
  8
0
 10
122.0076161539164
 20
90.122897792347942
 30
0.0
 40
0.5
 50
270.0
 51
0.0
  0
LINE
  5
AFE
  8
0
 10
125.5576161539164
 20
89.62289779234797
 30
0.0
 11
136.40761615391639
 21
89.622897792347942
 31
0.0
  0
ARC
  5
AFF
  8
0
 10
136.40761615391639
 20
90.122897792347885
 30
0.0
 40
0.5
 50
270.0
 51
0.0
  0
ARC
  5
B00
  8
0
 10
136.7076161539164
 20
92.574388874411852
 30
0.0
 40
0.2
 50
212.513695173998
 51
0.0
  0
LINE
  5
B01
  8
0
 10
133.96234654348569
 20
103.6228977923479
 30
0.0
 11
133.85761615391641
 21
109.6228977923479
 31
0.0
  0
LINE
  5
B02
  8
0
 10
125.452885764347
 20
95.622897792347928
 30
0.0
 11
124.2076161539165
 21
103.6228977923479
 31
0.0
  0
ARC
  5
B04
  8
0
 10
122.7076161539165
 20
106.6714067102839
 30
0.0
 40
0.2
 50
32.513695173998038
 51
180.0
  0
LINE
  5
B05
  8
0
 10
122.8762687525586
 20
106.7789069473593
 30
0.0
 11
124.2076161539165
 21
104.6902120286956
 31
0.0
  0
LINE
  5
B06
  8
0
 10
122.5076161539164
 20
90.122897792347942
 30
0.0
 11
122.5076161539164
 21
109.1228977923479
 31
0.0
  0
LINE
  5
B07
  8
0
 10
124.2076161539165
 20
104.6902120286956
 30
0.0
 11
124.2076161539165
 21
103.6228977923479
 31
0.0
  0
ARC
  5
B09
  8
0
 10
123.0076161539165
 20
109.1228977923479
 30
0.0
 40
0.5
 50
90.0
 51
180.0
  0
LINE
  5
B0A
  8
0
 10
133.85761615391641
 20
109.6228977923479
 30
0.0
 11
123.0076161539165
 21
109.6228977923479
 31
0.0
  0
LINE
  5
B10
  8
0
 10
133.96234654348569
 20
103.6228977923479
 30
0.0
 11
135.20761615391649
 21
95.622897792347928
 31
0.0
  0
LINE
  5
B11
  8
0
 10
139.21188171365819
 20
107.2945086907112
 30
0.0
 11
139.6076161539163
 21
84.622897792347942
 31
0.0
  0
LINE
  5
B14
  8
0
 10
135.20761615391649
 20
94.555583556000272
 30
0.0
 11
135.20761615391649
 21
95.622897792347928
 31
0.0
  0
ARC
  5
B15
  8
0
 10
137.40761615391639
 20
107.54048058353661
 30
0.0
 40
0.5
 50
147.499999999995
 51
180.0
  0
ARC
  5
B18
  8
0
 10
139.02899219771751
 20
110.1228977923479
 30
0.0
 40
0.5
 50
270.0
 51
358.99999999999818
  0
LINE
  5
B19
  8
0
 10
139.02899219771751
 20
109.6228977923479
 30
0.0
 11
137.40761615391639
 21
109.6228977923479
 31
0.0
  0
ARC
  5
B1A
  8
0
 10
137.40761615391639
 20
109.1228977923479
 30
0.0
 40
0.5
 50
90.0
 51
180.0
  0
LINE
  5
B1C
  8
0
 10
136.9859204310099
 20
107.80913038771
 30
0.0
 11
137.60813601412769
 21
108.7858132143877
 31
0.0
  0
LINE
  5
B22
  8
0
 10
132.20761615391689
 20
114.6228977923479
 30
0.0
 11
132.20761615391689
 21
116.1228977923479
 31
0.0
  0
LINE
  5
B23
  8
0
 10
127.2076161539168
 20
116.1228977923479
 30
0.0
 11
127.2076161539168
 21
114.6228977923479
 31
0.0
  0
LINE
  5
B24
  8
0
 10
131.70761615391689
 20
116.6228977923479
 30
0.0
 11
127.7076161539168
 21
116.6228977923479
 31
0.0
  0
ARC
  5
B26
  8
0
 10
131.70761615391689
 20
116.1228977923479
 30
0.0
 40
0.5
 50
0.0
 51
90.0
  0
ARC
  5
B27
  8
0
 10
127.7076161539168
 20
116.1228977923479
 30
0.0
 40
0.5000000000000002
 50
90.0
 51
180.0
  0
LINE
  5
B28
  8
0
 10
119.8076161539166
 20
114.6228977923479
 30
0.0
 11
139.6076161539163
 21
114.6228977923479
 31
0.0
  0
LINE
  5
B2C
  8
0
 10
224.61547575925621
 20
84.622897792347601
 30
0.0
 11
224.87730173317951
 21
99.622897792347601
 31
0.0
  0
LINE
  5
B2D
  8
0
 10
244.15364978533299
 20
99.622897792347601
 30
0.0
 11
244.41547575925631
 21
84.622897792347601
 31
0.0
  0
LINE
  5
B30
  8
0
 10
244.41547575925631
 20
84.622897792347601
 30
0.0
 11
241.5154757592496
 21
84.622897792347629
 31
0.0
  0
LINE
  5
B31
  8
0
 10
225.1940997154552
 20
89.622897792347601
 30
0.0
 11
227.51547575925619
 21
89.622897792347601
 31
0.0
  0
ARC
  5
B35
  8
0
 10
225.1940997154552
 20
89.122897792347587
 30
0.0
 40
0.4999999999999995
 50
90.0
 51
178.9999999999998
  0
LINE
  5
B38
  8
0
 10
226.24734959774739
 20
94.672732771138314
 30
0.0
 11
226.07105920288419
 21
89.622897792347601
 31
0.0
  0
LINE
  5
B3B
  8
0
 10
242.95989231562831
 20
89.622897792347601
 30
0.0
 11
242.78360192076519
 21
94.672732771138385
 31
0.0
  0
ARC
  5
B3C
  8
0
 10
243.8368518030573
 20
89.122897792347587
 30
0.0
 40
0.4999999999999995
 50
1.0000000000001461
 51
90.0
  0
LINE
  5
B3E
  8
0
 10
224.6154757592563
 20
114.6228977923476
 30
0.0
 11
244.41547575925631
 21
114.6228977923476
 31
0.0
  0
LINE
  5
B42
  8
0
 10
224.6154757592563
 20
114.6228977923476
 30
0.0
 11
224.88023739078051
 21
99.454714081027362
 31
0.0
  0
LINE
  5
B4B
  8
0
 10
244.15071412773199
 20
99.454714081027362
 30
0.0
 11
244.41547575925631
 21
114.6228977923476
 31
0.0
  0
ARC
  5
B55
  8
0
 10
236.36547575925621
 20
116.1228977923482
 30
0.0
 40
0.5
 50
0.0
 51
90.0
  0
LINE
  5
B56
  8
0
 10
236.86547575925621
 20
114.6228977923483
 30
0.0
 11
236.86547575925621
 21
116.1228977923483
 31
0.0
  0
LINE
  5
B57
  8
0
 10
232.1654757592562
 20
116.1228977923483
 30
0.0
 11
232.1654757592562
 21
114.6228977923483
 31
0.0
  0
LINE
  5
B58
  8
0
 10
236.36547575925621
 20
116.6228977923483
 30
0.0
 11
232.6654757592562
 21
116.6228977923483
 31
0.0
  0
ARC
  5
B59
  8
0
 10
232.6654757592562
 20
116.1228977923483
 30
0.0
 40
0.5000000000000002
 50
90.0
 51
180.0
  0
LINE
  5
B67
  8
0
 10
120.20335059417469
 20
91.951286893984673
 30
0.0
 11
119.8076161539166
 21
114.6228977923479
 31
0.0
  0
LINE
  5
B71
  8
0
 10
119.8076161539164
 20
96.022897792347919
 30
0.0
 11
119.8076161539164
 21
103.22289779234799
 31
0.0
  0
ARC
  5
B72
  8
0
 10
120.2076161539164
 20
96.022897792347933
 30
0.0
 40
0.4
 50
180.0
 51
260.14577943751891
  0
ARC
  5
B73
  8
0
 10
120.2076161539164
 20
103.22289779234799
 30
0.0
 40
0.4
 50
121.1624959773015
 51
180.0
  0
LINE
  5
B86
  8
1
 10
234.51547575925619
 20
121.6228977923483
 30
0.0
 11
234.51547575925619
 21
44.999999999999979
 31
0.0
  0
LINE
  5
B87
  8
1
 10
249.4154757592562
 20
99.62289779234797
 30
0.0
 11
219.6154757592563
 21
99.622897792347942
 31
0.0
  0
ARC
  5
B88
  8
0
 10
234.51547575925619
 20
99.622897792347942
 30
0.0
 40
9.6381740260767401
 50
180.0
 51
223.42467954993131
  0
LINE
  5
B8A
  8
1
 10
129.7076161539168
 20
121.6228977923483
 30
0.0
 11
129.70761615391689
 21
77.622897792347601
 31
0.0
  0
LINE
  5
B90
  8
0
 10
69.538174026076717
 20
99.622897792348283
 30
0.0
 11
69.800000000000011
 21
114.6228977923483
 31
0.0
  0
LINE
  5
B91
  8
0
 10
49.999999999999943
 20
114.6228977923483
 30
0.0
 11
50.261825973923287
 21
99.622897792348283
 31
0.0
  0
LINE
  5
B92
  8
1
 10
59.899999999999871
 20
45.0
 30
0.0
 11
59.899999999999977
 21
121.6228977923483
 31
0.0
  0
LINE
  5
B93
  8
0
 10
69.800000000000011
 20
114.6228977923483
 30
0.0
 11
50.0
 21
114.6228977923483
 31
0.0
  0
ARC
  5
B94
  8
0
 10
58.049999999999947
 20
116.1228977923483
 30
0.0
 40
0.5000000000000002
 50
90.0
 51
180.0
  0
LINE
  5
B9A
  8
0
 10
57.549999999999947
 20
116.1228977923483
 30
0.0
 11
57.549999999999947
 21
114.6228977923483
 31
0.0
  0
LINE
  5
B9B
  8
0
 10
62.249999999999993
 20
114.6228977923483
 30
0.0
 11
62.249999999999993
 21
116.1228977923483
 31
0.0
  0
LINE
  5
B9C
  8
0
 10
61.749999999999993
 20
116.6228977923483
 30
0.0
 11
58.049999999999947
 21
116.6228977923483
 31
0.0
  0
ARC
  5
B9D
  8
0
 10
61.749999999999993
 20
116.1228977923482
 30
0.0
 40
0.5
 50
0.0
 51
90.0
  0
LINE
  5
B9E
  8
0
 10
50.0
 20
84.622897792348269
 30
0.0
 11
50.264761631524209
 21
99.791081503668536
 31
0.0
  0
LINE
  5
BA0
  8
0
 10
50.0
 20
84.622897792348311
 30
0.0
 11
69.800000000000011
 21
84.622897792348269
 31
0.0
  0
ARC
  5
BA1
  8
0
 10
50.578623956198889
 20
110.1228977923483
 30
0.0
 40
0.4999999999999995
 50
181.00000000000011
 51
270.0
  0
LINE
  5
BA2
  8
0
 10
69.535238368475746
 20
99.791081503668536
 30
0.0
 11
69.800000000000011
 21
84.622897792348269
 31
0.0
  0
ARC
  5
BA3
  8
0
 10
59.899999999999977
 20
99.622897792347942
 30
0.0
 40
9.6381740260767401
 50
0.0
 51
180.0
  0
LINE
  5
BA4
  8
0
 10
50.578623956198889
 20
109.6228977923483
 30
0.0
 11
69.221376043801058
 21
109.6228977923483
 31
0.0
  0
LINE
  5
BA5
  8
0
 10
55.750000000000007
 20
102.0189014094852
 30
0.0
 11
55.750000000000007
 21
97.226894175211328
 31
0.0
  0
LINE
  5
BA6
  8
0
 10
64.050000000000011
 20
97.226894175211328
 30
0.0
 11
64.050000000000011
 21
102.0189014094852
 31
0.0
  0
CIRCLE
  5
BA7
  8
0
 10
59.899999999999977
 20
99.622897792347942
 30
0.0
 40
4.0857134999885139
  0
LINE
  5
BA8
  8
0
 10
58.56666666666667
 20
101.9322988691064
 30
0.0
 11
57.233333333333299
 21
99.622897792347942
 31
0.0
  0
LINE
  5
BA9
  8
0
 10
62.56666666666667
 20
99.622897792347942
 30
0.0
 11
61.233333333333299
 21
101.9322988691064
 31
0.0
  0
LINE
  5
BAA
  8
0
 10
59.899999999999977
 20
104.41490502662209
 30
0.0
 11
55.750000000000007
 21
102.0189014094852
 31
0.0
  0
LINE
  5
BAB
  8
0
 10
51.631873838491117
 20
104.5730628135576
 30
0.0
 11
51.455583443627972
 21
109.6228977923483
 31
0.0
  0
LINE
  5
BAC
  8
0
 10
64.050000000000011
 20
102.0189014094852
 30
0.0
 11
59.899999999999977
 21
104.41490502662209
 31
0.0
  0
LINE
  5
BAD
  8
0
 10
61.233333333333299
 20
101.9322988691064
 30
0.0
 11
58.56666666666667
 21
101.9322988691064
 31
0.0
  0
LINE
  5
BAE
  8
0
 10
55.750000000000007
 20
97.226894175211328
 30
0.0
 11
59.900000000000041
 21
94.830890558074387
 31
0.0
  0
LINE
  5
BAF
  8
0
 10
57.233333333333299
 20
99.622897792347942
 30
0.0
 11
58.56666666666667
 21
97.313496715589451
 31
0.0
  0
LINE
  5
BB0
  8
0
 10
59.899999999999977
 20
94.830890558074387
 30
0.0
 11
64.050000000000011
 21
97.226894175211328
 31
0.0
  0
LINE
  5
BB1
  8
0
 10
58.56666666666667
 20
97.313496715589451
 30
0.0
 11
61.233333333333299
 21
97.313496715589451
 31
0.0
  0
LINE
  5
BB2
  8
0
 10
61.233333333333299
 20
97.313496715589451
 30
0.0
 11
62.56666666666667
 21
99.622897792347942
 31
0.0
  0
LINE
  5
BB3
  8
0
 10
68.344416556372039
 20
109.6228977923483
 30
0.0
 11
68.168126161508894
 21
104.5730628135575
 31
0.0
  0
ARC
  5
BB4
  8
0
 10
69.221376043801058
 20
110.1228977923483
 30
0.0
 40
0.4999999999999995
 50
270.0
 51
358.99999999999977
  0
ARC
  5
BB5
  8
0
 10
58.049999999999898
 20
83.122897792347601
 30
0.0
 40
0.5000000000000002
 50
180.0
 51
270.0
  0
LINE
  5
BBB
  8
0
 10
57.549999999999912
 20
83.122897792347601
 30
0.0
 11
57.549999999999912
 21
84.622897792347601
 31
0.0
  0
LINE
  5
BBC
  8
0
 10
62.24999999999995
 20
84.622897792347601
 30
0.0
 11
62.24999999999995
 21
83.122897792347601
 31
0.0
  0
LINE
  5
BBD
  8
0
 10
61.74999999999995
 20
82.622897792347615
 30
0.0
 11
58.049999999999898
 21
82.622897792347615
 31
0.0
  0
ARC
  5
BBE
  8
0
 10
61.74999999999995
 20
83.122897792347644
 30
0.0
 40
0.5
 50
270.0
 51
0.0
  0
LINE
  5
BC8
  8
1
 10
169.10761615391681
 20
99.622897792348084
 30
0.0
 11
114.8076161539168
 21
99.622897792348013
 31
0.0
  0
LINE
  5
BC9
  8
1
 10
74.799999999999955
 20
99.62289779234797
 30
0.0
 11
45.0
 21
99.622897792347942
 31
0.0
  0
LINE
  5
F95
  8
0
 10
139.42124500956621
 20
95.300093501268165
 30
0.0
 11
139.42741944011721
 21
94.946360611912041
 31
0.0
  0
LINE
  5
F96
  8
0
 10
139.60761615391669
 20
95.622897792347999
 30
0.0
 11
139.42124500956621
 21
95.300093501268165
 31
0.0
  0
LINE
  5
F98
  8
0
 10
139.26563065232961
 20
104.21523405654879
 30
0.0
 11
139.60761615391669
 21
103.622897792348
 31
0.0
  0
LINE
  5
F9A
  8
0
 10
124.2076161539168
 20
103.622897792348
 30
0.0
 11
133.96234654348601
 21
103.622897792348
 31
0.0
  0
LINE
  5
F9B
  8
0
 10
135.2076161539168
 20
95.622897792348013
 30
0.0
 11
125.4528857643474
 21
95.622897792348013
 31
0.0
  0
LINE
  5
F9F
  8
0
 10
241.51547575925181
 20
89.622897792347601
 30
0.0
 11
243.8368518030573
 21
89.622897792347601
 31
0.0
  0
LINE
  5
FA0
  8
0
 10
227.51547575925619
 20
84.622897792347601
 30
0.0
 11
224.6154757592563
 21
84.622897792347601
 31
0.0
  0
ARC
  5
FA1
  8
0
 10
234.51547575925619
 20
99.622897792347942
 30
0.0
 40
9.6381740260767401
 50
316.57532045004319
 51
0.0
  0
TEXT
  5
106C
  8
0
 62
     3
 10
0.0
 20
0.0
 30
0.0
 40
10.0
  1
L5-CAH2020N
  7
STANDARD1
  0
LINE
  5
1102
  8
3
 10
228.91547575933191
 20
57.873287484147752
 30
0.0
 11
228.91547575924099
 21
99.622897792335749
 31
0.0
  0
LINE
  5
1103
  8
3
 10
228.9154757592562
 20
92.622897792347956
 30
0.0
 11
240.11547575925621
 21
92.622897792347956
 31
0.0
  0
LINE
  5
1104
  8
3
 10
240.11547575925141
 20
99.62289779234797
 30
0.0
 11
240.1154757591805
 21
57.873287484147752
 31
0.0
  0
ARC
  5
1105
  8
3
 10
234.51547575925619
 20
58.04489124496736
 30
0.0
 40
5.6026286553616229
 50
181.75519561109121
 51
358.2448043889089
  0
ARC
  5
1106
  8
0
 10
234.51547575925619
 20
58.032299137194478
 30
0.0
 40
5.0025278315879698
 50
181.82152539861261
 51
358.17847460138739
  0
LINE
  5
1107
  8
0
 10
239.51547575925619
 20
67.485904443523481
 30
0.0
 11
239.51547575925619
 21
57.87328748412434
 31
0.0
  0
ARC
  5
1108
  8
0
 10
234.51547575925611
 20
67.326892790503464
 30
0.0
 40
5.0025278315863906
 50
1.8215253980390791
 51
178.17847460196089
  0
LINE
  5
1109
  8
0
 10
229.51547575925619
 20
57.87328748412434
 30
0.0
 11
229.51547575925619
 21
67.485904443523481
 31
0.0
  0
ARC
  5
110D
  8
0
 10
234.5154757592652
 20
57.003421882552253
 30
0.0
 40
7.0034218825522734
 50
181.79115315346411
 51
358.20884684679322
  0
LINE
  5
110F
  8
0
 10
241.51547575925619
 20
99.62289779234797
 30
0.0
 11
241.51547575923729
 21
56.784519928697883
 31
0.0
  0
LINE
  5
1110
  8
0
 10
227.51547575925619
 20
56.784519929873163
 30
0.0
 11
227.51547575925619
 21
99.62289779234797
 31
0.0
  0
ARC
  5
1116
  8
3
 10
234.51547575925619
 20
99.62289779234797
 30
0.0
 40
5.5999999999951759
 50
0.0
 51
180.0
  0
ARC
  5
111A
  8
0
 10
234.51547575925619
 20
99.62289779234797
 30
0.0
 40
7.0
 50
0.0
 51
180.0
  0
CIRCLE
  5
1121
  8
0
 10
234.51547575925619
 20
99.62289779234797
 30
0.0
 40
4.8499999999999943
  0
LINE
  5
1122
  8
0
 10
139.90761615385989
 20
104.6228977923051
 30
0.0
 11
139.60761615391681
 21
104.3228977923051
 31
0.0
  0
LINE
  5
1123
  8
0
 10
139.60761615391681
 20
94.922897792390955
 30
0.0
 11
139.90761615385989
 21
94.622897792391001
 31
0.0
  0
LINE
  5
1124
  8
0
 10
141.60761615385991
 20
104.622897792348
 30
0.0
 11
139.90761615385989
 21
104.622897792348
 31
0.0
  0
LINE
  5
1125
  8
0
 10
139.90761615385989
 20
94.622897792348027
 30
0.0
 11
141.60761615385991
 21
94.622897792348027
 31
0.0
  0
ARC
  5
1126
  8
0
 10
176.13970447087081
 20
58.752964377601849
 30
0.0
 40
10.00000000032413
 50
195.9999999994794
 51
240.42700399652139
  0
LINE
  5
1127
  8
0
 10
161.25761615385991
 20
106.622897792348
 30
0.0
 11
141.60761615385991
 21
106.622897792348
 31
0.0
  0
LINE
  5
1128
  8
0
 10
141.60761615385991
 20
92.622897792348027
 30
0.0
 11
156.0246629893484
 21
92.622897792348027
 31
0.0
  0
LINE
  5
1129
  8
0
 10
163.1076161538727
 20
105.2228977924218
 30
0.0
 11
161.25761615385991
 21
106.6228977924421
 31
0.0
  0
LINE
  5
112A
  8
0
 10
171.20438435825011
 20
50.055688057076942
 30
0.0
 11
173.223033919644
 21
50.634526504258048
 31
0.0
  0
LINE
  5
112B
  8
0
 10
173.2230339197543
 20
50.634526503873403
 30
0.0
 11
174.61547575925621
 21
52.490221986646972
 31
0.0
  0
LINE
  5
112C
  8
0
 10
156.02466298915959
 20
92.622897792575856
 30
0.0
 11
166.5270875108875
 21
55.996590819354118
 31
0.0
  0
LINE
  5
112D
  8
0
 10
166.10761615385991
 20
104.47289779234799
 30
0.0
 11
163.1076161538727
 21
104.47289779234799
 31
0.0
  0
LINE
  5
112E
  8
0
 10
163.1076161538619
 20
94.772897792348004
 30
0.0
 11
166.10761615385991
 21
94.772897792348004
 31
0.0
  0
LINE
  5
1131
  8
0
 10
139.90761615385989
 20
104.622897792348
 30
0.0
 11
139.90761615385989
 21
94.622897792391001
 31
0.0
  0
LINE
  5
1132
  8
0
 10
139.60761615391681
 20
104.3228977923051
 30
0.0
 11
139.60761615391681
 21
94.922897792390955
 31
0.0
  0
LINE
  5
1134
  8
0
 10
141.60761615385991
 20
106.622897792348
 30
0.0
 11
141.60761615385991
 21
92.622897792348027
 31
0.0
  0
ARC
  5
1136
  8
3
 10
146.04159781789639
 20
97.568079303579495
 30
0.0
 40
11.140754480465811
 50
333.64816189638731
 51
10.62857772462897
  0
LINE
  5
1137
  8
3
 10
171.20438435828561
 20
50.055688057087131
 30
0.0
 11
156.9912156820705
 21
99.622897792348027
 31
0.0
  0
LINE
  5
1138
  8
3
 10
161.25761615385991
 20
92.362897248154056
 30
0.0
 11
161.25761615385991
 21
106.6228977924421
 31
0.0
  0
LINE
  5
1139
  8
3
 10
173.223033919644
 20
50.634526504258091
 30
0.0
 11
161.25761615385991
 21
92.362897248154056
 31
0.0
  0
LINE
  5
113B
  8
0
 10
174.61547575919249
 20
52.490221986562062
 30
0.0
 11
163.10761615385991
 21
92.622897792348027
 31
0.0
  0
LINE
  5
113C
  8
0
 10
163.10761615385991
 20
92.622897792348027
 30
0.0
 11
163.10761615387139
 21
105.2228977924227
 31
0.0
  0
LINE
  5
1140
  8
0
 10
166.10761615385991
 20
94.772897792348004
 30
0.0
 11
166.10761615385991
 21
104.47289779234799
 31
0.0
  0
LINE
  5
1147
  8
0
 10
52.900000000006528
 20
84.622897792348311
 30
0.0
 11
52.900000000018771
 21
56.78451992869811
 31
0.0
  0
LINE
  5
1148
  8
0
 10
66.899999999962205
 20
56.784519928666512
 30
0.0
 11
66.899999999974455
 21
84.622897792348269
 31
0.0
  0
ARC
  5
1149
  8
0
 10
59.899999999990968
 20
57.003421882552303
 30
0.0
 40
7.0034218825522938
 50
181.79115315320351
 51
358.20884684653572
  0
POLYLINE
  5
1178
  8
0
 66
     1
 10
0.0
 20
0.0
 30
0.0
  0
VERTEX
  5
1219
  8
0
 10
138.3023802082636
 20
108.93634992100669
 30
0.0
  0
VERTEX
  5
121A
  8
0
 10
138.34874414721551
 20
108.9052758407237
 30
0.0
  0
VERTEX
  5
121B
  8
0
 10
138.3942044385887
 20
108.87293362427791
 30
0.0
  0
VERTEX
  5
121C
  8
0
 10
138.43873533000641
 20
108.8393434359327
 30
0.0
  0
VERTEX
  5
121D
  8
0
 10
138.48231106909151
 20
108.8045254399515
 30
0.0
  0
VERTEX
  5
121E
  8
0
 10
138.52490590346679
 20
108.7684998005977
 30
0.0
  0
VERTEX
  5
121F
  8
0
 10
138.56649408075549
 20
108.73128668213469
 30
0.0
  0
VERTEX
  5
1220
  8
0
 10
138.60704984858029
 20
108.69290624882601
 30
0.0
  0
VERTEX
  5
1221
  8
0
 10
138.6465474545644
 20
108.65337866493491
 30
0.0
  0
VERTEX
  5
1222
  8
0
 10
138.68496114633069
 20
108.6127240947248
 30
0.0
  0
VERTEX
  5
1223
  8
0
 10
138.72223074404249
 20
108.5710022989377
 30
0.0
  0
VERTEX
  5
1224
  8
0
 10
138.75828419266131
 20
108.5282965805205
 30
0.0
  0
VERTEX
  5
1225
  8
0
 10
138.79310325555181
 20
108.4846349471302
 30
0.0
  0
VERTEX
  5
1226
  8
0
 10
138.82667018670571
 20
108.44004487260059
 30
0.0
  0
VERTEX
  5
1227
  8
0
 10
138.8589672401144
 20
108.3945538307656
 30
0.0
  0
VERTEX
  5
1228
  8
0
 10
138.8899766697694
 20
108.34818929545899
 30
0.0
  0
VERTEX
  5
1229
  8
0
 10
138.9196807296623
 20
108.30097874051459
 30
0.0
  0
VERTEX
  5
122A
  8
0
 10
138.94806167378451
 20
108.2529496397662
 30
0.0
  0
VERTEX
  5
122B
  8
0
 10
138.9751017561276
 20
108.20412946704759
 30
0.0
  0
VERTEX
  5
122C
  8
0
 10
139.00078323068311
 20
108.1545456961927
 30
0.0
  0
VERTEX
  5
122D
  8
0
 10
139.02508835144261
 20
108.1042258010352
 30
0.0
  0
VERTEX
  5
122E
  8
0
 10
139.04799937239741
 20
108.053197255409
 30
0.0
  0
VERTEX
  5
122F
  8
0
 10
139.06947428020339
 20
108.0015482072735
 30
0.0
  0
VERTEX
  5
1230
  8
0
 10
139.0894737987843
 20
107.9493801822278
 30
0.0
  0
VERTEX
  5
1231
  8
0
 10
139.10799100605701
 20
107.8967252041126
 30
0.0
  0
VERTEX
  5
1232
  8
0
 10
139.12501902780451
 20
107.8436151860344
 30
0.0
  0
VERTEX
  5
1233
  8
0
 10
139.14055098980981
 20
107.79008204109959
 30
0.0
  0
VERTEX
  5
1234
  8
0
 10
139.15458001785601
 20
107.7361576824148
 30
0.0
  0
VERTEX
  5
1235
  8
0
 10
139.16709923772609
 20
107.68187402308639
 30
0.0
  0
VERTEX
  5
1236
  8
0
 10
139.178101775203
 20
107.6272629762209
 30
0.0
  0
VERTEX
  5
1237
  8
0
 10
139.18758075606991
 20
107.5723564549247
 30
0.0
  0
VERTEX
  5
1238
  8
0
 10
139.19552930610959
 20
107.51718637230439
 30
0.0
  0
VERTEX
  5
1239
  8
0
 10
139.20194055110531
 20
107.46178464146639
 30
0.0
  0
VERTEX
  5
123A
  8
0
 10
139.20680761683991
 20
107.4061831755172
 30
0.0
  0
VERTEX
  5
123B
  8
0
 10
139.2101236290965
 20
107.35041388756341
 30
0.0
  0
VERTEX
  5
123C
  8
0
 10
139.2118817136581
 20
107.2945086907112
 30
0.0
  0
SEQEND
  5
123D
  8
0
  0
POLYLINE
  5
1179
  8
0
 66
     1
 10
0.0
 20
0.0
 30
0.0
  0
VERTEX
  5
123E
  8
0
 10
137.60813601412761
 20
108.7858132143877
 30
0.0
  0
VERTEX
  5
123F
  8
0
 10
137.61549783455089
 20
108.79703376737881
 30
0.0
  0
VERTEX
  5
1240
  8
0
 10
137.62315415813589
 20
108.8080471407484
 30
0.0
  0
VERTEX
  5
1241
  8
0
 10
137.6311004854953
 20
108.8188476574386
 30
0.0
  0
VERTEX
  5
1242
  8
0
 10
137.63933231724221
 20
108.82942964039169
 30
0.0
  0
VERTEX
  5
1243
  8
0
 10
137.64784515398921
 20
108.83978741255009
 30
0.0
  0
VERTEX
  5
1244
  8
0
 10
137.6566344963492
 20
108.849915296856
 30
0.0
  0
VERTEX
  5
1245
  8
0
 10
137.6656958449351
 20
108.8598076162517
 30
0.0
  0
VERTEX
  5
1246
  8
0
 10
137.67502401204101
 20
108.8694580003877
 30
0.0
  0
VERTEX
  5
1247
  8
0
 10
137.68460477118501
 20
108.8788515924698
 30
0.0
  0
VERTEX
  5
1248
  8
0
 10
137.69442964897729
 20
108.88798066510179
 30
0.0
  0
VERTEX
  5
1249
  8
0
 10
137.70449308037271
 20
108.896840581071
 30
0.0
  0
VERTEX
  5
124A
  8
0
 10
137.71478950032579
 20
108.90542670316491
 30
0.0
  0
VERTEX
  5
124B
  8
0
 10
137.7253133437915
 20
108.913734394171
 30
0.0
  0
VERTEX
  5
124C
  8
0
 10
137.7360590457244
 20
108.92175901687671
 30
0.0
  0
VERTEX
  5
124D
  8
0
 10
137.74702104107939
 20
108.92949593406939
 30
0.0
  0
VERTEX
  5
124E
  8
0
 10
137.75818901493099
 20
108.9369374333164
 30
0.0
  0
VERTEX
  5
124F
  8
0
 10
137.7695404693155
 20
108.94406906966439
 30
0.0
  0
VERTEX
  5
1250
  8
0
 10
137.78106738470009
 20
108.9508871146918
 30
0.0
  0
VERTEX
  5
1251
  8
0
 10
137.79276311466501
 20
108.9573887814899
 30
0.0
  0
VERTEX
  5
1252
  8
0
 10
137.80462101279019
 20
108.9635712831499
 30
0.0
  0
VERTEX
  5
1253
  8
0
 10
137.816634432656
 20
108.96943183276311
 30
0.0
  0
VERTEX
  5
1254
  8
0
 10
137.82879672784219
 20
108.9749676434207
 30
0.0
  0
VERTEX
  5
1255
  8
0
 10
137.84110125192919
 20
108.9801759282138
 30
0.0
  0
VERTEX
  5
1256
  8
0
 10
137.8535413584969
 20
108.98505390023379
 30
0.0
  0
VERTEX
  5
1257
  8
0
 10
137.8661104011255
 20
108.9895987725718
 30
0.0
  0
VERTEX
  5
1258
  8
0
 10
137.87880173339511
 20
108.99380775831899
 30
0.0
  0
VERTEX
  5
1259
  8
0
 10
137.8916087088858
 20
108.99767807056671
 30
0.0
  0
VERTEX
  5
125A
  8
0
 10
137.90452468117769
 20
109.0012069224062
 30
0.0
  0
VERTEX
  5
125B
  8
0
 10
137.9175430038508
 20
109.0043915269285
 30
0.0
  0
VERTEX
  5
125C
  8
0
 10
137.9306568609924
 20
109.0072290629159
 30
0.0
  0
VERTEX
  5
125D
  8
0
 10
137.9438391162081
 20
109.0097131686174
 30
0.0
  0
VERTEX
  5
125E
  8
0
 10
137.95706860078459
 20
109.0118405779216
 30
0.0
  0
VERTEX
  5
125F
  8
0
 10
137.9703381078684
 20
109.0136112358911
 30
0.0
  0
VERTEX
  5
1260
  8
0
 10
137.9836404306057
 20
109.0150250875888
 30
0.0
  0
VERTEX
  5
1261
  8
0
 10
137.99696836214281
 20
109.0160820780772
 30
0.0
  0
VERTEX
  5
1262
  8
0
 10
138.01031469562619
 20
109.0167821524193
 30
0.0
  0
VERTEX
  5
1263
  8
0
 10
138.02367222420199
 20
109.0171252556776
 30
0.0
  0
VERTEX
  5
1264
  8
0
 10
138.0370337410167
 20
109.01711133291499
 30
0.0
  0
VERTEX
  5
1265
  8
0
 10
138.05039203921649
 20
109.01674032919431
 30
0.0
  0
VERTEX
  5
1266
  8
0
 10
138.06373991194789
 20
109.01601218957801
 30
0.0
  0
VERTEX
  5
1267
  8
0
 10
138.07707015235701
 20
109.01492685912901
 30
0.0
  0
VERTEX
  5
1268
  8
0
 10
138.09037555359041
 20
109.01348428291
 30
0.0
  0
VERTEX
  5
1269
  8
0
 10
138.10364890879421
 20
109.0116844059837
 30
0.0
  0
VERTEX
  5
126A
  8
0
 10
138.11688301111479
 20
109.00952717341301
 30
0.0
  0
VERTEX
  5
126B
  8
0
 10
138.1300654337123
 20
109.0070135968972
 30
0.0
  0
VERTEX
  5
126C
  8
0
 10
138.14316333084329
 20
109.0041499994051
 30
0.0
  0
VERTEX
  5
126D
  8
0
 10
138.1561664883636
 20
109.0009396904202
 30
0.0
  0
VERTEX
  5
126E
  8
0
 10
138.1690682181393
 20
108.99738535520309
 30
0.0
  0
VERTEX
  5
126F
  8
0
 10
138.1818618320367
 20
108.9934896790144
 30
0.0
  0
VERTEX
  5
1270
  8
0
 10
138.1945406419218
 20
108.98925534711449
 30
0.0
  0
VERTEX
  5
1271
  8
0
 10
138.20709795966101
 20
108.98468504476411
 30
0.0
  0
VERTEX
  5
1272
  8
0
 10
138.2195270971205
 20
108.97978145722359
 30
0.0
  0
VERTEX
  5
1273
  8
0
 10
138.23182136616629
 20
108.9745472697537
 30
0.0
  0
VERTEX
  5
1274
  8
0
 10
138.24397407866479
 20
108.9689851676149
 30
0.0
  0
VERTEX
  5
1275
  8
0
 10
138.25597854648211
 20
108.9630978360677
 30
0.0
  0
VERTEX
  5
1276
  8
0
 10
138.2678280814844
 20
108.9568879603728
 30
0.0
  0
VERTEX
  5
1277
  8
0
 10
138.27951599553799
 20
108.95035822579059
 30
0.0
  0
VERTEX
  5
1278
  8
0
 10
138.29103560050899
 20
108.9435113175817
 30
0.0
  0
VERTEX
  5
1279
  8
0
 10
138.3023802082636
 20
108.93634992100669
 30
0.0
  0
SEQEND
  5
127A
  8
0
  0
POLYLINE
  5
117A
  8
0
 66
     1
 10
0.0
 20
0.0
 30
0.0
  0
VERTEX
  5
127B
  8
0
 10
121.1128520995691
 20
90.309445663689146
 30
0.0
  0
VERTEX
  5
127C
  8
0
 10
121.0664881606173
 20
90.340519743972152
 30
0.0
  0
VERTEX
  5
127D
  8
0
 10
121.02102786924399
 20
90.372861960417964
 30
0.0
  0
VERTEX
  5
127E
  8
0
 10
120.9764969778263
 20
90.406452148763194
 30
0.0
  0
VERTEX
  5
127F
  8
0
 10
120.9329212387413
 20
90.441270144744394
 30
0.0
  0
VERTEX
  5
1280
  8
0
 10
120.89032640436589
 20
90.477295784098175
 30
0.0
  0
VERTEX
  5
1281
  8
0
 10
120.84873822707731
 20
90.514508902561147
 30
0.0
  0
VERTEX
  5
1282
  8
0
 10
120.80818245925239
 20
90.552889335869907
 30
0.0
  0
VERTEX
  5
1283
  8
0
 10
120.7686848532683
 20
90.592416919761035
 30
0.0
  0
VERTEX
  5
1284
  8
0
 10
120.730271161502
 20
90.633071489971144
 30
0.0
  0
VERTEX
  5
1285
  8
0
 10
120.6930015637902
 20
90.67479328575817
 30
0.0
  0
VERTEX
  5
1286
  8
0
 10
120.6569481151714
 20
90.717499004175409
 30
0.0
  0
VERTEX
  5
1287
  8
0
 10
120.6221290522809
 20
90.761160637565695
 30
0.0
  0
VERTEX
  5
1288
  8
0
 10
120.588562121127
 20
90.805750712095261
 30
0.0
  0
VERTEX
  5
1289
  8
0
 10
120.5562650677183
 20
90.851241753930239
 30
0.0
  0
VERTEX
  5
128A
  8
0
 10
120.5252556380633
 20
90.897606289236876
 30
0.0
  0
VERTEX
  5
128B
  8
0
 10
120.49555157817051
 20
90.944816844181304
 30
0.0
  0
VERTEX
  5
128C
  8
0
 10
120.4671706340482
 20
90.992845944929741
 30
0.0
  0
VERTEX
  5
128D
  8
0
 10
120.4401305517051
 20
91.041666117648333
 30
0.0
  0
VERTEX
  5
128E
  8
0
 10
120.4144490771496
 20
91.091249888503256
 30
0.0
  0
VERTEX
  5
128F
  8
0
 10
120.3901439563902
 20
91.141569783660728
 30
0.0
  0
VERTEX
  5
1290
  8
0
 10
120.3672329354353
 20
91.192598329286966
 30
0.0
  0
VERTEX
  5
1291
  8
0
 10
120.3457580276294
 20
91.244247377422496
 30
0.0
  0
VERTEX
  5
1292
  8
0
 10
120.3257585090485
 20
91.296415402468199
 30
0.0
  0
VERTEX
  5
1293
  8
0
 10
120.3072413017757
 20
91.349070380583385
 30
0.0
  0
VERTEX
  5
1294
  8
0
 10
120.2902132800282
 20
91.402180398661599
 30
0.0
  0
VERTEX
  5
1295
  8
0
 10
120.2746813180229
 20
91.455713543596346
 30
0.0
  0
VERTEX
  5
1296
  8
0
 10
120.2606522899767
 20
91.509637902281156
 30
0.0
  0
VERTEX
  5
1297
  8
0
 10
120.2481330701066
 20
91.563921561609561
 30
0.0
  0
VERTEX
  5
1298
  8
0
 10
120.23713053262971
 20
91.618532608475064
 30
0.0
  0
VERTEX
  5
1299
  8
0
 10
120.2276515517628
 20
91.673439129771225
 30
0.0
  0
VERTEX
  5
129A
  8
0
 10
120.2197030017231
 20
91.728609212391518
 30
0.0
  0
VERTEX
  5
129B
  8
0
 10
120.2132917567274
 20
91.784010943229475
 30
0.0
  0
VERTEX
  5
129C
  8
0
 10
120.2084246909928
 20
91.839612409178656
 30
0.0
  0
VERTEX
  5
129D
  8
0
 10
120.2051086787362
 20
91.895381697132535
 30
0.0
  0
VERTEX
  5
129E
  8
0
 10
120.20335059417459
 20
91.951286893984644
 30
0.0
  0
SEQEND
  5
129F
  8
0
  0
POLYLINE
  5
117B
  8
0
 66
     1
 10
0.0
 20
0.0
 30
0.0
  0
VERTEX
  5
12A0
  8
0
 10
121.8070962937051
 20
90.459982370308296
 30
0.0
  0
VERTEX
  5
12A1
  8
0
 10
121.7997344732818
 20
90.448761817317092
 30
0.0
  0
VERTEX
  5
12A2
  8
0
 10
121.79207814969691
 20
90.437748443947498
 30
0.0
  0
VERTEX
  5
12A3
  8
0
 10
121.7841318223374
 20
90.426947927257288
 30
0.0
  0
VERTEX
  5
12A4
  8
0
 10
121.7758999905905
 20
90.416365944304118
 30
0.0
  0
VERTEX
  5
12A5
  8
0
 10
121.7673871538435
 20
90.406008172145718
 30
0.0
  0
VERTEX
  5
12A6
  8
0
 10
121.7585978114835
 20
90.395880287839816
 30
0.0
  0
VERTEX
  5
12A7
  8
0
 10
121.74953646289759
 20
90.385987968444113
 30
0.0
  0
VERTEX
  5
12A8
  8
0
 10
121.7402082957917
 20
90.376337584308118
 30
0.0
  0
VERTEX
  5
12A9
  8
0
 10
121.7306275366477
 20
90.366943992225998
 30
0.0
  0
VERTEX
  5
12AA
  8
0
 10
121.7208026588554
 20
90.357814919594063
 30
0.0
  0
VERTEX
  5
12AB
  8
0
 10
121.71073922746
 20
90.348955003624837
 30
0.0
  0
VERTEX
  5
12AC
  8
0
 10
121.7004428075069
 20
90.340368881530907
 30
0.0
  0
VERTEX
  5
12AD
  8
0
 10
121.6899189640412
 20
90.332061190524826
 30
0.0
  0
VERTEX
  5
12AE
  8
0
 10
121.67917326210831
 20
90.324036567819135
 30
0.0
  0
VERTEX
  5
12AF
  8
0
 10
121.6682112667533
 20
90.316299650626476
 30
0.0
  0
VERTEX
  5
12B0
  8
0
 10
121.6570432929017
 20
90.30885815137944
 30
0.0
  0
VERTEX
  5
12B1
  8
0
 10
121.64569183851719
 20
90.301726515031504
 30
0.0
  0
VERTEX
  5
12B2
  8
0
 10
121.6341649231326
 20
90.29490847000406
 30
0.0
  0
VERTEX
  5
12B3
  8
0
 10
121.6224691931677
 20
90.28840680320593
 30
0.0
  0
VERTEX
  5
12B4
  8
0
 10
121.6106112950424
 20
90.282224301545881
 30
0.0
  0
VERTEX
  5
12B5
  8
0
 10
121.59859787517669
 20
90.276363751932706
 30
0.0
  0
VERTEX
  5
12B6
  8
0
 10
121.58643557999039
 20
90.270827941275144
 30
0.0
  0
VERTEX
  5
12B7
  8
0
 10
121.57413105590351
 20
90.265619656482016
 30
0.0
  0
VERTEX
  5
12B8
  8
0
 10
121.5616909493358
 20
90.260741684462047
 30
0.0
  0
VERTEX
  5
12B9
  8
0
 10
121.5491219067071
 20
90.256196812124074
 30
0.0
  0
VERTEX
  5
12BA
  8
0
 10
121.5364305744376
 20
90.251987826376819
 30
0.0
  0
VERTEX
  5
12BB
  8
0
 10
121.5236235989469
 20
90.248117514129106
 30
0.0
  0
VERTEX
  5
12BC
  8
0
 10
121.51070762665501
 20
90.244588662289686
 30
0.0
  0
VERTEX
  5
12BD
  8
0
 10
121.4976893039818
 20
90.24140405776734
 30
0.0
  0
VERTEX
  5
12BE
  8
0
 10
121.4845754468403
 20
90.238566521780001
 30
0.0
  0
VERTEX
  5
12BF
  8
0
 10
121.4713931916246
 20
90.23608241607846
 30
0.0
  0
VERTEX
  5
12C0
  8
0
 10
121.458163707048
 20
90.233955006774295
 30
0.0
  0
VERTEX
  5
12C1
  8
0
 10
121.4448941999643
 20
90.232184348804765
 30
0.0
  0
VERTEX
  5
12C2
  8
0
 10
121.43159187722701
 20
90.230770497107116
 30
0.0
  0
VERTEX
  5
12C3
  8
0
 10
121.4182639456898
 20
90.229713506618651
 30
0.0
  0
VERTEX
  5
12C4
  8
0
 10
121.4049176122065
 20
90.229013432276616
 30
0.0
  0
VERTEX
  5
12C5
  8
0
 10
121.39156008363069
 20
90.228670329018257
 30
0.0
  0
VERTEX
  5
12C6
  8
0
 10
121.378198566816
 20
90.228684251780834
 30
0.0
  0
VERTEX
  5
12C7
  8
0
 10
121.36484026861611
 20
90.229055255501635
 30
0.0
  0
VERTEX
  5
12C8
  8
0
 10
121.3514923958848
 20
90.229783395117934
 30
0.0
  0
VERTEX
  5
12C9
  8
0
 10
121.3381621554756
 20
90.230868725566921
 30
0.0
  0
VERTEX
  5
12CA
  8
0
 10
121.32485675424221
 20
90.232311301785899
 30
0.0
  0
VERTEX
  5
12CB
  8
0
 10
121.3115833990384
 20
90.234111178712169
 30
0.0
  0
VERTEX
  5
12CC
  8
0
 10
121.2983492967178
 20
90.236268411282936
 30
0.0
  0
VERTEX
  5
12CD
  8
0
 10
121.28516687412031
 20
90.238781987798717
 30
0.0
  0
VERTEX
  5
12CE
  8
0
 10
121.2720689769893
 20
90.241645585290783
 30
0.0
  0
VERTEX
  5
12CF
  8
0
 10
121.259065819469
 20
90.244855894275645
 30
0.0
  0
VERTEX
  5
12D0
  8
0
 10
121.24616408969329
 20
90.248410229492734
 30
0.0
  0
VERTEX
  5
12D1
  8
0
 10
121.23337047579599
 20
90.252305905681467
 30
0.0
  0
VERTEX
  5
12D2
  8
0
 10
121.22069166591081
 20
90.256540237581333
 30
0.0
  0
VERTEX
  5
12D3
  8
0
 10
121.2081343481716
 20
90.261110539931764
 30
0.0
  0
VERTEX
  5
12D4
  8
0
 10
121.19570521071221
 20
90.266014127472246
 30
0.0
  0
VERTEX
  5
12D5
  8
0
 10
121.18341094166639
 20
90.271248314942142
 30
0.0
  0
VERTEX
  5
12D6
  8
0
 10
121.1712582291679
 20
90.276810417080924
 30
0.0
  0
VERTEX
  5
12D7
  8
0
 10
121.1592537613506
 20
90.282697748628095
 30
0.0
  0
VERTEX
  5
12D8
  8
0
 10
121.1474042263483
 20
90.288907624323016
 30
0.0
  0
VERTEX
  5
12D9
  8
0
 10
121.1357163122947
 20
90.295437358905247
 30
0.0
  0
VERTEX
  5
12DA
  8
0
 10
121.1241967073237
 20
90.302284267114118
 30
0.0
  0
VERTEX
  5
12DB
  8
0
 10
121.1128520995691
 20
90.309445663689146
 30
0.0
  0
SEQEND
  5
12DC
  8
0
  0
ENDSEC
  0
EOF
