  0
SECTION
  2
HEADER
  9
$ACADVER
  1
AC1009
  9
$INSBASE
 10
162.18631844077461
 20
150.7637215859402
 30
0.0
  9
$EXTMIN
 10
0.0
 20
-2.960436562073669
 30
0.0
  9
$EXTMAX
 10
291.99449022601408
 20
254.664825889968
 30
0.0
  9
$LIMMIN
 10
0.0
 20
0.0
  9
$LIMMAX
 10
275.0
 20
175.0
  9
$ORTHOMODE
 70
     1
  9
$REGENMODE
 70
     1
  9
$FILLMODE
 70
     1
  9
$QTEXTMODE
 70
     0
  9
$MIRRTEXT
 70
     0
  9
$DRAGMODE
 70
     2
  9
$LTSCALE
 40
10.0
  9
$OSMODE
 70
  3071
  9
$ATTMODE
 70
     1
  9
$TEXTSIZE
 40
0.2
  9
$TRACEWID
 40
0.05
  9
$TEXTSTYLE
  7
STANDARD
  9
$CLAYER
  8
0
  9
$CELTYPE
  6
BYLAYER
  9
$CECOLOR
 62
   256
  9
$DIMSCALE
 40
1.0
  9
$DIMASZ
 40
3.0
  9
$DIMEXO
 40
0.0625
  9
$DIMDLI
 40
0.38
  9
$DIMRND
 40
0.0
  9
$DIMDLE
 40
0.0
  9
$DIMEXE
 40
0.18
  9
$DIMTP
 40
0.0
  9
$DIMTM
 40
0.0
  9
$DIMTXT
 40
3.0
  9
$DIMCEN
 40
0.09
  9
$DIMTSZ
 40
0.0
  9
$DIMTOL
 70
     0
  9
$DIMLIM
 70
     0
  9
$DIMTIH
 70
     1
  9
$DIMTOH
 70
     1
  9
$DIMSE1
 70
     0
  9
$DIMSE2
 70
     0
  9
$DIMTAD
 70
     0
  9
$DIMZIN
 70
     0
  9
$DIMBLK
  1

  9
$DIMASO
 70
     1
  9
$DIMSHO
 70
     1
  9
$DIMPOST
  1

  9
$DIMAPOST
  1

  9
$DIMALT
 70
     0
  9
$DIMALTD
 70
     2
  9
$DIMALTF
 40
25.399999999999999
  9
$DIMLFAC
 40
1.0
  9
$DIMTOFL
 70
     0
  9
$DIMTVP
 40
0.0
  9
$DIMTIX
 70
     0
  9
$DIMSOXD
 70
     0
  9
$DIMSAH
 70
     0
  9
$DIMBLK1
  1

  9
$DIMBLK2
  1

  9
$DIMSTYLE
  2
STANDARD
  9
$DIMCLRD
 70
     0
  9
$DIMCLRE
 70
     0
  9
$DIMCLRT
 70
     0
  9
$DIMTFAC
 40
1.0
  9
$DIMGAP
 40
0.09
  9
$LUNITS
 70
     2
  9
$LUPREC
 70
     4
  9
$SKETCHINC
 40
0.1
  9
$FILLETRAD
 40
0.0
  9
$AUNITS
 70
     0
  9
$AUPREC
 70
     0
  9
$MENU
  1
E:\r13\win\SUPPORT\ACAD
  9
$ELEVATION
 40
0.0
  9
$PELEVATION
 40
0.0
  9
$THICKNESS
 40
0.0
  9
$LIMCHECK
 70
     0
  9
$BLIPMODE
 70
     0
  9
$CHAMFERA
 40
0.0
  9
$CHAMFERB
 40
0.0
  9
$SKPOLY
 70
     0
  9
$TDCREATE
 40
2450442.4998613419
  9
$TDUPDATE
 40
2456597.5465489118
  9
$TDINDWG
 40
0.0007946296
  9
$TDUSRTIMER
 40
0.0007946296
  9
$USRTIMER
 70
     1
  9
$ANGBASE
 50
0.0
  9
$ANGDIR
 70
     0
  9
$PDMODE
 70
     0
  9
$PDSIZE
 40
0.0
  9
$PLINEWID
 40
0.0
  9
$COORDS
 70
     1
  9
$SPLFRAME
 70
     0
  9
$SPLINETYPE
 70
     6
  9
$SPLINESEGS
 70
     8
  9
$ATTDIA
 70
     0
  9
$ATTREQ
 70
     1
  9
$HANDLING
 70
     1
  9
$HANDSEED
  5
B6B9
  9
$SURFTAB1
 70
     6
  9
$SURFTAB2
 70
     6
  9
$SURFTYPE
 70
     6
  9
$SURFU
 70
     6
  9
$SURFV
 70
     6
  9
$UCSNAME
  2

  9
$UCSORG
 10
0.0
 20
0.0
 30
0.0
  9
$UCSXDIR
 10
1.0
 20
0.0
 30
0.0
  9
$UCSYDIR
 10
0.0
 20
1.0
 30
0.0
  9
$PUCSNAME
  2

  9
$PUCSORG
 10
0.0
 20
0.0
 30
0.0
  9
$PUCSXDIR
 10
1.0
 20
0.0
 30
0.0
  9
$PUCSYDIR
 10
0.0
 20
1.0
 30
0.0
  9
$USERI1
 70
     4
  9
$USERI2
 70
     1
  9
$USERI3
 70
     0
  9
$USERI4
 70
     0
  9
$USERI5
 70
     0
  9
$USERR1
 40
1.0
  9
$USERR2
 40
3.0
  9
$USERR3
 40
3.0
  9
$USERR4
 40
3.0
  9
$USERR5
 40
10.0
  9
$WORLDVIEW
 70
     1
  9
$SHADEDGE
 70
     3
  9
$SHADEDIF
 70
    70
  9
$TILEMODE
 70
     1
  9
$MAXACTVP
 70
    16
  9
$PLIMCHECK
 70
     0
  9
$PEXTMIN
 10
1.0000000000000000E+020
 20
1.0000000000000000E+020
 30
1.0000000000000000E+020
  9
$PEXTMAX
 10
-1.0000000000000000E+020
 20
-1.0000000000000000E+020
 30
-1.0000000000000000E+020
  9
$PLIMMIN
 10
0.0
 20
0.0
  9
$PLIMMAX
 10
12.0
 20
9.0
  9
$UNITMODE
 70
     0
  9
$VISRETAIN
 70
     0
  9
$PLINEGEN
 70
     0
  9
$PSLTSCALE
 70
     1
  0
ENDSEC
  0
SECTION
  2
TABLES
  0
TABLE
  2
VPORT
 70
     1
  0
VPORT
  2
*ACTIVE
 70
     0
 10
0.0
 20
0.0
 11
1.0
 21
1.0
 12
145.9972457928597
 22
153.5553118562168
 13
0.0
 23
0.0
 14
5.0
 24
5.0
 15
0.0
 25
0.0
 16
0.0
 26
0.0
 36
1.0
 17
0.0
 27
0.0
 37
0.0
 40
315.9940050267158
 41
1.9089595375722539
 42
50.0
 43
0.0
 44
0.0
 50
0.0
 51
0.0
 71
     0
 72
   100
 73
     1
 74
     0
 75
     0
 76
     0
 77
     0
 78
     2
  0
ENDTAB
  0
TABLE
  2
LTYPE
 70
     2
  0
LTYPE
  2
CONTINUOUS
 70
     0
  3
Solid Line
 72
    65
 73
     0
 40
0.0
  0
LTYPE
  2
PHANTOM2
 70
     0
  3
___ _ _ ___ _ _ ___ _ _ ___ _ _
 72
    65
 73
     6
 40
1.25
 49
0.625
 49
-0.125
 49
0.125
 49
-0.125
 49
0.125
 49
-0.125
  0
ENDTAB
  0
TABLE
  2
LAYER
 70
     1
  0
LAYER
  2
0
 70
     0
 62
     7
  6
CONTINUOUS
  0
ENDTAB
  0
TABLE
  2
STYLE
 70
     2
  0
STYLE
  2
STANDARD
 70
     0
 40
0.0
 41
1.0
 50
0.0
 71
     0
 42
0.2
  3
SIMPLEX
  4
BIGFONT
  0
STYLE
  2
STANDARD1
 70
     0
 40
0.0
 41
1.0
 50
0.0
 71
     0
 42
3.0
  3
txt
  4

  0
ENDTAB
  0
TABLE
  2
VIEW
 70
     0
  0
ENDTAB
  0
TABLE
  2
UCS
 70
     0
  0
ENDTAB
  0
TABLE
  2
APPID
 70
     5
  0
APPID
  2
ACAD
 70
     0
  0
APPID
  2
GENIUS_GENODEF_13
 70
     0
  0
APPID
  2
GENIUS_GENOBJ-N-FIL_13
 70
     0
  0
APPID
  2
ACAD_MLEADERVER
 70
     0
  0
APPID
  2
ACAD_NAV_VCDISPLAY
 70
     0
  0
ENDTAB
  0
TABLE
  2
DIMSTYLE
 70
     1
  0
DIMSTYLE
  2
STANDARD
 70
     0
  3

  4

  5

  6

  7

 40
1.0
 41
0.18
 42
0.0625
 43
0.38
 44
0.18
 45
0.0
 46
0.0
 47
0.0
 48
0.0
140
0.18
141
0.09
142
0.0
143
25.399999999999999
144
1.0
145
0.0
146
1.0
147
0.09
 71
     0
 72
     0
 73
     1
 74
     1
 75
     0
 76
     0
 77
     0
 78
     0
170
     0
171
     2
172
     0
173
     0
174
     0
175
     0
176
     0
177
     0
178
     0
  0
ENDTAB
  0
ENDSEC
  0
SECTION
  2
BLOCKS
  0
BLOCK
  8
0
  2
$MODEL_SPACE
 70
     0
 10
0.0
 20
0.0
 30
0.0
  3
$MODEL_SPACE
  1

  0
ENDBLK
  5
B57C
  8
0
  0
BLOCK
 67
     1
  8
0
  2
$PAPER_SPACE
 70
     0
 10
0.0
 20
0.0
 30
0.0
  3
$PAPER_SPACE
  1

  0
ENDBLK
  5
B57A
 67
     1
  8
0
  0
ENDSEC
  0
SECTION
  2
ENTITIES
  0
ARC
  5
B514
  8
0
  6
CONTINUOUS
 62
     7
 10
290.99449022601402
 20
226.78256385755881
 30
0.0
 40
1.5
 50
90.0
 51
180.0
1001
GENIUS_GENODEF_13
1002
{
1000
HIER
1070
     0
1002
}
1002
{
1000
MANEDIT
1070
     0
1002
}
1002
{
1000
NOSEL
1070
     0
1002
}
1002
{
1000
BEHIND
1070
     0
1002
}
1002
{
1000
REACTOR
1002
}
1001
GENIUS_GENOBJ-N-FIL_13
1002
{
1000
OWNER
1000
GEN
1002
}
  0
ARC
  5
B50B
  8
0
  6
CONTINUOUS
 62
     7
 10
249.1645208943454
 20
225.7448978917183
 30
0.0
 40
2.0000000000000999
 50
59.999999999884139
 51
153.01696130978121
  0
LINE
  5
B50A
  8
0
  6
CONTINUOUS
 62
     7
 10
250.1645208943489
 20
227.4769486992852
 30
0.0
 11
264.05420838363352
 21
219.4577338883486
 31
0.0
  0
ARC
  5
B508
  8
0
  6
CONTINUOUS
 62
     7
 10
217.73723250092689
 20
226.78256385755881
 30
0.0
 40
1.5
 50
0.0
 51
90.0
1001
GENIUS_GENODEF_13
1002
{
1000
HIER
1070
     0
1002
}
1002
{
1000
MANEDIT
1070
     0
1002
}
1002
{
1000
NOSEL
1070
     0
1002
}
1002
{
1000
BEHIND
1070
     0
1002
}
1002
{
1000
REACTOR
1002
}
1001
GENIUS_GENOBJ-N-FIL_13
1002
{
1000
OWNER
1000
GEN
1002
}
  0
LINE
  5
B4E7
  8
0
  6
CONTINUOUS
 62
     7
 10
291.99449022601408
 20
228.28256385755881
 30
0.0
 11
291.99449022601408
 21
208.5032827382237
 31
0.0
  0
LINE
  5
B4E3
  8
0
  6
CONTINUOUS
 62
     7
 10
216.73723250092689
 20
228.28256385755881
 30
0.0
 11
216.73723250092689
 21
208.5032827382237
 31
0.0
  0
LINE
  5
B509
  8
0
  6
CONTINUOUS
 62
     3
 10
249.9591913880638
 20
225.86344493744119
 30
0.0
 11
262.79444680766869
 21
218.45300676577909
 31
0.0
1001
GENIUS_GENODEF_13
1002
{
1000
HIER
1070
     0
1002
}
1002
{
1000
MANEDIT
1070
     0
1002
}
1002
{
1000
NOSEL
1070
     0
1002
}
1002
{
1000
BEHIND
1070
     0
1002
}
1002
{
1000
REACTOR
1002
}
1001
GENIUS_GENOBJ-N-FIL_13
1002
{
1000
OWNER
1000
GEN
1002
}
  0
LINE
  5
B4F6
  8
0
  6
CONTINUOUS
 62
     7
 10
261.11897204443329
 20
208.50328273824621
 30
0.0
 11
245.08054242262139
 21
208.50328273827961
 31
0.0
  0
LINE
  5
B4F5
  8
0
  6
CONTINUOUS
 62
     3
 10
260.45885288469867
 20
210.00328273824769
 30
0.0
 11
245.5546210985799
 21
210.00328273827861
 31
0.0
1001
GENIUS_GENODEF_13
1002
{
1000
HIER
1070
     0
1002
}
1002
{
1000
MANEDIT
1070
     0
1002
}
1002
{
1000
NOSEL
1070
     0
1002
}
1002
{
1000
BEHIND
1070
     0
1002
}
1002
{
1000
REACTOR
1002
}
1001
GENIUS_GENOBJ-N-FIL_13
1002
{
1000
OWNER
1000
GEN
1002
}
  0
LINE
  5
B4F4
  8
0
  6
CONTINUOUS
 62
     7
 10
263.55698038773397
 20
183.02967190536819
 30
0.0
 11
244.58331442672969
 21
183.02967190536819
 31
0.0
  0
LINE
  5
B4EF
  8
0
  6
CONTINUOUS
 62
     7
 10
243.08331442672969
 20
180.52967190536819
 30
0.0
 11
265.05698038773397
 21
180.52967190536819
 31
0.0
  0
ARC
  5
B4EE
  8
0
  6
CONTINUOUS
 62
     7
 10
244.58331442672969
 20
181.52967190536819
 30
0.0
 40
1.4999999999999989
 50
90.0
 51
180.0
  0
LINE
  5
B4F0
  8
0
  6
CONTINUOUS
 62
     7
 10
243.08331442672969
 20
181.52967190536819
 30
0.0
 11
243.08331442672969
 21
180.52967190536819
 31
0.0
  0
LINE
  5
B4F3
  8
0
  6
CONTINUOUS
 62
     7
 10
216.73723250092689
 20
208.5032827382237
 30
0.0
 11
217.73723250092689
 21
208.5032827382237
 31
0.0
  0
ARC
  5
B4F7
  8
0
  6
CONTINUOUS
 62
     7
 10
245.0805424226258
 20
210.50328273827981
 30
0.0
 40
2.0000000000002758
 50
176.98303869015319
 51
269.99999999987932
  0
ARC
  5
B4F2
  8
0
  6
CONTINUOUS
 62
     7
 10
217.73723250092689
 20
210.0032827382237
 30
0.0
 40
1.5
 50
270.0
 51
0.0
  0
LINE
  5
B4E2
  8
0
  6
CONTINUOUS
 62
     7
 10
219.23723250092689
 20
210.0032827382237
 30
0.0
 11
219.23723250092689
 21
226.78256385755881
 31
0.0
1001
GENIUS_GENODEF_13
1002
{
1000
HIER
1070
     0
1002
}
1002
{
1000
MANEDIT
1070
     0
1002
}
1002
{
1000
NOSEL
1070
     0
1002
}
1002
{
1000
BEHIND
1070
     0
1002
}
1002
{
1000
REACTOR
1002
}
1001
GENIUS_GENOBJ-N-FIL_13
1002
{
1000
OWNER
1000
GEN
1002
}
  0
ARC
  5
B4E5
  8
0
  6
CONTINUOUS
 62
     7
 10
283.027874344645
 20
208.50328273825619
 30
0.0
 40
40.000000000000149
 50
153.01696130978101
 51
176.9830386901485
  0
ARC
  5
B4E4
  8
0
  6
CONTINUOUS
 62
     3
 10
283.02787434464523
 20
208.50328273825619
 30
0.0
 40
38.50000000000049
 50
153.0169613097809
 51
176.98303869014819
1001
GENIUS_GENODEF_13
1002
{
1000
HIER
1070
     0
1002
}
1002
{
1000
MANEDIT
1070
     0
1002
}
1002
{
1000
NOSEL
1070
     0
1002
}
1002
{
1000
BEHIND
1070
     0
1002
}
1002
{
1000
REACTOR
1002
}
1001
GENIUS_GENOBJ-N-FIL_13
1002
{
1000
OWNER
1000
GEN
1002
}
  0
ARC
  5
B4ED
  8
0
  6
CONTINUOUS
 62
     7
 10
263.55698038773397
 20
181.52967190536819
 30
0.0
 40
1.5
 50
0.0
 51
90.0
  0
LINE
  5
B4EC
  8
0
  6
CONTINUOUS
 62
     3
 10
263.03064634874841
 20
180.83649285940709
 30
0.0
 11
263.03064634874841
 21
182.70224888130571
 31
0.0
  0
LINE
  5
B4F1
  8
0
  6
CONTINUOUS
 62
     7
 10
265.05698038773397
 20
180.52967190536819
 30
0.0
 11
265.05698038773397
 21
181.52967190536819
 31
0.0
  0
LINE
  5
B505
  8
0
  6
CONTINUOUS
 62
     7
 10
291.99449022601408
 20
208.5032827382237
 30
0.0
 11
290.99449022601402
 21
208.5032827382237
 31
0.0
  0
ARC
  5
B504
  8
0
  6
CONTINUOUS
 62
     7
 10
290.99449022601402
 20
210.0032827382237
 30
0.0
 40
1.5
 50
180.0
 51
270.0
  0
ARC
  5
B4F8
  8
0
  6
CONTINUOUS
 62
     7
 10
261.11897204443721
 20
210.50328273824621
 30
0.0
 40
1.9999999999999689
 50
269.9999999998866
 51
354.7840914295831
  0
ARC
  5
B4E6
  8
0
  6
CONTINUOUS
 62
     7
 10
263.05420838362983
 20
217.72568308078181
 30
0.0
 40
2.0000000000000662
 50
335.21590857046772
 51
59.999999999879343
  0
ARC
  5
B4F9
  8
0
  6
CONTINUOUS
 62
     7
 10
283.02787434464523
 20
208.5032827382577
 30
0.0
 40
20.000000000000259
 50
155.21590857048889
 51
174.7840914295752
  0
ARC
  5
B4E1
  8
0
  6
CONTINUOUS
 62
     3
 10
283.02787434464761
 20
208.5032827382571
 30
0.0
 40
21.500000000002629
 50
155.21590857048781
 51
174.7840914295748
1001
GENIUS_GENODEF_13
1002
{
1000
HIER
1070
     0
1002
}
1002
{
1000
MANEDIT
1070
     0
1002
}
1002
{
1000
NOSEL
1070
     0
1002
}
1002
{
1000
BEHIND
1070
     0
1002
}
1002
{
1000
REACTOR
1002
}
1001
GENIUS_GENOBJ-N-FIL_13
1002
{
1000
OWNER
1000
GEN
1002
}
  0
LINE
  5
B4E8
  8
0
  6
CONTINUOUS
 62
     7
 10
289.49449022601402
 20
210.0032827382237
 30
0.0
 11
289.49449022601402
 21
226.78256385755881
 31
0.0
1001
GENIUS_GENODEF_13
1002
{
1000
HIER
1070
     0
1002
}
1002
{
1000
MANEDIT
1070
     0
1002
}
1002
{
1000
NOSEL
1070
     0
1002
}
1002
{
1000
BEHIND
1070
     0
1002
}
1002
{
1000
REACTOR
1002
}
1001
GENIUS_GENOBJ-N-FIL_13
1002
{
1000
OWNER
1000
GEN
1002
}
  0
LINE
  5
B512
  8
0
  6
CONTINUOUS
 62
     3
 10
291.7795999904651
 20
219.04094870410981
 30
0.0
 11
289.74223174809589
 21
219.04094870410981
 31
0.0
  0
LINE
  5
B516
  8
0
  6
CONTINUOUS
 62
     7
 10
243.08331442672969
 20
254.664825889968
 30
0.0
 11
265.05698038773397
 21
254.664825889968
 31
0.0
  0
LINE
  5
B515
  8
0
  6
CONTINUOUS
 62
     7
 10
263.55698038773397
 20
252.164825889968
 30
0.0
 11
244.58331442672969
 21
252.164825889968
 31
0.0
  0
LINE
  5
B507
  8
0
  6
CONTINUOUS
 62
     7
 10
217.73723250092689
 20
228.28256385755881
 30
0.0
 11
216.73723250092689
 21
228.28256385755881
 31
0.0
  0
LINE
  5
B51A
  8
0
  6
CONTINUOUS
 62
     3
 10
249.1645208943454
 20
254.3580049359291
 30
0.0
 11
249.1645208943454
 21
252.49224891403051
 31
0.0
  0
LINE
  5
B518
  8
0
  6
CONTINUOUS
 62
     7
 10
243.08331442672969
 20
253.664825889968
 30
0.0
 11
243.08331442672969
 21
254.664825889968
 31
0.0
  0
ARC
  5
B517
  8
0
  6
CONTINUOUS
 62
     7
 10
244.58331442672969
 20
253.664825889968
 30
0.0
 40
1.4999999999999989
 50
179.99999999999989
 51
270.0
  0
LINE
  5
B513
  8
0
  6
CONTINUOUS
 62
     7
 10
290.99449022601402
 20
228.28256385755881
 30
0.0
 11
291.99449022601408
 21
228.28256385755881
 31
0.0
  0
LINE
  5
B51B
  8
0
  6
CONTINUOUS
 62
     7
 10
265.05698038773397
 20
254.664825889968
 30
0.0
 11
265.05698038773397
 21
253.664825889968
 31
0.0
  0
ARC
  5
B519
  8
0
  6
CONTINUOUS
 62
     7
 10
263.55698038773397
 20
253.664825889968
 30
0.0
 40
1.5
 50
270.0
 51
0.0
  0
TEXT
  5
B62B
  8
0
 62
     3
 10
0.0
 20
0.0
 30
0.0
 40
10.0
  1
L5-ECPR24D30
  7
STANDARD1
  0
ENDSEC
  0
EOF
