  0
SECTION
  2
HEADER
  9
$ACADVER
  1
AC1009
  9
$INSBASE
 10
0.0
 20
0.0
 30
0.0
  9
$EXTMIN
 10
0.0
 20
-2.960436562073669
 30
0.0
  9
$EXTMAX
 10
230.87227398891071
 20
199.0890646546728
 30
0.0
  9
$LIMMIN
 10
0.0
 20
0.0
  9
$LIMMAX
 10
375.0
 20
270.0
  9
$ORTHOMODE
 70
     1
  9
$REGENMODE
 70
     1
  9
$FILLMODE
 70
     1
  9
$QTEXTMODE
 70
     0
  9
$MIRRTEXT
 70
     0
  9
$DRAGMODE
 70
     2
  9
$LTSCALE
 40
10.0
  9
$OSMODE
 70
  3071
  9
$ATTMODE
 70
     1
  9
$TEXTSIZE
 40
5.0
  9
$TRACEWID
 40
0.05
  9
$TEXTSTYLE
  7
STANDARD
  9
$CLAYER
  8
0
  9
$CELTYPE
  6
BYLAYER
  9
$CECOLOR
 62
   256
  9
$DIMSCALE
 40
1.0
  9
$DIMASZ
 40
3.0
  9
$DIMEXO
 40
2.0
  9
$DIMDLI
 40
0.38
  9
$DIMRND
 40
0.0
  9
$DIMDLE
 40
0.0
  9
$DIMEXE
 40
2.0
  9
$DIMTP
 40
0.0
  9
$DIMTM
 40
0.0
  9
$DIMTXT
 40
3.2000000000000002
  9
$DIMCEN
 40
0.0
  9
$DIMTSZ
 40
0.0
  9
$DIMTOL
 70
     0
  9
$DIMLIM
 70
     0
  9
$DIMTIH
 70
     0
  9
$DIMTOH
 70
     0
  9
$DIMSE1
 70
     0
  9
$DIMSE2
 70
     0
  9
$DIMTAD
 70
     1
  9
$DIMZIN
 70
     0
  9
$DIMBLK
  1

  9
$DIMASO
 70
     0
  9
$DIMSHO
 70
     0
  9
$DIMPOST
  1

  9
$DIMAPOST
  1

  9
$DIMALT
 70
     0
  9
$DIMALTD
 70
     2
  9
$DIMALTF
 40
25.399999999999999
  9
$DIMLFAC
 40
1.0
  9
$DIMTOFL
 70
     0
  9
$DIMTVP
 40
1.6000000000000001
  9
$DIMTIX
 70
     1
  9
$DIMSOXD
 70
     0
  9
$DIMSAH
 70
     0
  9
$DIMBLK1
  1

  9
$DIMBLK2
  1

  9
$DIMSTYLE
  2
STANDARD
  9
$DIMCLRD
 70
     0
  9
$DIMCLRE
 70
     0
  9
$DIMCLRT
 70
     0
  9
$DIMTFAC
 40
1.0
  9
$DIMGAP
 40
0.09
  9
$LUNITS
 70
     2
  9
$LUPREC
 70
     4
  9
$SKETCHINC
 40
0.1
  9
$FILLETRAD
 40
2.0
  9
$AUNITS
 70
     0
  9
$AUPREC
 70
     4
  9
$MENU
  1
ACAD-3
  9
$ELEVATION
 40
0.0
  9
$PELEVATION
 40
0.0
  9
$THICKNESS
 40
0.0
  9
$LIMCHECK
 70
     0
  9
$BLIPMODE
 70
     0
  9
$CHAMFERA
 40
0.0
  9
$CHAMFERB
 40
0.0
  9
$SKPOLY
 70
     0
  9
$TDCREATE
 40
2450849.5586494221
  9
$TDUPDATE
 40
2456597.5465794331
  9
$TDINDWG
 40
0.0495136111
  9
$TDUSRTIMER
 40
0.0495136111
  9
$USRTIMER
 70
     1
  9
$ANGBASE
 50
0.0
  9
$ANGDIR
 70
     0
  9
$PDMODE
 70
     0
  9
$PDSIZE
 40
0.0
  9
$PLINEWID
 40
0.0
  9
$COORDS
 70
     1
  9
$SPLFRAME
 70
     0
  9
$SPLINETYPE
 70
     6
  9
$SPLINESEGS
 70
     8
  9
$ATTDIA
 70
     0
  9
$ATTREQ
 70
     1
  9
$HANDLING
 70
     1
  9
$HANDSEED
  5
206
  9
$SURFTAB1
 70
     6
  9
$SURFTAB2
 70
     6
  9
$SURFTYPE
 70
     6
  9
$SURFU
 70
     6
  9
$SURFV
 70
     6
  9
$UCSNAME
  2

  9
$UCSORG
 10
0.0
 20
0.0
 30
0.0
  9
$UCSXDIR
 10
1.0
 20
0.0
 30
0.0
  9
$UCSYDIR
 10
0.0
 20
1.0
 30
0.0
  9
$PUCSNAME
  2

  9
$PUCSORG
 10
0.0
 20
0.0
 30
0.0
  9
$PUCSXDIR
 10
1.0
 20
0.0
 30
0.0
  9
$PUCSYDIR
 10
0.0
 20
1.0
 30
0.0
  9
$USERI1
 70
     0
  9
$USERI2
 70
     1
  9
$USERI3
 70
     0
  9
$USERI4
 70
     0
  9
$USERI5
 70
     0
  9
$USERR1
 40
0.0
  9
$USERR2
 40
0.0
  9
$USERR3
 40
0.0
  9
$USERR4
 40
0.0
  9
$USERR5
 40
0.0
  9
$WORLDVIEW
 70
     1
  9
$SHADEDGE
 70
     3
  9
$SHADEDIF
 70
    70
  9
$TILEMODE
 70
     1
  9
$MAXACTVP
 70
    16
  9
$PLIMCHECK
 70
     0
  9
$PEXTMIN
 10
1.0000000000000000E+020
 20
1.0000000000000000E+020
 30
1.0000000000000000E+020
  9
$PEXTMAX
 10
-1.0000000000000000E+020
 20
-1.0000000000000000E+020
 30
-1.0000000000000000E+020
  9
$PLIMMIN
 10
0.0
 20
0.0
  9
$PLIMMAX
 10
12.0
 20
9.0
  9
$UNITMODE
 70
     0
  9
$VISRETAIN
 70
     0
  9
$PLINEGEN
 70
     1
  9
$PSLTSCALE
 70
     0
  0
ENDSEC
  0
SECTION
  2
TABLES
  0
TABLE
  2
VPORT
 70
     1
  0
VPORT
  2
*ACTIVE
 70
     0
 10
0.0
 20
0.0
 11
1.0
 21
1.0
 12
187.49427839065231
 22
162.8616388594717
 13
0.0
 23
0.0
 14
5.0
 24
5.0
 15
10.0
 25
10.0
 16
0.0
 26
0.0
 36
1.0
 17
0.0
 27
0.0
 37
0.0
 40
334.81001162774987
 41
1.9089595375722539
 42
50.0
 43
0.0
 44
0.0
 50
0.0
 51
0.0
 71
     0
 72
  1000
 73
     1
 74
     0
 75
     0
 76
     0
 77
     0
 78
     2
  0
ENDTAB
  0
TABLE
  2
LTYPE
 70
     4
  0
LTYPE
  2
CONTINUOUS
 70
     0
  3
Solid Line
 72
    65
 73
     0
 40
0.0
  0
LTYPE
  2
CENTER
 70
     0
  3
____ _ ____ _ ____ _ ____ _ ____ _ ____ _ ____
 72
    65
 73
     4
 40
2.0
 49
1.25
 49
-0.25
 49
0.25
 49
-0.25
  0
LTYPE
  2
HIDDEN
 70
     0
  3
_ _ _ _ _ _ _ _ _ _ _ _ _ _ _ _ _ _ _ _ _ _ _
 72
    65
 73
     2
 40
0.375
 49
0.25
 49
-0.125
  0
LTYPE
  2
PHANTOM2
 70
     0
  3
___ _ _ ___ _ _ ___ _ _ ___ _ _
 72
    65
 73
     6
 40
1.25
 49
0.625
 49
-0.125
 49
0.125
 49
-0.125
 49
0.125
 49
-0.125
  0
ENDTAB
  0
TABLE
  2
LAYER
 70
     4
  0
LAYER
  2
0
 70
     0
 62
     7
  6
CONTINUOUS
  0
LAYER
  2
1
 70
     0
 62
     1
  6
CENTER
  0
LAYER
  2
2
 70
     0
 62
     2
  6
HIDDEN
  0
LAYER
  2
3
 70
     0
 62
     3
  6
CONTINUOUS
  0
ENDTAB
  0
TABLE
  2
STYLE
 70
     2
  0
STYLE
  2
STANDARD
 70
     0
 40
0.0
 41
1.0
 50
0.0
 71
     0
 42
5.0
  3
TXT
  4
BIGFONT
  0
STYLE
  2
STANDARD1
 70
     0
 40
0.0
 41
1.0
 50
0.0
 71
     0
 42
3.0
  3
txt
  4

  0
ENDTAB
  0
TABLE
  2
VIEW
 70
     1
  0
VIEW
  2
ALL
 70
     0
 40
270.0
 10
220.99159663865549
 20
135.0
 41
0.0
 11
0.0
 21
0.0
 31
1.0
 12
0.0
 22
0.0
 32
0.0
 42
0.0
 43
0.0
 44
0.0
 50
0.0
 71
     0
  0
ENDTAB
  0
TABLE
  2
UCS
 70
     0
  0
ENDTAB
  0
TABLE
  2
APPID
 70
     3
  0
APPID
  2
ACAD
 70
     0
  0
APPID
  2
ACAD_MLEADERVER
 70
     0
  0
APPID
  2
ACAD_NAV_VCDISPLAY
 70
     0
  0
ENDTAB
  0
TABLE
  2
DIMSTYLE
 70
     1
  0
DIMSTYLE
  2
STANDARD
 70
     0
  3

  4

  5

  6

  7

 40
1.0
 41
0.18
 42
0.0625
 43
0.38
 44
0.18
 45
0.0
 46
0.0
 47
0.0
 48
0.0
140
0.18
141
0.09
142
0.0
143
25.399999999999999
144
1.0
145
0.0
146
1.0
147
0.09
 71
     0
 72
     0
 73
     1
 74
     1
 75
     0
 76
     0
 77
     0
 78
     0
170
     0
171
     2
172
     0
173
     0
174
     0
175
     0
176
     0
177
     0
178
     0
  0
ENDTAB
  0
ENDSEC
  0
SECTION
  2
BLOCKS
  0
BLOCK
  8
0
  2
$MODEL_SPACE
 70
     0
 10
0.0
 20
0.0
 30
0.0
  3
$MODEL_SPACE
  1

  0
ENDBLK
  5
31
  8
0
  0
BLOCK
 67
     1
  8
0
  2
$PAPER_SPACE
 70
     0
 10
0.0
 20
0.0
 30
0.0
  3
$PAPER_SPACE
  1

  0
ENDBLK
  5
2F
 67
     1
  8
0
  0
BLOCK
  8
0
  2
STDGX5
 70
     0
 10
0.0
 20
0.0
 30
0.0
  3
STDGX5
  1

  0
ENDBLK
  5
33
  8
0
  0
ENDSEC
  0
SECTION
  2
ENTITIES
  0
LINE
  5
34
  8
2
 10
139.4722739889107
 20
123.38255577893339
 30
0.0
 11
137.4722739889107
 21
123.38255577893339
 31
0.0
  0
LINE
  5
35
  8
2
 10
137.4722739889107
 20
110.9305717988387
 30
0.0
 11
139.4722739889107
 21
110.9305717988387
 31
0.0
  0
LINE
  5
36
  8
2
 10
137.27227398891071
 20
123.4890646546729
 30
0.0
 11
142.71378113307651
 21
123.4890646546729
 31
0.0
  0
LINE
  5
37
  8
2
 10
155.2722739889108
 20
105.4890646546729
 30
0.0
 11
137.27227398891071
 21
105.4890646546729
 31
0.0
  0
LINE
  5
38
  8
2
 10
137.27227398891071
 20
123.4890646546729
 30
0.0
 11
137.27227398891071
 21
105.4890646546729
 31
0.0
  0
LINE
  5
39
  8
2
 10
140.67227398891069
 20
107.88906465467301
 30
0.0
 11
155.2722739889108
 21
107.88906465467301
 31
0.0
  0
ARC
  5
3A
  8
2
 10
137.27227398891071
 20
105.4890646546729
 30
0.0
 40
18.900000000000201
 50
18.782870895034211
 51
71.217129104965395
  0
CIRCLE
  5
3B
  8
2
 10
147.27227398891071
 20
115.4890646546729
 30
0.0
 40
3.0
  0
LINE
  5
3C
  8
2
 10
139.67227398891069
 20
108.88906465467301
 30
0.0
 11
139.67227398891069
 21
123.4890646546729
 31
0.0
  0
LINE
  5
3D
  8
2
 10
141.2722739889108
 20
109.4890646546729
 30
0.0
 11
141.2722739889108
 21
107.88906465467301
 31
0.0
  0
LINE
  5
3E
  8
2
 10
142.7137811330764
 20
105.6890646546732
 30
0.0
 11
142.7137811330764
 21
107.6890646546732
 31
0.0
  0
ARC
  5
3F
  8
2
 10
140.67227398891069
 20
108.88906465467301
 30
0.0
 40
1.0
 50
180.0
 51
270.0
  0
LINE
  5
40
  8
2
 10
141.2722739889108
 20
109.4890646546729
 30
0.0
 11
139.67227398891069
 21
109.4890646546729
 31
0.0
  0
ARC
  5
41
  8
2
 10
142.71378113307651
 20
121.4890646546729
 30
0.0
 40
2.0
 50
71.217129104965423
 51
90.0
  0
LINE
  5
42
  8
2
 10
155.2722739889108
 20
105.4890646546729
 30
0.0
 11
155.2722739889108
 21
110.9305717988387
 31
0.0
  0
LINE
  5
43
  8
2
 10
155.16576511317109
 20
107.68906465467271
 30
0.0
 11
155.16576511317109
 21
105.68906465467271
 31
0.0
  0
ARC
  5
44
  8
2
 10
153.2722739889108
 20
110.9305717988387
 30
0.0
 40
2.0
 50
0.0
 51
18.782870895034389
  0
LINE
  5
45
  8
1
 10
154.2722739889106
 20
115.4890646546729
 30
0.0
 11
123.6722739889135
 21
115.4890646546729
 31
0.0
  0
LINE
  5
46
  8
1
 10
147.27227398891071
 20
122.4890646546729
 30
0.0
 11
147.27227398891071
 21
91.889064654673035
 31
0.0
  0
ARC
  5
47
  8
0
 10
137.27227398891071
 20
105.4890646546729
 30
0.0
 40
20.0
 50
0.0
 51
90.0
  0
LINE
  5
48
  8
0
 10
137.2722739889108
 20
105.4890646546729
 30
0.0
 11
157.27227398891071
 21
105.4890646546729
 31
0.0
  0
LINE
  5
49
  8
0
 10
137.27227398891071
 20
125.4890646546729
 30
0.0
 11
137.27227398891071
 21
105.4890646546729
 31
0.0
  0
INSERT
  5
4A
  8
0
  2
STDGX5
 10
0.0
 20
0.0
 30
0.0
  0
INSERT
  5
4B
  8
0
  2
STDGX5
 10
0.0
 20
0.0
 30
0.0
  0
INSERT
  5
4C
  8
0
  2
STDGX5
 10
275.0
 20
0.0
 30
0.0
  0
INSERT
  5
4D
  8
0
  2
STDGX5
 10
275.0
 20
0.0
 30
0.0
  0
LINE
  5
5F
  8
0
 10
127.6722739889135
 20
112.4890646546729
 30
0.0
 11
126.6722739889135
 21
113.4890646546729
 31
0.0
  0
LINE
  5
60
  8
0
 10
127.6722739889135
 20
118.4890646546729
 30
0.0
 11
127.6722739889134
 21
112.4890646546729
 31
0.0
  0
LINE
  5
61
  8
0
 10
137.2722739889108
 20
112.4890646546729
 30
0.0
 11
127.6722739889135
 21
112.4890646546729
 31
0.0
  0
LINE
  5
62
  8
3
 10
137.27227398891071
 20
113.0305646546728
 30
0.0
 11
127.1307739889136
 21
113.0305646546728
 31
0.0
  0
LINE
  5
63
  8
3
 10
137.27227398891071
 20
117.947564654673
 30
0.0
 11
127.1307739889136
 21
117.947564654673
 31
0.0
  0
LINE
  5
64
  8
0
 10
137.2722739889108
 20
118.4890646546729
 30
0.0
 11
127.6722739889135
 21
118.4890646546729
 31
0.0
  0
LINE
  5
65
  8
0
 10
126.6722739889135
 20
117.4890646546729
 30
0.0
 11
127.6722739889135
 21
118.4890646546729
 31
0.0
  0
LINE
  5
66
  8
0
 10
126.6722739889135
 20
113.4890646546729
 30
0.0
 11
126.6722739889135
 21
117.4890646546729
 31
0.0
  0
LINE
  5
67
  8
0
 10
149.2722739889106
 20
94.889064654673021
 30
0.0
 11
145.27227398891071
 21
94.889064654673021
 31
0.0
  0
LINE
  5
68
  8
0
 10
144.27227398891071
 20
95.889064654673007
 30
0.0
 11
150.2722739889106
 21
95.889064654672993
 31
0.0
  0
LINE
  5
69
  8
0
 10
150.2722739889106
 20
105.4890646546729
 30
0.0
 11
150.2722739889106
 21
95.889064654673007
 31
0.0
  0
LINE
  5
6A
  8
3
 10
149.7307739889107
 20
105.4890646546729
 30
0.0
 11
149.7307739889107
 21
95.347564654673079
 31
0.0
  0
LINE
  5
6B
  8
0
 10
150.2722739889106
 20
95.889064654673007
 30
0.0
 11
149.2722739889106
 21
94.889064654673021
 31
0.0
  0
LINE
  5
6C
  8
0
 10
144.27227398891071
 20
105.4890646546729
 30
0.0
 11
144.27227398891071
 21
95.889064654673007
 31
0.0
  0
LINE
  5
6D
  8
3
 10
144.81377398891061
 20
105.4890646546729
 30
0.0
 11
144.81377398891061
 21
95.347564654673079
 31
0.0
  0
LINE
  5
6E
  8
0
 10
145.27227398891071
 20
94.889064654673021
 30
0.0
 11
144.27227398891071
 21
95.889064654673007
 31
0.0
  0
LINE
  5
6F
  8
1
 10
207.27227398891071
 20
122.4890646546728
 30
0.0
 11
207.27227398891071
 21
91.889064654675636
 31
0.0
  0
LINE
  5
70
  8
0
 10
217.2722739889108
 20
105.4890646546729
 30
0.0
 11
217.2722739889108
 21
125.4890646546729
 31
0.0
  0
ARC
  5
71
  8
0
 10
217.2722739889108
 20
105.4890646546729
 30
0.0
 40
20.0
 50
90.0
 51
180.0
  0
LINE
  5
72
  8
2
 10
214.87227398891071
 20
108.88906465467289
 30
0.0
 11
214.87227398891071
 21
123.4890646546729
 31
0.0
  0
LINE
  5
73
  8
2
 10
217.2722739889108
 20
123.4890646546729
 30
0.0
 11
217.2722739889108
 21
105.4890646546729
 31
0.0
  0
LINE
  5
74
  8
2
 10
199.27227398891071
 20
105.4890646546729
 30
0.0
 11
199.27227398891071
 21
110.9305717988386
 31
0.0
  0
LINE
  5
75
  8
0
 10
209.27227398891071
 20
94.889064654675636
 30
0.0
 11
205.2722739889108
 21
94.889064654675636
 31
0.0
  0
LINE
  5
76
  8
0
 10
204.2722739889108
 20
95.889064654675636
 30
0.0
 11
210.27227398891071
 21
95.889064654675636
 31
0.0
  0
LINE
  5
77
  8
0
 10
197.27227398891071
 20
105.4890646546729
 30
0.0
 11
217.2722739889108
 21
105.4890646546729
 31
0.0
  0
LINE
  5
78
  8
2
 10
213.87227398891071
 20
107.88906465467289
 30
0.0
 11
199.27227398891071
 21
107.88906465467289
 31
0.0
  0
LINE
  5
79
  8
2
 10
199.27227398891071
 20
105.4890646546729
 30
0.0
 11
217.2722739889108
 21
105.4890646546729
 31
0.0
  0
LINE
  5
7A
  8
0
 10
210.27227398891071
 20
95.889064654675636
 30
0.0
 11
209.27227398891071
 21
94.889064654675636
 31
0.0
  0
LINE
  5
7B
  8
2
 10
213.27227398891071
 20
109.4890646546729
 30
0.0
 11
213.27227398891071
 21
107.88906465467289
 31
0.0
  0
ARC
  5
7C
  8
2
 10
213.87227398891071
 20
108.88906465467289
 30
0.0
 40
1.0
 50
270.0
 51
0.0
  0
LINE
  5
7D
  8
2
 10
213.27227398891071
 20
109.4890646546729
 30
0.0
 11
214.87227398891071
 21
109.4890646546729
 31
0.0
  0
LINE
  5
7E
  8
2
 10
211.83076684474489
 20
105.6890646546728
 30
0.0
 11
211.83076684474489
 21
107.6890646546728
 31
0.0
  0
LINE
  5
7F
  8
0
 10
210.2722739889108
 20
105.4890646546729
 30
0.0
 11
210.2722739889108
 21
95.889064654675636
 31
0.0
  0
LINE
  5
80
  8
3
 10
209.7307739889109
 20
105.4890646546729
 30
0.0
 11
209.7307739889109
 21
95.347564654675764
 31
0.0
  0
LINE
  5
81
  8
0
 10
205.2722739889108
 20
94.889064654675636
 30
0.0
 11
204.2722739889108
 21
95.889064654675636
 31
0.0
  0
LINE
  5
82
  8
0
 10
204.2722739889108
 20
105.4890646546729
 30
0.0
 11
204.2722739889108
 21
95.889064654675636
 31
0.0
  0
LINE
  5
83
  8
3
 10
204.81377398891061
 20
105.4890646546729
 30
0.0
 11
204.81377398891061
 21
95.347564654675764
 31
0.0
  0
LINE
  5
84
  8
2
 10
199.3787828646503
 20
107.6890646546728
 30
0.0
 11
199.3787828646503
 21
105.6890646546728
 31
0.0
  0
LINE
  5
85
  8
1
 10
200.2722739889108
 20
115.4890646546729
 30
0.0
 11
230.87227398891071
 21
115.4890646546729
 31
0.0
  0
LINE
  5
86
  8
0
 10
227.87227398891071
 20
113.4890646546728
 30
0.0
 11
226.87227398891071
 21
112.4890646546728
 31
0.0
  0
LINE
  5
87
  8
3
 10
217.2722739889108
 20
113.0305646546728
 30
0.0
 11
227.41377398891061
 21
113.0305646546728
 31
0.0
  0
LINE
  5
88
  8
0
 10
226.87227398891071
 20
118.4890646546728
 30
0.0
 11
227.87227398891071
 21
117.4890646546728
 31
0.0
  0
LINE
  5
89
  8
3
 10
217.2722739889108
 20
117.9475646546729
 30
0.0
 11
227.41377398891061
 21
117.9475646546729
 31
0.0
  0
LINE
  5
8A
  8
0
 10
227.87227398891071
 20
117.4890646546728
 30
0.0
 11
227.87227398891071
 21
113.4890646546728
 31
0.0
  0
CIRCLE
  5
8B
  8
2
 10
207.2722739889108
 20
115.4890646546728
 30
0.0
 40
3.0
  0
ARC
  5
8C
  8
2
 10
217.2722739889108
 20
105.4890646546729
 30
0.0
 40
18.900000000000201
 50
108.78287089503419
 51
161.21712910496541
  0
LINE
  5
8D
  8
2
 10
215.07227398891101
 20
123.38255577893329
 30
0.0
 11
217.07227398891101
 21
123.38255577893329
 31
0.0
  0
LINE
  5
8E
  8
2
 10
217.2722739889108
 20
123.4890646546729
 30
0.0
 11
211.83076684474489
 21
123.4890646546729
 31
0.0
  0
LINE
  5
8F
  8
2
 10
217.0722739889105
 20
110.9305717988385
 30
0.0
 11
215.0722739889105
 21
110.9305717988385
 31
0.0
  0
LINE
  5
90
  8
0
 10
217.2722739889108
 20
112.4890646546728
 30
0.0
 11
226.87227398891071
 21
112.4890646546728
 31
0.0
  0
LINE
  5
91
  8
0
 10
217.2722739889108
 20
118.4890646546728
 30
0.0
 11
226.87227398891071
 21
118.4890646546728
 31
0.0
  0
LINE
  5
92
  8
0
 10
226.87227398891071
 20
112.4890646546728
 30
0.0
 11
226.87227398891071
 21
118.4890646546728
 31
0.0
  0
ARC
  5
93
  8
2
 10
211.83076684474489
 20
121.4890646546729
 30
0.0
 40
2.0
 50
90.0
 51
108.78287089503441
  0
ARC
  5
94
  8
2
 10
201.2722739889108
 20
110.9305717988386
 30
0.0
 40
2.0
 50
161.21712910496541
 51
180.0
  0
LINE
  5
95
  8
0
 10
226.87227398890801
 20
178.4890646546728
 30
0.0
 11
227.87227398890789
 21
177.4890646546728
 31
0.0
  0
LINE
  5
96
  8
0
 10
227.87227398890789
 20
173.48906465467289
 30
0.0
 11
226.87227398890801
 21
172.48906465467289
 31
0.0
  0
LINE
  5
97
  8
3
 10
217.27227398891071
 20
173.03056465467279
 30
0.0
 11
227.41377398890779
 21
173.03056465467279
 31
0.0
  0
LINE
  5
98
  8
3
 10
217.27227398891071
 20
177.94756465467299
 30
0.0
 11
227.41377398890779
 21
177.94756465467299
 31
0.0
  0
LINE
  5
99
  8
1
 10
200.2722739889108
 20
175.4890646546728
 30
0.0
 11
230.87227398890801
 21
175.4890646546728
 31
0.0
  0
LINE
  5
9A
  8
0
 10
227.87227398890789
 20
177.4890646546728
 30
0.0
 11
227.87227398890789
 21
173.48906465467289
 31
0.0
  0
ARC
  5
9B
  8
2
 10
217.27227398891071
 20
185.48906465467289
 30
0.0
 40
18.900000000000201
 50
198.78287089503419
 51
251.21712910496541
  0
LINE
  5
9C
  8
1
 10
207.27227398891071
 20
168.48906465467289
 30
0.0
 11
207.27227398891071
 21
199.0890646546728
 31
0.0
  0
LINE
  5
9D
  8
2
 10
217.27227398891071
 20
167.48906465467289
 30
0.0
 11
217.27227398891071
 21
185.48906465467289
 31
0.0
  0
LINE
  5
9E
  8
2
 10
214.87227398891071
 20
182.0890646546728
 30
0.0
 11
214.87227398891071
 21
167.48906465467289
 31
0.0
  0
LINE
  5
9F
  8
0
 10
217.27227398891071
 20
165.48906465467289
 30
0.0
 11
217.27227398891071
 21
185.48906465467289
 31
0.0
  0
ARC
  5
A0
  8
0
 10
217.27227398891071
 20
185.48906465467289
 30
0.0
 40
20.0
 50
180.0
 51
270.0
  0
LINE
  5
A1
  8
2
 10
215.07227398891069
 20
167.59557353041239
 30
0.0
 11
217.07227398891069
 21
167.59557353041239
 31
0.0
  0
LINE
  5
A2
  8
2
 10
217.27227398891071
 20
167.48906465467289
 30
0.0
 11
211.83076684474489
 21
167.48906465467289
 31
0.0
  0
ARC
  5
A3
  8
2
 10
211.83076684474489
 20
169.48906465467289
 30
0.0
 40
2.0
 50
251.21712910496541
 51
270.0
  0
LINE
  5
A4
  8
0
 10
205.2722739889108
 20
196.0890646546728
 30
0.0
 11
209.27227398891071
 21
196.0890646546728
 31
0.0
  0
CIRCLE
  5
A5
  8
2
 10
207.27227398891071
 20
175.48906465467289
 30
0.0
 40
3.0
  0
LINE
  5
A6
  8
0
 10
210.27227398891071
 20
195.0890646546728
 30
0.0
 11
204.2722739889108
 21
195.0890646546728
 31
0.0
  0
LINE
  5
A7
  8
2
 10
199.2722739889106
 20
185.48906465467289
 30
0.0
 11
217.27227398891071
 21
185.48906465467289
 31
0.0
  0
LINE
  5
A8
  8
2
 10
213.87227398891071
 20
183.0890646546728
 30
0.0
 11
199.2722739889106
 21
183.0890646546728
 31
0.0
  0
LINE
  5
A9
  8
0
 10
217.2722739889106
 20
185.48906465467289
 30
0.0
 11
197.2722739889106
 21
185.48906465467289
 31
0.0
  0
LINE
  5
AA
  8
2
 10
217.07227398891069
 20
180.047557510507
 30
0.0
 11
215.07227398891069
 21
180.047557510507
 31
0.0
  0
LINE
  5
AB
  8
0
 10
217.2722739889106
 20
172.48906465467289
 30
0.0
 11
226.87227398890801
 21
172.48906465467289
 31
0.0
  0
LINE
  5
AC
  8
0
 10
217.2722739889106
 20
178.48906465467289
 30
0.0
 11
226.87227398890801
 21
178.48906465467289
 31
0.0
  0
LINE
  5
AD
  8
0
 10
226.87227398890801
 20
172.48906465467289
 30
0.0
 11
226.87227398890801
 21
178.4890646546728
 31
0.0
  0
LINE
  5
AE
  8
2
 10
211.830766844745
 20
185.28906465467259
 30
0.0
 11
211.830766844745
 21
183.28906465467259
 31
0.0
  0
LINE
  5
AF
  8
2
 10
213.2722739889106
 20
181.48906465467289
 30
0.0
 11
213.2722739889106
 21
183.0890646546728
 31
0.0
  0
ARC
  5
B0
  8
2
 10
213.87227398891071
 20
182.0890646546728
 30
0.0
 40
1.0
 50
0.0
 51
90.0
  0
LINE
  5
B1
  8
2
 10
213.2722739889106
 20
181.48906465467289
 30
0.0
 11
214.87227398891071
 21
181.48906465467289
 31
0.0
  0
LINE
  5
B2
  8
3
 10
209.73077398891081
 20
185.48906465467289
 30
0.0
 11
209.73077398891081
 21
195.6305646546727
 31
0.0
  0
LINE
  5
B3
  8
0
 10
210.27227398891071
 20
185.48906465467289
 30
0.0
 11
210.27227398891071
 21
195.0890646546728
 31
0.0
  0
LINE
  5
B4
  8
0
 10
209.27227398891071
 20
196.0890646546728
 30
0.0
 11
210.27227398891071
 21
195.0890646546728
 31
0.0
  0
LINE
  5
B5
  8
2
 10
199.2722739889106
 20
185.48906465467289
 30
0.0
 11
199.2722739889106
 21
180.047557510507
 31
0.0
  0
LINE
  5
B6
  8
2
 10
199.3787828646503
 20
183.28906465467301
 30
0.0
 11
199.3787828646503
 21
185.2890646546731
 31
0.0
  0
ARC
  5
B7
  8
2
 10
201.2722739889106
 20
180.047557510507
 30
0.0
 40
2.0
 50
180.0
 51
198.78287089503439
  0
LINE
  5
B8
  8
0
 10
204.27227398891071
 20
185.48906465467289
 30
0.0
 11
204.27227398891071
 21
195.0890646546728
 31
0.0
  0
LINE
  5
B9
  8
3
 10
204.81377398891061
 20
185.48906465467289
 30
0.0
 11
204.81377398891061
 21
195.6305646546727
 31
0.0
  0
LINE
  5
BA
  8
0
 10
204.2722739889108
 20
195.0890646546728
 30
0.0
 11
205.2722739889108
 21
196.0890646546728
 31
0.0
  0
TEXT
  5
175
  8
0
 62
     3
 10
0.0
 20
0.0
 30
0.0
 40
10.0
  1
L5-EJUR2020
  7
STANDARD1
  0
ENDSEC
  0
EOF
