  0
SECTION
  2
HEADER
  9
$ACADVER
  1
AC1009
  9
$INSBASE
 10
9.3396617133944346
 20
25.611212100364579
 30
0.0
  9
$EXTMIN
 10
0.0
 20
-2.960436562073669
 30
0.0
  9
$EXTMAX
 10
349.30388349603157
 20
225.6799880447798
 30
0.0
  9
$LIMMIN
 10
0.0
 20
0.0
  9
$LIMMAX
 10
275.0
 20
175.0
  9
$ORTHOMODE
 70
     1
  9
$REGENMODE
 70
     1
  9
$FILLMODE
 70
     1
  9
$QTEXTMODE
 70
     0
  9
$MIRRTEXT
 70
     0
  9
$DRAGMODE
 70
     2
  9
$LTSCALE
 40
10.0
  9
$OSMODE
 70
  3071
  9
$ATTMODE
 70
     1
  9
$TEXTSIZE
 40
0.2
  9
$TRACEWID
 40
0.05
  9
$TEXTSTYLE
  7
STANDARD
  9
$CLAYER
  8
0
  9
$CELTYPE
  6
BYLAYER
  9
$CECOLOR
 62
   256
  9
$DIMSCALE
 40
1.0
  9
$DIMASZ
 40
3.0
  9
$DIMEXO
 40
0.0625
  9
$DIMDLI
 40
0.38
  9
$DIMRND
 40
0.0
  9
$DIMDLE
 40
0.0
  9
$DIMEXE
 40
0.18
  9
$DIMTP
 40
0.0
  9
$DIMTM
 40
0.0
  9
$DIMTXT
 40
3.0
  9
$DIMCEN
 40
0.09
  9
$DIMTSZ
 40
0.0
  9
$DIMTOL
 70
     0
  9
$DIMLIM
 70
     0
  9
$DIMTIH
 70
     1
  9
$DIMTOH
 70
     1
  9
$DIMSE1
 70
     0
  9
$DIMSE2
 70
     0
  9
$DIMTAD
 70
     0
  9
$DIMZIN
 70
     0
  9
$DIMBLK
  1

  9
$DIMASO
 70
     1
  9
$DIMSHO
 70
     1
  9
$DIMPOST
  1

  9
$DIMAPOST
  1

  9
$DIMALT
 70
     0
  9
$DIMALTD
 70
     2
  9
$DIMALTF
 40
25.399999999999999
  9
$DIMLFAC
 40
1.0
  9
$DIMTOFL
 70
     0
  9
$DIMTVP
 40
0.0
  9
$DIMTIX
 70
     0
  9
$DIMSOXD
 70
     0
  9
$DIMSAH
 70
     0
  9
$DIMBLK1
  1

  9
$DIMBLK2
  1

  9
$DIMSTYLE
  2
STANDARD
  9
$DIMCLRD
 70
     0
  9
$DIMCLRE
 70
     0
  9
$DIMCLRT
 70
     0
  9
$DIMTFAC
 40
1.0
  9
$DIMGAP
 40
0.09
  9
$LUNITS
 70
     2
  9
$LUPREC
 70
     4
  9
$SKETCHINC
 40
0.1
  9
$FILLETRAD
 40
0.0
  9
$AUNITS
 70
     0
  9
$AUPREC
 70
     0
  9
$MENU
  1
E:\r13\win\SUPPORT\ACAD
  9
$ELEVATION
 40
0.0
  9
$PELEVATION
 40
0.0
  9
$THICKNESS
 40
0.0
  9
$LIMCHECK
 70
     0
  9
$BLIPMODE
 70
     0
  9
$CHAMFERA
 40
0.0
  9
$CHAMFERB
 40
0.0
  9
$SKPOLY
 70
     0
  9
$TDCREATE
 40
2450444.4225930562
  9
$TDUPDATE
 40
2456597.5466265511
  9
$TDINDWG
 40
0.0007380787
  9
$TDUSRTIMER
 40
0.0007380787
  9
$USRTIMER
 70
     1
  9
$ANGBASE
 50
0.0
  9
$ANGDIR
 70
     0
  9
$PDMODE
 70
     0
  9
$PDSIZE
 40
0.0
  9
$PLINEWID
 40
0.0
  9
$COORDS
 70
     1
  9
$SPLFRAME
 70
     0
  9
$SPLINETYPE
 70
     6
  9
$SPLINESEGS
 70
     8
  9
$ATTDIA
 70
     0
  9
$ATTREQ
 70
     1
  9
$HANDLING
 70
     1
  9
$HANDSEED
  5
2DBE
  9
$SURFTAB1
 70
     6
  9
$SURFTAB2
 70
     6
  9
$SURFTYPE
 70
     6
  9
$SURFU
 70
     6
  9
$SURFV
 70
     6
  9
$UCSNAME
  2

  9
$UCSORG
 10
0.0
 20
0.0
 30
0.0
  9
$UCSXDIR
 10
1.0
 20
0.0
 30
0.0
  9
$UCSYDIR
 10
0.0
 20
1.0
 30
0.0
  9
$PUCSNAME
  2

  9
$PUCSORG
 10
0.0
 20
0.0
 30
0.0
  9
$PUCSXDIR
 10
1.0
 20
0.0
 30
0.0
  9
$PUCSYDIR
 10
0.0
 20
1.0
 30
0.0
  9
$USERI1
 70
     4
  9
$USERI2
 70
     1
  9
$USERI3
 70
     0
  9
$USERI4
 70
     0
  9
$USERI5
 70
     0
  9
$USERR1
 40
1.0
  9
$USERR2
 40
3.0
  9
$USERR3
 40
3.0
  9
$USERR4
 40
3.0
  9
$USERR5
 40
10.0
  9
$WORLDVIEW
 70
     1
  9
$SHADEDGE
 70
     3
  9
$SHADEDIF
 70
    70
  9
$TILEMODE
 70
     1
  9
$MAXACTVP
 70
    16
  9
$PLIMCHECK
 70
     0
  9
$PEXTMIN
 10
1.0000000000000000E+020
 20
1.0000000000000000E+020
 30
1.0000000000000000E+020
  9
$PEXTMAX
 10
-1.0000000000000000E+020
 20
-1.0000000000000000E+020
 30
-1.0000000000000000E+020
  9
$PLIMMIN
 10
0.0
 20
0.0
  9
$PLIMMAX
 10
12.0
 20
9.0
  9
$UNITMODE
 70
     0
  9
$VISRETAIN
 70
     0
  9
$PLINEGEN
 70
     0
  9
$PSLTSCALE
 70
     1
  0
ENDSEC
  0
SECTION
  2
TABLES
  0
TABLE
  2
VPORT
 70
     1
  0
VPORT
  2
*ACTIVE
 70
     0
 10
0.0
 20
0.0
 11
1.0
 21
1.0
 12
174.65194256130229
 22
135.9431609509283
 13
0.0
 23
0.0
 14
5.0
 24
5.0
 15
0.0
 25
0.0
 16
0.0
 26
0.0
 36
1.0
 17
0.0
 27
0.0
 37
0.0
 40
280.45131439888138
 41
1.9089595375722539
 42
50.0
 43
0.0
 44
0.0
 50
0.0
 51
0.0
 71
     0
 72
   100
 73
     1
 74
     0
 75
     0
 76
     0
 77
     0
 78
     0
  0
ENDTAB
  0
TABLE
  2
LTYPE
 70
     3
  0
LTYPE
  2
CONTINUOUS
 70
     0
  3
Solid Line
 72
    65
 73
     0
 40
0.0
  0
LTYPE
  2
CENTER
 70
     0
  3
____ _ ____ _ ____ _ ____ _ ____ _ ____ _ ____
 72
    65
 73
     4
 40
2.0
 49
1.25
 49
-0.25
 49
0.25
 49
-0.25
  0
LTYPE
  2
PHANTOM2
 70
     0
  3
___ _ _ ___ _ _ ___ _ _ ___ _ _
 72
    65
 73
     6
 40
1.25
 49
0.625
 49
-0.125
 49
0.125
 49
-0.125
 49
0.125
 49
-0.125
  0
ENDTAB
  0
TABLE
  2
LAYER
 70
     1
  0
LAYER
  2
0
 70
     0
 62
     7
  6
CONTINUOUS
  0
ENDTAB
  0
TABLE
  2
STYLE
 70
     2
  0
STYLE
  2
STANDARD
 70
     0
 40
0.0
 41
1.0
 50
0.0
 71
     0
 42
0.2
  3
SIMPLEX
  4
BIGFONT
  0
STYLE
  2
STANDARD1
 70
     0
 40
0.0
 41
1.0
 50
0.0
 71
     0
 42
3.0
  3
txt
  4

  0
ENDTAB
  0
TABLE
  2
VIEW
 70
     0
  0
ENDTAB
  0
TABLE
  2
UCS
 70
     0
  0
ENDTAB
  0
TABLE
  2
APPID
 70
     3
  0
APPID
  2
ACAD
 70
     0
  0
APPID
  2
ACAD_MLEADERVER
 70
     0
  0
APPID
  2
ACAD_NAV_VCDISPLAY
 70
     0
  0
ENDTAB
  0
TABLE
  2
DIMSTYLE
 70
     1
  0
DIMSTYLE
  2
STANDARD
 70
     0
  3

  4

  5

  6

  7

 40
1.0
 41
0.18
 42
0.0625
 43
0.38
 44
0.18
 45
0.0
 46
0.0
 47
0.0
 48
0.0
140
0.18
141
0.09
142
0.0
143
25.399999999999999
144
1.0
145
0.0
146
1.0
147
0.09
 71
     0
 72
     0
 73
     1
 74
     1
 75
     0
 76
     0
 77
     0
 78
     0
170
     0
171
     2
172
     0
173
     0
174
     0
175
     0
176
     0
177
     0
178
     0
  0
ENDTAB
  0
ENDSEC
  0
SECTION
  2
BLOCKS
  0
BLOCK
  8
0
  2
$MODEL_SPACE
 70
     0
 10
0.0
 20
0.0
 30
0.0
  3
$MODEL_SPACE
  1

  0
ENDBLK
  5
2C81
  8
0
  0
BLOCK
 67
     1
  8
0
  2
$PAPER_SPACE
 70
     0
 10
0.0
 20
0.0
 30
0.0
  3
$PAPER_SPACE
  1

  0
ENDBLK
  5
2C7F
 67
     1
  8
0
  0
ENDSEC
  0
SECTION
  2
ENTITIES
  0
LINE
  5
2AE7
  8
0
  6
CONTINUOUS
 62
     7
 10
282.39249045553862
 20
144.09879834547669
 30
0.0
 11
299.63107101207578
 21
144.09879834547669
 31
0.0
  0
ARC
  5
2AE6
  8
0
  6
CONTINUOUS
 62
     7
 10
299.63107101207578
 20
148.09879834547669
 30
0.0
 40
4.0
 50
270.0
 51
0.0
  0
LINE
  5
2AE5
  8
0
  6
CONTINUOUS
 62
     7
 10
303.63107101207578
 20
148.09879834547669
 30
0.0
 11
303.63107101207578
 21
156.55963412076051
 31
0.0
  0
ARC
  5
2AE4
  8
0
  6
CONTINUOUS
 62
     7
 10
301.63107101207589
 20
156.55963412076051
 30
0.0
 40
1.9999999999998861
 50
359.99999999999841
 51
44.999999909222772
  0
LINE
  5
2AE3
  8
0
  6
CONTINUOUS
 62
     7
 10
303.0452845766896
 20
157.9738476808929
 30
0.0
 11
288.48483935918699
 21
172.53429294453281
 31
0.0
  0
ARC
  5
2AE2
  8
0
  6
CONTINUOUS
 62
     7
 10
285.65641222995959
 20
169.70586582426779
 30
0.0
 40
3.999999999999992
 50
44.999999909224492
 51
134.9999996505845
  0
LINE
  5
2AE1
  8
0
  6
CONTINUOUS
 62
     7
 10
282.82798512246251
 20
172.534292966263
 30
0.0
 11
279.0452845658308
 21
168.75159245576859
 31
0.0
  0
ARC
  5
2AE0
  8
0
  6
CONTINUOUS
 62
     7
 10
277.6310710120822
 20
170.16580602676629
 30
0.0
 40
1.999999999999976
 50
180.0
 51
314.99999965058339
  0
LINE
  5
2ADF
  8
0
  6
CONTINUOUS
 62
     7
 10
275.6310710120822
 20
170.16580602676629
 30
0.0
 11
275.6310710120822
 21
172.16580602676319
 31
0.0
  0
ARC
  5
2ADE
  8
0
  6
CONTINUOUS
 62
     7
 10
279.6310710120822
 20
172.16580602676319
 30
0.0
 40
4.000000000000056
 50
90.0
 51
180.0
  0
LINE
  5
2ADD
  8
0
  6
CONTINUOUS
 62
     7
 10
279.6310710120822
 20
176.16580602676319
 30
0.0
 11
286.02489910607312
 21
176.16580602676319
 31
0.0
  0
ARC
  5
2ADC
  8
0
  6
CONTINUOUS
 62
     7
 10
286.02489910607312
 20
172.16580602676319
 30
0.0
 40
4.0
 50
45.0
 51
90.0
  0
LINE
  5
2ADB
  8
0
  6
CONTINUOUS
 62
     7
 10
288.85332623081928
 20
174.99423315150941
 30
0.0
 11
304.45949813682199
 21
159.38806124550669
 31
0.0
  0
ARC
  5
2ADA
  8
0
  6
CONTINUOUS
 62
     7
 10
301.63107101207578
 20
156.55963412076051
 30
0.0
 40
3.9999999999999512
 50
0.0
 51
45.0
  0
LINE
  5
2AD9
  8
0
  6
CONTINUOUS
 62
     7
 10
305.63107101207578
 20
156.55963412076051
 30
0.0
 11
305.63107101207578
 21
138.16580602676939
 31
0.0
  0
ARC
  5
2AD8
  8
0
  6
CONTINUOUS
 62
     7
 10
303.63107101207578
 20
138.16580602676939
 30
0.0
 40
2.0
 50
270.0
 51
0.0
  0
LINE
  5
2AD7
  8
0
  6
CONTINUOUS
 62
     7
 10
303.63107101207578
 20
136.1658060267695
 30
0.0
 11
293.93107101207892
 21
136.1658060267695
 31
0.0
  0
ARC
  5
2AD6
  8
0
  6
CONTINUOUS
 62
     7
 10
293.93107101207892
 20
136.96580602676951
 30
0.0
 40
0.8000000000000113
 50
179.99999999999591
 51
270.0
  0
LINE
  5
2AD5
  8
0
  6
CONTINUOUS
 62
     7
 10
293.13107101207902
 20
136.96580602676951
 30
0.0
 11
293.13107101207902
 21
137.66580602676939
 31
0.0
  0
ARC
  5
2AD4
  8
0
  6
CONTINUOUS
 62
     7
 10
293.43107101207897
 20
137.66580602676939
 30
0.0
 40
0.2999999999999545
 50
90.0
 51
180.0
  0
LINE
  5
2AD3
  8
0
  6
CONTINUOUS
 62
     7
 10
293.43107101207897
 20
137.9658060267694
 30
0.0
 11
295.62690795604482
 21
137.9658060267694
 31
0.0
  0
ARC
  5
2AD2
  8
0
  6
CONTINUOUS
 62
     7
 10
295.62690795604482
 20
138.7658060267695
 30
0.0
 40
0.8000000000000682
 50
270.0
 51
45.0
  0
LINE
  5
2AD1
  8
0
  6
CONTINUOUS
 62
     7
 10
296.19259338099403
 20
139.3314914517187
 30
0.0
 11
293.88695846238352
 21
141.6371263703291
 31
0.0
  0
ARC
  5
2AD0
  8
0
  6
CONTINUOUS
 62
     7
 10
291.76563811882392
 20
139.51580602676941
 30
0.0
 40
3.0000000000000639
 50
45.000000000000767
 51
90.0
  0
LINE
  5
2ACF
  8
0
  6
CONTINUOUS
 62
     7
 10
291.76563811882392
 20
142.5158060267695
 30
0.0
 11
289.49650390533412
 21
142.5158060267695
 31
0.0
  0
ARC
  5
2ACE
  8
0
  6
CONTINUOUS
 62
     7
 10
289.49650390533401
 20
139.5158060267695
 30
0.0
 40
3.0
 50
89.999999999998906
 51
135.00000000000071
  0
LINE
  5
2ACD
  8
0
  6
CONTINUOUS
 62
     7
 10
287.37518356177429
 20
141.6371263703291
 30
0.0
 11
285.06954864316413
 21
139.3314914517187
 31
0.0
  0
ARC
  5
2ACC
  8
0
  6
CONTINUOUS
 62
     7
 10
285.63523406811328
 20
138.7658060267695
 30
0.0
 40
0.7999999999999984
 50
134.9999999999971
 51
270.0
  0
LINE
  5
2ACB
  8
0
  6
CONTINUOUS
 62
     7
 10
285.63523406811328
 20
137.96580602676951
 30
0.0
 11
287.83107101207929
 21
137.9658060267694
 31
0.0
  0
ARC
  5
2ACA
  8
0
  6
CONTINUOUS
 62
     7
 10
287.83107101207929
 20
137.66580602676939
 30
0.0
 40
0.2999999999999545
 50
359.99999999997829
 51
90.0
  0
LINE
  5
2AC9
  8
0
  6
CONTINUOUS
 62
     7
 10
288.13107101207919
 20
137.6658060267693
 30
0.0
 11
288.13107101207902
 21
136.9658060267692
 31
0.0
  0
ARC
  5
2AC8
  8
0
  6
CONTINUOUS
 62
     7
 10
287.33107101207901
 20
136.96580602676951
 30
0.0
 40
0.8000000000000113
 50
270.0
 51
359.99999999997971
  0
LINE
  5
2AC7
  8
0
  6
CONTINUOUS
 62
     7
 10
287.33107101207901
 20
136.1658060267695
 30
0.0
 11
277.63107101208539
 21
136.1658060267695
 31
0.0
  0
ARC
  5
2AC6
  8
0
  6
CONTINUOUS
 62
     7
 10
277.63107101208539
 20
138.16580602676939
 30
0.0
 40
2.0
 50
135.0
 51
270.0
  0
LINE
  5
2AC5
  8
0
  6
CONTINUOUS
 62
     7
 10
276.21685744971228
 20
139.58001958914261
 30
0.0
 11
279.56406333079241
 21
142.92722547022279
 31
0.0
  0
ARC
  5
2AC4
  8
0
  6
CONTINUOUS
 62
     7
 10
282.39249045553862
 20
140.09879834547661
 30
0.0
 40
3.999999999999992
 50
90.0
 51
135.0000000000006
  0
ARC
  5
2AC3
  8
0
  6
CONTINUOUS
 62
     7
 10
281.63107101208061
 20
140.16580602676939
 30
0.0
 40
1.6500000000000341
 50
180.0
 51
0.0
  0
ARC
  5
2AC2
  8
0
  6
CONTINUOUS
 62
     7
 10
281.63107101208061
 20
140.16580602676939
 30
0.0
 40
1.649999999999977
 50
0.0
 51
180.0
  0
ARC
  5
2AC1
  8
0
  6
CONTINUOUS
 62
     7
 10
299.63107101208061
 20
140.1497252025456
 30
0.0
 40
1.649999999999977
 50
180.0
 51
0.0
  0
ARC
  5
2AC0
  8
0
  6
CONTINUOUS
 62
     7
 10
299.63107101208061
 20
140.1497252025456
 30
0.0
 40
1.649999999999977
 50
0.0
 51
180.0
  0
ARC
  5
2ABF
  8
0
  6
CONTINUOUS
 62
     7
 10
279.1310710120822
 20
172.70198002989801
 30
0.0
 40
1.649999999999977
 50
0.0
 51
180.0
  0
ARC
  5
2ABE
  8
0
  6
CONTINUOUS
 62
     7
 10
279.1310710120822
 20
172.70198002989801
 30
0.0
 40
1.6500000000000341
 50
180.0
 51
0.0
  0
LINE
  5
2B67
  8
0
  6
CONTINUOUS
 62
     7
 10
275.63107101208539
 20
110.80245397446561
 30
0.0
 11
305.63107101207578
 21
110.80245397446561
 31
0.0
  0
LINE
  5
2B71
  8
0
  6
CENTER
 62
     1
 10
290.63107101207902
 20
147.09879834547669
 30
0.0
 11
290.63107101207902
 21
133.1658060267695
 31
0.0
  0
LINE
  5
2B72
  8
0
  6
CONTINUOUS
 62
     7
 10
324.30388349603169
 20
176.16580602676331
 30
0.0
 11
324.30388349603157
 21
136.1658060267695
 31
0.0
  0
LINE
  5
2B77
  8
0
  6
CONTINUOUS
 62
     7
 10
275.63107101208539
 20
200.67998804477969
 30
0.0
 11
305.63107101207578
 21
200.6799880447798
 31
0.0
  0
LINE
  5
2B80
  8
0
  6
CONTINUOUS
 62
     7
 10
249.57534320044221
 20
176.16580602676331
 30
0.0
 11
249.57534320044221
 21
136.1658060267695
 31
0.0
  0
LINE
  5
2BD9
  8
0
  6
CONTINUOUS
 62
     7
 10
349.30388349603157
 20
176.16580602676331
 30
0.0
 11
349.30388349603157
 21
136.1658060267695
 31
0.0
  0
LINE
  5
2BDA
  8
0
  6
CONTINUOUS
 62
     7
 10
224.57534320044221
 20
176.16580602676319
 30
0.0
 11
224.57534320044221
 21
136.16580602676939
 31
0.0
  0
LINE
  5
2BDB
  8
0
  6
CONTINUOUS
 62
     7
 10
275.6310710120855
 20
225.67998804477969
 30
0.0
 11
305.63107101207589
 21
225.67998804477969
 31
0.0
  0
LINE
  5
2BDC
  8
0
  6
CONTINUOUS
 62
     7
 10
275.63107101208539
 20
85.802453974465607
 30
0.0
 11
305.63107101207578
 21
85.802453974465607
 31
0.0
  0
LINE
  5
2B82
  8
0
  6
CONTINUOUS
 62
     7
 10
224.57534320044221
 20
176.16580602676319
 30
0.0
 11
249.57534320044221
 21
176.16580602676319
 31
0.0
  0
LINE
  5
2B84
  8
0
  6
CONTINUOUS
 62
     7
 10
249.57534320044221
 20
168.16580602676629
 30
0.0
 11
224.57534320044221
 21
168.1658060267664
 31
0.0
  0
LINE
  5
2B7E
  8
0
  6
CONTINUOUS
 62
     3
 10
224.57534320044221
 20
156.55963412076051
 30
0.0
 11
249.57534320044221
 21
156.55963412076051
 31
0.0
  0
LINE
  5
2B83
  8
0
  6
CONTINUOUS
 62
     7
 10
249.57534320044209
 20
144.09879834547669
 30
0.0
 11
224.57534320044209
 21
144.09879834547669
 31
0.0
  0
LINE
  5
2B81
  8
0
  6
CONTINUOUS
 62
     7
 10
224.57534320044221
 20
136.1658060267695
 30
0.0
 11
249.57534320044221
 21
136.1658060267695
 31
0.0
  0
LINE
  5
2B78
  8
0
  6
CONTINUOUS
 62
     7
 10
305.63107101207578
 20
200.6799880447798
 30
0.0
 11
305.63107101207578
 21
225.6799880447798
 31
0.0
  0
LINE
  5
2B7C
  8
0
  6
CONTINUOUS
 62
     3
 10
286.02489910607312
 20
200.67998804477969
 30
0.0
 11
286.02489910607312
 21
225.67998804477969
 31
0.0
  0
LINE
  5
2B7B
  8
0
  6
CONTINUOUS
 62
     3
 10
279.6310710120822
 20
200.67998804477969
 30
0.0
 11
279.6310710120822
 21
225.67998804477969
 31
0.0
  0
LINE
  5
2B7A
  8
0
  6
CONTINUOUS
 62
     7
 10
275.63107101208539
 20
200.67998804477969
 30
0.0
 11
275.63107101208539
 21
225.67998804477969
 31
0.0
  0
LINE
  5
2B74
  8
0
  6
CONTINUOUS
 62
     7
 10
324.30388349603169
 20
176.16580602676331
 30
0.0
 11
349.30388349603157
 21
176.16580602676319
 31
0.0
  0
LINE
  5
2B75
  8
0
  6
CONTINUOUS
 62
     3
 10
324.30388349603157
 20
156.55963412076059
 30
0.0
 11
349.30388349603157
 21
156.55963412076051
 31
0.0
  0
LINE
  5
2B73
  8
0
  6
CONTINUOUS
 62
     7
 10
324.30388349603157
 20
136.1658060267695
 30
0.0
 11
349.30388349603157
 21
136.1658060267695
 31
0.0
  0
LINE
  5
2B68
  8
0
  6
CONTINUOUS
 62
     7
 10
305.63107101207578
 20
110.80245397446561
 30
0.0
 11
305.63107101207578
 21
85.802453974465621
 31
0.0
  0
LINE
  5
2B69
  8
0
  6
CONTINUOUS
 62
     7
 10
293.13107101207902
 20
110.80245397446561
 30
0.0
 11
293.13107101207908
 21
85.802453974465621
 31
0.0
  0
LINE
  5
2B6A
  8
0
  6
CONTINUOUS
 62
     7
 10
288.13107101207902
 20
110.80245397446561
 30
0.0
 11
288.13107101207902
 21
85.802453974465621
 31
0.0
  0
LINE
  5
2B6B
  8
0
  6
CONTINUOUS
 62
     7
 10
275.63107101208539
 20
110.80245397446561
 30
0.0
 11
275.63107101208539
 21
85.802453974465621
 31
0.0
  0
LINE
  5
2BDD
  8
0
  6
CENTER
 62
     1
 10
290.63107101207902
 20
113.80245397446561
 30
0.0
 11
290.63107101207902
 21
82.802453974465607
 31
0.0
  0
LINE
  5
2C21
  8
0
  6
CONTINUOUS
 62
     7
 10
116.55568910409799
 20
144.09879834547669
 30
0.0
 11
99.317108547560792
 21
144.09879834547669
 31
0.0
  0
ARC
  5
2C20
  8
0
  6
CONTINUOUS
 62
     7
 10
99.317108547560792
 20
148.09879834547669
 30
0.0
 40
4.0
 50
180.0
 51
270.0
  0
LINE
  5
2C1F
  8
0
  6
CONTINUOUS
 62
     7
 10
95.317108547560792
 20
148.09879834547669
 30
0.0
 11
95.317108547560792
 21
156.55963412076051
 31
0.0
  0
ARC
  5
2C1E
  8
0
  6
CONTINUOUS
 62
     7
 10
97.317108547560679
 20
156.55963412076051
 30
0.0
 40
1.9999999999998861
 50
135.00000009077721
 51
180.00000000000159
  0
LINE
  5
2C1D
  8
0
  6
CONTINUOUS
 62
     7
 10
95.902894982947032
 20
157.9738476808929
 30
0.0
 11
110.46334020044969
 21
172.53429294453281
 31
0.0
  0
ARC
  5
2C1C
  8
0
  6
CONTINUOUS
 62
     7
 10
113.291767329677
 20
169.70586582426779
 30
0.0
 40
3.999999999999992
 50
45.000000349415458
 51
135.0000000907755
  0
LINE
  5
2C1B
  8
0
  6
CONTINUOUS
 62
     7
 10
116.12019443717421
 20
172.534292966263
 30
0.0
 11
119.9028949938058
 21
168.75159245576859
 31
0.0
  0
ARC
  5
2C1A
  8
0
  6
CONTINUOUS
 62
     7
 10
121.3171085475544
 20
170.16580602676629
 30
0.0
 40
1.999999999999976
 50
225.00000034941661
 51
0.0
  0
LINE
  5
2C19
  8
0
  6
CONTINUOUS
 62
     7
 10
123.3171085475544
 20
170.16580602676629
 30
0.0
 11
123.3171085475544
 21
172.16580602676319
 31
0.0
  0
ARC
  5
2C18
  8
0
  6
CONTINUOUS
 62
     7
 10
119.3171085475544
 20
172.16580602676319
 30
0.0
 40
4.000000000000056
 50
0.0
 51
90.0
  0
LINE
  5
2C17
  8
0
  6
CONTINUOUS
 62
     7
 10
119.3171085475544
 20
176.16580602676319
 30
0.0
 11
112.92328045356351
 21
176.16580602676319
 31
0.0
  0
ARC
  5
2C16
  8
0
  6
CONTINUOUS
 62
     7
 10
112.92328045356351
 20
172.16580602676319
 30
0.0
 40
4.0
 50
90.0
 51
135.0
  0
LINE
  5
2C15
  8
0
  6
CONTINUOUS
 62
     7
 10
110.09485332881729
 20
174.99423315150941
 30
0.0
 11
94.488681422814579
 21
159.38806124550669
 31
0.0
  0
ARC
  5
2C14
  8
0
  6
CONTINUOUS
 62
     7
 10
97.317108547560807
 20
156.55963412076051
 30
0.0
 40
3.9999999999999512
 50
135.0
 51
180.0
  0
LINE
  5
2C13
  8
0
  6
CONTINUOUS
 62
     7
 10
93.317108547560807
 20
156.55963412076051
 30
0.0
 11
93.317108547560807
 21
138.16580602676939
 31
0.0
  0
ARC
  5
2C12
  8
0
  6
CONTINUOUS
 62
     7
 10
95.317108547560792
 20
138.16580602676939
 30
0.0
 40
2.0
 50
180.0
 51
270.0
  0
LINE
  5
2C11
  8
0
  6
CONTINUOUS
 62
     7
 10
95.317108547560792
 20
136.1658060267695
 30
0.0
 11
105.0171085475576
 21
136.1658060267695
 31
0.0
  0
ARC
  5
2C10
  8
0
  6
CONTINUOUS
 62
     7
 10
105.0171085475576
 20
136.96580602676951
 30
0.0
 40
0.8000000000000113
 50
270.0
 51
0.0000000000040711
  0
LINE
  5
2C0F
  8
0
  6
CONTINUOUS
 62
     7
 10
105.81710854755759
 20
136.96580602676951
 30
0.0
 11
105.81710854755759
 21
137.66580602676939
 31
0.0
  0
ARC
  5
2C0E
  8
0
  6
CONTINUOUS
 62
     7
 10
105.5171085475576
 20
137.66580602676939
 30
0.0
 40
0.2999999999999545
 50
0.0
 51
90.0
  0
LINE
  5
2C0D
  8
0
  6
CONTINUOUS
 62
     7
 10
105.5171085475576
 20
137.9658060267694
 30
0.0
 11
103.3212716035919
 21
137.9658060267694
 31
0.0
  0
ARC
  5
2C0C
  8
0
  6
CONTINUOUS
 62
     7
 10
103.3212716035919
 20
138.7658060267695
 30
0.0
 40
0.8000000000000682
 50
135.0
 51
270.0
  0
LINE
  5
2C0B
  8
0
  6
CONTINUOUS
 62
     7
 10
102.7555861786426
 20
139.3314914517187
 30
0.0
 11
105.0612210972531
 21
141.6371263703291
 31
0.0
  0
ARC
  5
2C0A
  8
0
  6
CONTINUOUS
 62
     7
 10
107.1825414408127
 20
139.51580602676941
 30
0.0
 40
3.0000000000000639
 50
90.0
 51
134.9999999999992
  0
LINE
  5
2C09
  8
0
  6
CONTINUOUS
 62
     7
 10
107.1825414408127
 20
142.5158060267695
 30
0.0
 11
109.45167565430251
 21
142.5158060267695
 31
0.0
  0
ARC
  5
2C08
  8
0
  6
CONTINUOUS
 62
     7
 10
109.4516756543026
 20
139.5158060267695
 30
0.0
 40
3.0
 50
44.99999999999924
 51
90.000000000001037
  0
LINE
  5
2C07
  8
0
  6
CONTINUOUS
 62
     7
 10
111.57299599786229
 20
141.6371263703291
 30
0.0
 11
113.8786309164725
 21
139.3314914517187
 31
0.0
  0
ARC
  5
2C06
  8
0
  6
CONTINUOUS
 62
     7
 10
113.31294549152329
 20
138.7658060267695
 30
0.0
 40
0.7999999999999984
 50
270.0
 51
45.000000000002871
  0
LINE
  5
2C05
  8
0
  6
CONTINUOUS
 62
     7
 10
113.31294549152329
 20
137.96580602676951
 30
0.0
 11
111.11710854755729
 21
137.9658060267694
 31
0.0
  0
ARC
  5
2C04
  8
0
  6
CONTINUOUS
 62
     7
 10
111.11710854755729
 20
137.66580602676939
 30
0.0
 40
0.2999999999999545
 50
90.0
 51
180.00000000002171
  0
LINE
  5
2C03
  8
0
  6
CONTINUOUS
 62
     7
 10
110.8171085475573
 20
137.6658060267693
 30
0.0
 11
110.81710854755759
 21
136.9658060267692
 31
0.0
  0
ARC
  5
2C02
  8
0
  6
CONTINUOUS
 62
     7
 10
111.61710854755771
 20
136.96580602676951
 30
0.0
 40
0.8000000000000113
 50
180.00000000002029
 51
270.0
  0
LINE
  5
2C01
  8
0
  6
CONTINUOUS
 62
     7
 10
111.61710854755771
 20
136.1658060267695
 30
0.0
 11
121.3171085475512
 21
136.1658060267695
 31
0.0
  0
ARC
  5
2C00
  8
0
  6
CONTINUOUS
 62
     7
 10
121.3171085475512
 20
138.16580602676939
 30
0.0
 40
2.0
 50
270.0
 51
45.0
  0
LINE
  5
2BFF
  8
0
  6
CONTINUOUS
 62
     7
 10
122.73132210992431
 20
139.58001958914261
 30
0.0
 11
119.38411622884431
 21
142.92722547022279
 31
0.0
  0
ARC
  5
2BFE
  8
0
  6
CONTINUOUS
 62
     7
 10
116.55568910409799
 20
140.09879834547661
 30
0.0
 40
3.999999999999992
 50
44.999999999999403
 51
90.0
  0
ARC
  5
2BFD
  8
0
  6
CONTINUOUS
 62
     7
 10
117.317108547556
 20
140.16580602676939
 30
0.0
 40
1.6500000000000341
 50
180.0
 51
0.0
  0
ARC
  5
2BFC
  8
0
  6
CONTINUOUS
 62
     7
 10
117.317108547556
 20
140.16580602676939
 30
0.0
 40
1.649999999999977
 50
0.0
 51
180.0
  0
ARC
  5
2BFB
  8
0
  6
CONTINUOUS
 62
     7
 10
99.317108547556018
 20
140.1497252025456
 30
0.0
 40
1.649999999999977
 50
180.0
 51
0.0
  0
ARC
  5
2BFA
  8
0
  6
CONTINUOUS
 62
     7
 10
99.317108547556018
 20
140.1497252025456
 30
0.0
 40
1.649999999999977
 50
0.0
 51
180.0
  0
ARC
  5
2BF9
  8
0
  6
CONTINUOUS
 62
     7
 10
119.8171085475544
 20
172.70198002989801
 30
0.0
 40
1.649999999999977
 50
0.0
 51
180.0
  0
ARC
  5
2BF8
  8
0
  6
CONTINUOUS
 62
     7
 10
119.8171085475544
 20
172.70198002989801
 30
0.0
 40
1.6500000000000341
 50
180.0
 51
0.0
  0
LINE
  5
2BF7
  8
0
  6
CONTINUOUS
 62
     7
 10
123.3171085475512
 20
110.80245397446561
 30
0.0
 11
93.317108547560807
 21
110.80245397446561
 31
0.0
  0
LINE
  5
2BF6
  8
0
  6
CENTER
 62
     1
 10
108.31710854755759
 20
147.09879834547669
 30
0.0
 11
108.31710854755759
 21
133.1658060267695
 31
0.0
  0
LINE
  5
2BF5
  8
0
  6
CONTINUOUS
 62
     7
 10
74.644296063604941
 20
176.16580602676331
 30
0.0
 11
74.644296063604997
 21
136.1658060267695
 31
0.0
  0
LINE
  5
2BF4
  8
0
  6
CONTINUOUS
 62
     7
 10
123.3171085475512
 20
200.67998804477969
 30
0.0
 11
93.317108547560807
 21
200.6799880447798
 31
0.0
  0
LINE
  5
2BF3
  8
0
  6
CONTINUOUS
 62
     7
 10
149.37283635919451
 20
176.16580602676331
 30
0.0
 11
149.37283635919451
 21
136.1658060267695
 31
0.0
  0
LINE
  5
2BF2
  8
0
  6
CONTINUOUS
 62
     7
 10
49.644296063604997
 20
176.16580602676331
 30
0.0
 11
49.644296063604997
 21
136.1658060267695
 31
0.0
  0
LINE
  5
2BF1
  8
0
  6
CONTINUOUS
 62
     7
 10
174.37283635919439
 20
176.16580602676319
 30
0.0
 11
174.37283635919451
 21
136.16580602676939
 31
0.0
  0
LINE
  5
2BF0
  8
0
  6
CONTINUOUS
 62
     7
 10
123.3171085475512
 20
225.67998804477969
 30
0.0
 11
93.317108547560736
 21
225.67998804477969
 31
0.0
  0
LINE
  5
2BEF
  8
0
  6
CONTINUOUS
 62
     7
 10
123.3171085475512
 20
85.802453974465607
 30
0.0
 11
93.317108547560807
 21
85.802453974465607
 31
0.0
  0
LINE
  5
2BEE
  8
0
  6
CONTINUOUS
 62
     7
 10
174.37283635919439
 20
176.16580602676319
 30
0.0
 11
149.37283635919451
 21
176.16580602676319
 31
0.0
  0
LINE
  5
2BED
  8
0
  6
CONTINUOUS
 62
     7
 10
149.37283635919451
 20
168.16580602676629
 30
0.0
 11
174.37283635919451
 21
168.1658060267664
 31
0.0
  0
LINE
  5
2BEC
  8
0
  6
CONTINUOUS
 62
     3
 10
174.37283635919439
 20
156.55963412076051
 30
0.0
 11
149.37283635919451
 21
156.55963412076051
 31
0.0
  0
LINE
  5
2BEB
  8
0
  6
CONTINUOUS
 62
     7
 10
149.37283635919451
 20
144.09879834547669
 30
0.0
 11
174.37283635919451
 21
144.09879834547669
 31
0.0
  0
LINE
  5
2BEA
  8
0
  6
CONTINUOUS
 62
     7
 10
174.37283635919439
 20
136.1658060267695
 30
0.0
 11
149.37283635919439
 21
136.1658060267695
 31
0.0
  0
LINE
  5
2BE9
  8
0
  6
CONTINUOUS
 62
     7
 10
93.317108547560807
 20
200.6799880447798
 30
0.0
 11
93.317108547560807
 21
225.6799880447798
 31
0.0
  0
LINE
  5
2BE8
  8
0
  6
CONTINUOUS
 62
     3
 10
112.92328045356351
 20
200.67998804477969
 30
0.0
 11
112.92328045356351
 21
225.67998804477969
 31
0.0
  0
LINE
  5
2BE7
  8
0
  6
CONTINUOUS
 62
     3
 10
119.3171085475544
 20
200.67998804477969
 30
0.0
 11
119.3171085475544
 21
225.67998804477969
 31
0.0
  0
LINE
  5
2BE6
  8
0
  6
CONTINUOUS
 62
     7
 10
123.3171085475512
 20
200.67998804477969
 30
0.0
 11
123.3171085475512
 21
225.67998804477969
 31
0.0
  0
LINE
  5
2BE5
  8
0
  6
CONTINUOUS
 62
     7
 10
74.644296063604941
 20
176.16580602676331
 30
0.0
 11
49.644296063605047
 21
176.16580602676319
 31
0.0
  0
LINE
  5
2BE4
  8
0
  6
CONTINUOUS
 62
     3
 10
74.644296063604997
 20
156.55963412076059
 30
0.0
 11
49.644296063605047
 21
156.55963412076051
 31
0.0
  0
LINE
  5
2BE3
  8
0
  6
CONTINUOUS
 62
     7
 10
74.644296063604997
 20
136.1658060267695
 30
0.0
 11
49.644296063604997
 21
136.1658060267695
 31
0.0
  0
LINE
  5
2BE2
  8
0
  6
CONTINUOUS
 62
     7
 10
93.317108547560807
 20
110.80245397446561
 30
0.0
 11
93.317108547560807
 21
85.802453974465621
 31
0.0
  0
LINE
  5
2BE1
  8
0
  6
CONTINUOUS
 62
     7
 10
105.81710854755759
 20
110.80245397446561
 30
0.0
 11
105.8171085475575
 21
85.802453974465621
 31
0.0
  0
LINE
  5
2BE0
  8
0
  6
CONTINUOUS
 62
     7
 10
110.81710854755759
 20
110.80245397446561
 30
0.0
 11
110.81710854755759
 21
85.802453974465621
 31
0.0
  0
LINE
  5
2BDF
  8
0
  6
CONTINUOUS
 62
     7
 10
123.3171085475512
 20
110.80245397446561
 30
0.0
 11
123.3171085475512
 21
85.802453974465621
 31
0.0
  0
LINE
  5
2BDE
  8
0
  6
CENTER
 62
     1
 10
108.31710854755759
 20
113.80245397446561
 30
0.0
 11
108.31710854755759
 21
82.802453974465607
 31
0.0
  0
TEXT
  5
2D30
  8
0
 62
     3
 10
0.0
 20
0.0
 30
0.0
 40
10.0
  1
L5-GRP4030N-3M
  7
STANDARD1
  0
ENDSEC
  0
EOF
