  0
SECTION
  2
HEADER
  9
$ACADVER
  1
AC1009
  9
$INSBASE
 10
0.0
 20
0.0
 30
0.0
  9
$EXTMIN
 10
0.0
 20
-2.960436562073669
 30
0.0
  9
$EXTMAX
 10
287.99427452479711
 20
162.21740430196141
 30
0.0
  9
$LIMMIN
 10
0.0
 20
0.0
  9
$LIMMAX
 10
270.0
 20
175.0
  9
$ORTHOMODE
 70
     1
  9
$REGENMODE
 70
     1
  9
$FILLMODE
 70
     1
  9
$QTEXTMODE
 70
     0
  9
$MIRRTEXT
 70
     0
  9
$DRAGMODE
 70
     2
  9
$LTSCALE
 40
10.0
  9
$OSMODE
 70
  3071
  9
$ATTMODE
 70
     1
  9
$TEXTSIZE
 40
0.2
  9
$TRACEWID
 40
0.05
  9
$TEXTSTYLE
  7
STANDARD
  9
$CLAYER
  8
CHOKU01
  9
$CELTYPE
  6
BYLAYER
  9
$CECOLOR
 62
   256
  9
$DIMSCALE
 40
1.0
  9
$DIMASZ
 40
3.0
  9
$DIMEXO
 40
2.0
  9
$DIMDLI
 40
0.38
  9
$DIMRND
 40
0.0
  9
$DIMDLE
 40
0.0
  9
$DIMEXE
 40
2.0
  9
$DIMTP
 40
0.0
  9
$DIMTM
 40
0.0
  9
$DIMTXT
 40
5.0
  9
$DIMCEN
 40
0.0
  9
$DIMTSZ
 40
0.0
  9
$DIMTOL
 70
     0
  9
$DIMLIM
 70
     0
  9
$DIMTIH
 70
     0
  9
$DIMTOH
 70
     0
  9
$DIMSE1
 70
     0
  9
$DIMSE2
 70
     0
  9
$DIMTAD
 70
     1
  9
$DIMZIN
 70
     0
  9
$DIMBLK
  1

  9
$DIMASO
 70
     0
  9
$DIMSHO
 70
     0
  9
$DIMPOST
  1

  9
$DIMAPOST
  1

  9
$DIMALT
 70
     0
  9
$DIMALTD
 70
     2
  9
$DIMALTF
 40
25.399999999999999
  9
$DIMLFAC
 40
1.0
  9
$DIMTOFL
 70
     1
  9
$DIMTVP
 40
1.6000000000000001
  9
$DIMTIX
 70
     1
  9
$DIMSOXD
 70
     0
  9
$DIMSAH
 70
     0
  9
$DIMBLK1
  1

  9
$DIMBLK2
  1

  9
$DIMSTYLE
  2
STANDARD
  9
$DIMCLRD
 70
     0
  9
$DIMCLRE
 70
     0
  9
$DIMCLRT
 70
     0
  9
$DIMTFAC
 40
1.0
  9
$DIMGAP
 40
0.5
  9
$LUNITS
 70
     2
  9
$LUPREC
 70
     4
  9
$SKETCHINC
 40
0.1
  9
$FILLETRAD
 40
0.0
  9
$AUNITS
 70
     0
  9
$AUPREC
 70
     4
  9
$MENU
  1
stdgx5
  9
$ELEVATION
 40
0.0
  9
$PELEVATION
 40
0.0
  9
$THICKNESS
 40
0.0
  9
$LIMCHECK
 70
     0
  9
$BLIPMODE
 70
     0
  9
$CHAMFERA
 40
0.0
  9
$CHAMFERB
 40
0.0
  9
$SKPOLY
 70
     0
  9
$TDCREATE
 40
2450849.3755097222
  9
$TDUPDATE
 40
2456597.5467166551
  9
$TDINDWG
 40
0.1200068866
  9
$TDUSRTIMER
 40
0.1200068866
  9
$USRTIMER
 70
     1
  9
$ANGBASE
 50
0.0
  9
$ANGDIR
 70
     0
  9
$PDMODE
 70
     0
  9
$PDSIZE
 40
0.0
  9
$PLINEWID
 40
0.0
  9
$COORDS
 70
     1
  9
$SPLFRAME
 70
     0
  9
$SPLINETYPE
 70
     6
  9
$SPLINESEGS
 70
     8
  9
$ATTDIA
 70
     0
  9
$ATTREQ
 70
     1
  9
$HANDLING
 70
     1
  9
$HANDSEED
  5
3FA
  9
$SURFTAB1
 70
     6
  9
$SURFTAB2
 70
     6
  9
$SURFTYPE
 70
     6
  9
$SURFU
 70
     6
  9
$SURFV
 70
     6
  9
$UCSNAME
  2

  9
$UCSORG
 10
0.0
 20
0.0
 30
0.0
  9
$UCSXDIR
 10
1.0
 20
0.0
 30
0.0
  9
$UCSYDIR
 10
0.0
 20
1.0
 30
0.0
  9
$PUCSNAME
  2

  9
$PUCSORG
 10
0.0
 20
0.0
 30
0.0
  9
$PUCSXDIR
 10
1.0
 20
0.0
 30
0.0
  9
$PUCSYDIR
 10
0.0
 20
1.0
 30
0.0
  9
$USERI1
 70
     0
  9
$USERI2
 70
     1
  9
$USERI3
 70
     0
  9
$USERI4
 70
     0
  9
$USERI5
 70
     0
  9
$USERR1
 40
0.0
  9
$USERR2
 40
0.0
  9
$USERR3
 40
0.0
  9
$USERR4
 40
0.0
  9
$USERR5
 40
0.0
  9
$WORLDVIEW
 70
     1
  9
$SHADEDGE
 70
     3
  9
$SHADEDIF
 70
    70
  9
$TILEMODE
 70
     1
  9
$MAXACTVP
 70
    16
  9
$PLIMCHECK
 70
     0
  9
$PEXTMIN
 10
1.0000000000000000E+020
 20
1.0000000000000000E+020
 30
1.0000000000000000E+020
  9
$PEXTMAX
 10
-1.0000000000000000E+020
 20
-1.0000000000000000E+020
 30
-1.0000000000000000E+020
  9
$PLIMMIN
 10
0.0
 20
0.0
  9
$PLIMMAX
 10
12.0
 20
9.0
  9
$UNITMODE
 70
     0
  9
$VISRETAIN
 70
     0
  9
$PLINEGEN
 70
     1
  9
$PSLTSCALE
 70
     0
  0
ENDSEC
  0
SECTION
  2
TABLES
  0
TABLE
  2
VPORT
 70
     1
  0
VPORT
  2
*ACTIVE
 70
     0
 10
0.0
 20
0.0
 11
1.0
 21
1.0
 12
143.99713793293739
 22
105.14973110994291
 13
0.0
 23
0.0
 14
10.0
 24
10.0
 15
10.0
 25
10.0
 16
0.0
 26
0.0
 36
1.0
 17
0.0
 27
0.0
 37
0.0
 40
218.28380694200069
 41
1.9089595375722539
 42
50.0
 43
0.0
 44
0.0
 50
0.0
 51
0.0
 71
     0
 72
   100
 73
     1
 74
     0
 75
     0
 76
     0
 77
     0
 78
     2
  0
ENDTAB
  0
TABLE
  2
LTYPE
 70
     3
  0
LTYPE
  2
CONTINUOUS
 70
     0
  3
Solid Line
 72
    65
 73
     0
 40
0.0
  0
LTYPE
  2
CENTER
 70
     0
  3
____ _ ____ _ ____ _ ____ _ ____ _ ____ _ ____
 72
    65
 73
     4
 40
2.0
 49
1.25
 49
-0.25
 49
0.25
 49
-0.25
  0
LTYPE
  2
PHANTOM2
 70
     0
  3
___ _ _ ___ _ _ ___ _ _ ___ _ _
 72
    65
 73
     6
 40
1.25
 49
0.625
 49
-0.125
 49
0.125
 49
-0.125
 49
0.125
 49
-0.125
  0
ENDTAB
  0
TABLE
  2
LAYER
 70
     3
  0
LAYER
  2
0
 70
     0
 62
     7
  6
CONTINUOUS
  0
LAYER
  2
CHOKU01
 70
     0
 62
     4
  6
CONTINUOUS
  0
LAYER
  2
DICHTPROFIL_5_2-
 70
     0
 62
     7
  6
CONTINUOUS
  0
ENDTAB
  0
TABLE
  2
STYLE
 70
     2
  0
STYLE
  2
STANDARD
 70
     0
 40
0.0
 41
1.0
 50
0.0
 71
     0
 42
0.2
  3
TXT
  4
BIGFONT
  0
STYLE
  2
STANDARD1
 70
     0
 40
0.0
 41
1.0
 50
0.0
 71
     0
 42
3.0
  3
txt
  4

  0
ENDTAB
  0
TABLE
  2
VIEW
 70
     0
  0
ENDTAB
  0
TABLE
  2
UCS
 70
     0
  0
ENDTAB
  0
TABLE
  2
APPID
 70
     6
  0
APPID
  2
ACAD
 70
     0
  0
APPID
  2
GENIUS_GENODEF_13
 70
     0
  0
APPID
  2
GENIUS_GENOBJ-N-FIL_13
 70
     0
  0
APPID
  2
_FTCNV
 70
     0
  0
APPID
  2
ACAD_MLEADERVER
 70
     0
  0
APPID
  2
ACAD_NAV_VCDISPLAY
 70
     0
  0
ENDTAB
  0
TABLE
  2
DIMSTYLE
 70
     1
  0
DIMSTYLE
  2
STANDARD
 70
     0
  3

  4

  5

  6

  7

 40
1.0
 41
0.18
 42
0.0625
 43
0.38
 44
0.18
 45
0.0
 46
0.0
 47
0.0
 48
0.0
140
0.18
141
0.09
142
0.0
143
25.399999999999999
144
1.0
145
0.0
146
1.0
147
0.09
 71
     0
 72
     0
 73
     1
 74
     1
 75
     0
 76
     0
 77
     0
 78
     0
170
     0
171
     2
172
     0
173
     0
174
     0
175
     0
176
     0
177
     0
178
     0
  0
ENDTAB
  0
ENDSEC
  0
SECTION
  2
BLOCKS
  0
BLOCK
  8
0
  2
$MODEL_SPACE
 70
     0
 10
0.0
 20
0.0
 30
0.0
  3
$MODEL_SPACE
  1

  0
ENDBLK
  5
2E
  8
0
  0
BLOCK
 67
     1
  8
0
  2
$PAPER_SPACE
 70
     0
 10
0.0
 20
0.0
 30
0.0
  3
$PAPER_SPACE
  1

  0
ENDBLK
  5
2C
 67
     1
  8
0
  0
ENDSEC
  0
SECTION
  2
ENTITIES
  0
LINE
  5
5F
  8
0
  6
CONTINUOUS
 62
     7
 10
187.99427452479691
 20
23.790372857671191
 30
0.0
 11
187.99427452479691
 21
18.191761772212541
 31
0.0
  0
LINE
  5
60
  8
0
  6
CONTINUOUS
 62
     7
 10
148.76863199504811
 20
57.217404301961409
 30
0.0
 11
154.76863199504811
 21
57.217404301961409
 31
0.0
  0
LINE
  5
61
  8
0
  6
CONTINUOUS
 62
     7
 10
148.80067716295051
 20
157.21740430196141
 30
0.0
 11
154.76863199504811
 21
157.21740430196141
 31
0.0
  0
LINE
  5
62
  8
0
  6
CONTINUOUS
 62
     7
 10
287.99427452479699
 20
23.790372857671191
 30
0.0
 11
287.99427452479699
 21
18.191761772212541
 31
0.0
  0
LINE
  5
63
  8
0
  6
CONTINUOUS
 62
     7
 10
115.543031995048
 20
23.790372857671191
 30
0.0
 11
115.543031995048
 21
18.191761772212541
 31
0.0
  0
LINE
  5
64
  8
0
  6
CONTINUOUS
 62
     7
 10
15.543031995048009
 20
23.790372857671191
 30
0.0
 11
15.543031995048009
 21
18.191761772212541
 31
0.0
  0
LINE
  5
65
  8
0
  6
CONTINUOUS
 62
     7
 10
187.99427452479699
 20
23.790372857671191
 30
0.0
 11
287.99427452479699
 21
23.790372857671169
 31
0.0
  0
LINE
  5
66
  8
0
  6
CONTINUOUS
 62
     7
 10
187.99427452479691
 20
22.9310184512475
 30
0.0
 11
287.99427452479711
 21
22.9310184512475
 31
0.0
  0
LINE
  5
67
  8
0
  6
CONTINUOUS
 62
     7
 10
187.99427452479691
 20
19.191761772212541
 30
0.0
 11
287.99427452479711
 21
19.191761772212569
 31
0.0
  0
LINE
  5
68
  8
0
  6
CONTINUOUS
 62
     7
 10
187.99427452479691
 20
18.191761772212541
 30
0.0
 11
287.99427452479711
 21
18.191761772212558
 31
0.0
  0
LINE
  5
69
  8
0
  6
CONTINUOUS
 62
     7
 10
115.543031995048
 20
23.790372857671191
 30
0.0
 11
15.543031995048009
 21
23.790372857671152
 31
0.0
  0
LINE
  5
6A
  8
0
  6
CONTINUOUS
 62
     7
 10
115.543031995048
 20
21.958688138890931
 30
0.0
 11
15.54303199504804
 21
21.958688138890949
 31
0.0
  0
LINE
  5
6B
  8
0
  6
CONTINUOUS
 62
     7
 10
115.543031995048
 20
18.19176177221253
 30
0.0
 11
15.543031995048009
 21
18.19176177221253
 31
0.0
  0
LINE
  5
6C
  8
0
  6
CONTINUOUS
 62
     7
 10
115.543031995048
 20
20.15676177221253
 30
0.0
 11
15.543031995048009
 21
20.15676177221253
 31
0.0
  0
LINE
  5
6D
  8
0
  6
CONTINUOUS
 62
     7
 10
154.76863199504811
 20
57.217404301961409
 30
0.0
 11
154.76863199504811
 21
157.21740430196141
 31
0.0
  0
LINE
  5
6E
  8
0
  6
CONTINUOUS
 62
     7
 10
148.76863199504811
 20
57.217404301961409
 30
0.0
 11
148.76863199504811
 21
157.21740430196141
 31
0.0
  0
LINE
  5
6F
  8
0
  6
CENTER
 62
     1
 10
151.76863199504811
 20
52.217404301961409
 30
0.0
 11
151.76863199504811
 21
162.21740430196141
 31
0.0
  0
LINE
  5
70
  8
0
  6
CONTINUOUS
 62
     7
 10
148.76863199504811
 20
157.21740430196141
 30
0.0
 11
154.76863199504811
 21
157.21740430196141
 31
0.0
  0
ARC
  5
1ED
  8
DICHTPROFIL_5_2-
  6
CONTINUOUS
 62
     7
 10
154.16863199504809
 20
23.19176177221248
 30
0.0
 40
0.6000000000000002
 50
0.0
 51
104.9999999999978
  0
LINE
  5
1EE
  8
DICHTPROFIL_5_2-
  6
CONTINUOUS
 62
     7
 10
154.76863199504811
 20
23.124203616505309
 30
0.0
 11
154.76863199504811
 21
23.19176177221248
 31
0.0
  0
LINE
  5
1EF
  8
DICHTPROFIL_5_2-
  6
CONTINUOUS
 62
     7
 10
154.62039580406861
 20
22.931018451247429
 30
0.0
 11
153.08040342739429
 21
22.518378737567492
 31
0.0
  0
ARC
  5
1F0
  8
DICHTPROFIL_5_2-
  6
CONTINUOUS
 62
     7
 10
154.56863199504809
 20
23.124203616505309
 30
0.0
 40
0.2
 50
285.00000000000119
 51
0.0
  0
LINE
  5
1F1
  8
DICHTPROFIL_5_2-
  6
CONTINUOUS
 62
     7
 10
151.9686319950481
 20
21.446357673762819
 30
0.0
 11
151.9686319950481
 21
20.646357673762811
 31
0.0
  0
ARC
  5
1F2
  8
DICHTPROFIL_5_2-
  6
CONTINUOUS
 62
     7
 10
153.8438832316503
 20
21.398125386573909
 30
0.0
 40
2.0203271750889971
 50
201.84530947516859
 51
234.607214131006
  0
ARC
  5
1F3
  8
DICHTPROFIL_5_2-
  6
CONTINUOUS
 62
     7
 10
150.16863199504809
 20
22.066116697644329
 30
0.0
 40
0.2
 50
0.0
 51
104.9999999999978
  0
ARC
  5
1F4
  8
DICHTPROFIL_5_2-
  6
CONTINUOUS
 62
     7
 10
150.16863199504809
 20
20.356761772212579
 30
0.0
 40
0.2000000000000001
 50
270.0
 51
0.0
  0
LINE
  5
1F5
  8
DICHTPROFIL_5_2-
  6
CONTINUOUS
 62
     7
 10
150.1168681860276
 20
22.25930186290222
 30
0.0
 11
149.02039580406861
 21
21.965502973633161
 31
0.0
  0
LINE
  5
1F6
  8
DICHTPROFIL_5_2-
  6
CONTINUOUS
 62
     7
 10
150.3686319950481
 20
20.356761772212579
 30
0.0
 11
150.3686319950481
 21
22.066116697644329
 31
0.0
  0
LINE
  5
1F7
  8
DICHTPROFIL_5_2-
  6
CONTINUOUS
 62
     7
 10
149.66863199504809
 20
20.15676177221253
 30
0.0
 11
150.16863199504809
 21
20.15676177221253
 31
0.0
  0
ARC
  5
1F8
  8
DICHTPROFIL_5_2-
  6
CONTINUOUS
 62
     7
 10
149.66863199504809
 20
19.856761772212579
 30
0.0
 40
0.2999999999999999
 50
90.0
 51
247.38013505195761
  0
LINE
  5
1F9
  8
DICHTPROFIL_5_2-
  6
CONTINUOUS
 62
     7
 10
148.76863199504811
 20
22.222914194919181
 30
0.0
 11
148.76863199504811
 21
22.158688138890941
 31
0.0
  0
ARC
  5
1FA
  8
DICHTPROFIL_5_2-
  6
CONTINUOUS
 62
     7
 10
149.57304447866019
 20
22.15208439048952
 30
0.0
 40
0.8075248014683889
 50
105.18113852209871
 51
174.96799281621671
  0
ARC
  5
1FB
  8
DICHTPROFIL_5_2-
  6
CONTINUOUS
 62
     7
 10
148.9686319950481
 20
22.158688138890941
 30
0.0
 40
0.2000000000000001
 50
180.0
 51
285.00000000000119
  0
LINE
  5
1FC
  8
DICHTPROFIL_5_2-
  6
CONTINUOUS
 62
     7
 10
152.67375309869831
 20
19.751153205157038
 30
0.0
 11
153.87524256335681
 21
19.000379262050039
 31
0.0
  0
ARC
  5
1FD
  8
DICHTPROFIL_5_2-
  6
CONTINUOUS
 62
     7
 10
153.5867856520899
 20
20.880711540483802
 30
0.0
 40
1.7141694215833749
 50
107.1821046511201
 51
160.7322788185582
  0
LINE
  5
1FE
  8
DICHTPROFIL_5_2-
  6
CONTINUOUS
 62
     7
 10
149.36157675896621
 20
22.931428799922202
 30
0.0
 11
154.0133405679866
 21
23.771317267986021
 31
0.0
  0
LINE
  5
1FF
  8
DICHTPROFIL_5_2-
  6
CONTINUOUS
 62
     7
 10
154.0763243027404
 20
18.230223310674091
 30
0.0
 11
149.55324737966339
 21
19.57983869528951
 31
0.0
  0
ARC
  5
200
  8
DICHTPROFIL_5_2-
  6
CONTINUOUS
 62
     7
 10
154.26863199504811
 20
18.691761772212541
 30
0.0
 40
0.5
 50
247.38013505195761
 51
141.88550200321171
  0
LINE
  5
28E
  8
0
  6
CENTER
 62
     1
 10
151.76863199504811
 20
12.903255519251021
 30
0.0
 11
151.76863199504811
 21
29.080268025174071
 31
0.0
  0
TEXT
  5
36B
  8
0
 62
     3
 10
0.0
 20
0.0
 30
0.0
 40
10.0
  1
L5-PCPL2-3
  7
STANDARD1
  0
ENDSEC
  0
EOF
