  0
SECTION
  2
HEADER
  9
$ACADVER
  1
AC1009
  9
$INSBASE
 10
0.0
 20
0.0
 30
0.0
  9
$EXTMIN
 10
0.0
 20
-2.960436562073669
 30
0.0
  9
$EXTMAX
 10
125.0
 20
104.5967623840792
 30
0.0
  9
$LIMMIN
 10
0.0
 20
0.0
  9
$LIMMAX
 10
275.0
 20
175.0
  9
$ORTHOMODE
 70
     1
  9
$REGENMODE
 70
     1
  9
$FILLMODE
 70
     1
  9
$QTEXTMODE
 70
     0
  9
$MIRRTEXT
 70
     0
  9
$DRAGMODE
 70
     2
  9
$LTSCALE
 40
10.0
  9
$OSMODE
 70
  3071
  9
$ATTMODE
 70
     1
  9
$TEXTSIZE
 40
0.2
  9
$TRACEWID
 40
0.05
  9
$TEXTSTYLE
  7
STANDARD
  9
$CLAYER
  8
0
  9
$CELTYPE
  6
BYLAYER
  9
$CECOLOR
 62
   256
  9
$DIMSCALE
 40
1.0
  9
$DIMASZ
 40
3.0
  9
$DIMEXO
 40
0.0625
  9
$DIMDLI
 40
0.38
  9
$DIMRND
 40
0.0
  9
$DIMDLE
 40
0.0
  9
$DIMEXE
 40
0.18
  9
$DIMTP
 40
0.0
  9
$DIMTM
 40
0.0
  9
$DIMTXT
 40
3.0
  9
$DIMCEN
 40
0.09
  9
$DIMTSZ
 40
0.0
  9
$DIMTOL
 70
     0
  9
$DIMLIM
 70
     0
  9
$DIMTIH
 70
     1
  9
$DIMTOH
 70
     1
  9
$DIMSE1
 70
     0
  9
$DIMSE2
 70
     0
  9
$DIMTAD
 70
     0
  9
$DIMZIN
 70
     0
  9
$DIMBLK
  1

  9
$DIMASO
 70
     1
  9
$DIMSHO
 70
     1
  9
$DIMPOST
  1

  9
$DIMAPOST
  1

  9
$DIMALT
 70
     0
  9
$DIMALTD
 70
     2
  9
$DIMALTF
 40
25.399999999999999
  9
$DIMLFAC
 40
1.0
  9
$DIMTOFL
 70
     0
  9
$DIMTVP
 40
0.0
  9
$DIMTIX
 70
     0
  9
$DIMSOXD
 70
     0
  9
$DIMSAH
 70
     0
  9
$DIMBLK1
  1

  9
$DIMBLK2
  1

  9
$DIMSTYLE
  2
STANDARD
  9
$DIMCLRD
 70
     0
  9
$DIMCLRE
 70
     0
  9
$DIMCLRT
 70
     0
  9
$DIMTFAC
 40
1.0
  9
$DIMGAP
 40
0.09
  9
$LUNITS
 70
     2
  9
$LUPREC
 70
     4
  9
$SKETCHINC
 40
0.1
  9
$FILLETRAD
 40
0.0
  9
$AUNITS
 70
     0
  9
$AUPREC
 70
     0
  9
$MENU
  1
E:\r13\win\SUPPORT\ACAD
  9
$ELEVATION
 40
0.0
  9
$PELEVATION
 40
0.0
  9
$THICKNESS
 40
0.0
  9
$LIMCHECK
 70
     0
  9
$BLIPMODE
 70
     0
  9
$CHAMFERA
 40
0.0
  9
$CHAMFERB
 40
0.0
  9
$SKPOLY
 70
     0
  9
$TDCREATE
 40
2450445.4684609948
  9
$TDUPDATE
 40
2456597.5467885071
  9
$TDINDWG
 40
0.000314375
  9
$TDUSRTIMER
 40
0.000314375
  9
$USRTIMER
 70
     1
  9
$ANGBASE
 50
0.0
  9
$ANGDIR
 70
     0
  9
$PDMODE
 70
     0
  9
$PDSIZE
 40
0.0
  9
$PLINEWID
 40
0.0
  9
$COORDS
 70
     1
  9
$SPLFRAME
 70
     0
  9
$SPLINETYPE
 70
     6
  9
$SPLINESEGS
 70
     8
  9
$ATTDIA
 70
     0
  9
$ATTREQ
 70
     1
  9
$HANDLING
 70
     1
  9
$HANDSEED
  5
3A8
  9
$SURFTAB1
 70
     6
  9
$SURFTAB2
 70
     6
  9
$SURFTYPE
 70
     6
  9
$SURFU
 70
     6
  9
$SURFV
 70
     6
  9
$UCSNAME
  2

  9
$UCSORG
 10
0.0
 20
0.0
 30
0.0
  9
$UCSXDIR
 10
1.0
 20
0.0
 30
0.0
  9
$UCSYDIR
 10
0.0
 20
1.0
 30
0.0
  9
$PUCSNAME
  2

  9
$PUCSORG
 10
0.0
 20
0.0
 30
0.0
  9
$PUCSXDIR
 10
1.0
 20
0.0
 30
0.0
  9
$PUCSYDIR
 10
0.0
 20
1.0
 30
0.0
  9
$USERI1
 70
     4
  9
$USERI2
 70
     1
  9
$USERI3
 70
     0
  9
$USERI4
 70
     0
  9
$USERI5
 70
     0
  9
$USERR1
 40
1.0
  9
$USERR2
 40
3.0
  9
$USERR3
 40
3.0
  9
$USERR4
 40
3.0
  9
$USERR5
 40
10.0
  9
$WORLDVIEW
 70
     1
  9
$SHADEDGE
 70
     3
  9
$SHADEDIF
 70
    70
  9
$TILEMODE
 70
     1
  9
$MAXACTVP
 70
    16
  9
$PLIMCHECK
 70
     0
  9
$PEXTMIN
 10
1.0000000000000000E+020
 20
1.0000000000000000E+020
 30
1.0000000000000000E+020
  9
$PEXTMAX
 10
-1.0000000000000000E+020
 20
-1.0000000000000000E+020
 30
-1.0000000000000000E+020
  9
$PLIMMIN
 10
0.0
 20
0.0
  9
$PLIMMAX
 10
12.0
 20
9.0
  9
$UNITMODE
 70
     0
  9
$VISRETAIN
 70
     0
  9
$PLINEGEN
 70
     0
  9
$PSLTSCALE
 70
     1
  0
ENDSEC
  0
SECTION
  2
TABLES
  0
TABLE
  2
VPORT
 70
     1
  0
VPORT
  2
*ACTIVE
 70
     0
 10
0.0
 20
0.0
 11
1.0
 21
1.0
 12
137.495804153145
 22
105.14973110994291
 13
0.0
 23
0.0
 14
5.0
 24
5.0
 15
0.0
 25
0.0
 16
0.0
 26
0.0
 36
1.0
 17
0.0
 27
0.0
 37
0.0
 40
218.28380694200069
 41
1.9089595375722539
 42
50.0
 43
0.0
 44
0.0
 50
0.0
 51
0.0
 71
     0
 72
   100
 73
     1
 74
     0
 75
     0
 76
     0
 77
     0
 78
     0
  0
ENDTAB
  0
TABLE
  2
LTYPE
 70
     3
  0
LTYPE
  2
CONTINUOUS
 70
     0
  3
Solid Line
 72
    65
 73
     0
 40
0.0
  0
LTYPE
  2
CENTER
 70
     0
  3
____ _ ____ _ ____ _ ____ _ ____ _ ____ _ ____
 72
    65
 73
     4
 40
2.0
 49
1.25
 49
-0.25
 49
0.25
 49
-0.25
  0
LTYPE
  2
PHANTOM2
 70
     0
  3
___ _ _ ___ _ _ ___ _ _ ___ _ _
 72
    65
 73
     6
 40
1.25
 49
0.625
 49
-0.125
 49
0.125
 49
-0.125
 49
0.125
 49
-0.125
  0
ENDTAB
  0
TABLE
  2
LAYER
 70
     1
  0
LAYER
  2
0
 70
     0
 62
     7
  6
CONTINUOUS
  0
ENDTAB
  0
TABLE
  2
STYLE
 70
     2
  0
STYLE
  2
STANDARD
 70
     0
 40
0.0
 41
1.0
 50
0.0
 71
     0
 42
0.2
  3
SIMPLEX
  4
BIGFONT
  0
STYLE
  2
STANDARD1
 70
     0
 40
0.0
 41
1.0
 50
0.0
 71
     0
 42
3.0
  3
txt
  4

  0
ENDTAB
  0
TABLE
  2
VIEW
 70
     0
  0
ENDTAB
  0
TABLE
  2
UCS
 70
     0
  0
ENDTAB
  0
TABLE
  2
APPID
 70
     5
  0
APPID
  2
ACAD
 70
     0
  0
APPID
  2
GENIUS_GENODEF_13
 70
     0
  0
APPID
  2
GENIUS_GENOBJ-N-FIL_13
 70
     0
  0
APPID
  2
ACAD_MLEADERVER
 70
     0
  0
APPID
  2
ACAD_NAV_VCDISPLAY
 70
     0
  0
ENDTAB
  0
TABLE
  2
DIMSTYLE
 70
     1
  0
DIMSTYLE
  2
STANDARD
 70
     0
  3

  4

  5

  6

  7

 40
1.0
 41
0.18
 42
0.0625
 43
0.38
 44
0.18
 45
0.0
 46
0.0
 47
0.0
 48
0.0
140
0.18
141
0.09
142
0.0
143
25.399999999999999
144
1.0
145
0.0
146
1.0
147
0.09
 71
     0
 72
     0
 73
     1
 74
     1
 75
     0
 76
     0
 77
     0
 78
     0
170
     0
171
     2
172
     0
173
     0
174
     0
175
     0
176
     0
177
     0
178
     0
  0
ENDTAB
  0
ENDSEC
  0
SECTION
  2
BLOCKS
  0
BLOCK
  8
0
  2
$MODEL_SPACE
 70
     0
 10
0.0
 20
0.0
 30
0.0
  3
$MODEL_SPACE
  1

  0
ENDBLK
  5
26B
  8
0
  0
BLOCK
 67
     1
  8
0
  2
$PAPER_SPACE
 70
     0
 10
0.0
 20
0.0
 30
0.0
  3
$PAPER_SPACE
  1

  0
ENDBLK
  5
269
 67
     1
  8
0
  0
ENDSEC
  0
SECTION
  2
ENTITIES
  0
ARC
  5
206
  8
0
  6
CENTER
 62
     1
 10
120.3276984764148
 20
77.17723166203811
 30
0.0
 40
30.0000002528263
 50
129.25852016043609
 51
185.73738808913069
  0
LINE
  5
203
  8
0
  6
CENTER
 62
     1
 10
104.6225193676819
 20
83.683778566661474
 30
0.0
 11
80.601651522388494
 21
93.633547808153907
 31
0.0
  0
ARC
  5
30
  8
0
  6
CONTINUOUS
 62
     7
 10
92.611312262616565
 20
88.657734717965283
 30
0.0
 40
4.1499999999985748
 50
115.03685405824901
 51
199.96314594171119
  0
CIRCLE
  5
3F
  8
0
  6
CONTINUOUS
 62
     7
 10
92.611312262617375
 20
88.657734717967287
 30
0.0
 40
2.149999999999999
  0
ARC
  5
3E
  8
0
  6
CONTINUOUS
 62
     7
 10
92.611312262617375
 20
88.657734717967287
 30
0.0
 40
4.1499999999999853
 50
299.25723881102363
 51
15.74276118897531
  0
LINE
  5
6F
  8
0
  6
CONTINUOUS
 62
     7
 10
69.0446388429867
 20
104.5967623840792
 30
0.0
 11
69.0446388429867
 21
77.178160216454785
 31
0.0
  0
ARC
  5
41
  8
0
  6
CONTINUOUS
 62
     7
 10
120.3284714203737
 20
77.178160216454785
 30
0.0
 40
19.99999999999995
 50
140.21590857045311
 51
174.7840914295457
  0
ARC
  5
34
  8
0
  6
CONTINUOUS
 62
     7
 10
120.327698237956
 20
77.177231747014559
 30
0.0
 40
38.199999999999982
 50
141.94144966550701
 51
173.05855033449299
  0
ARC
  5
33
  8
0
  6
CONTINUOUS
 62
     7
 10
120.3284714203733
 20
77.178160216455126
 30
0.0
 40
39.99999999999946
 50
138.01696130981551
 51
176.98303869018409
  0
ARC
  5
40
  8
0
  6
CONTINUOUS
 62
     7
 10
120.3276982379559
 20
77.177231747014332
 30
0.0
 40
21.80000000000004
 50
145.15235434029719
 51
169.84764565970119
  0
LINE
  5
6E
  8
0
  6
CONTINUOUS
 62
     7
 10
19.044638842986672
 20
104.5967623840792
 30
0.0
 11
19.044638842986679
 21
77.178160216454785
 31
0.0
  0
LINE
  5
69
  8
0
  6
CONTINUOUS
 62
     7
 10
19.044638842986672
 20
77.178160216454785
 30
0.0
 11
69.044638842986672
 21
77.178160216454785
 31
0.0
  0
LINE
  5
1FC
  8
0
  6
CONTINUOUS
 62
     7
 10
105.422324473171
 20
62.511505905894794
 30
0.0
 11
105.422324473171
 21
12.51150590589479
 31
0.0
  0
LINE
  5
1F9
  8
0
  6
CONTINUOUS
 62
     7
 10
80.383911502457465
 20
62.511505905894794
 30
0.0
 11
80.383911502457465
 21
12.511505905894801
 31
0.0
  0
LINE
  5
1FA
  8
0
  6
CONTINUOUS
 62
     7
 10
87.827698237958657
 20
62.511505905894794
 30
0.0
 11
87.827698237958657
 21
12.51150590589479
 31
0.0
  0
LINE
  5
1FB
  8
0
  6
CONTINUOUS
 62
     7
 10
92.827698237958742
 20
62.511505905894794
 30
0.0
 11
92.827698237958742
 21
12.511505905894801
 31
0.0
  0
LINE
  5
200
  8
0
  6
CENTER
 62
     1
 10
90.3276982379587
 20
65.511505905894794
 30
0.0
 11
90.327698237958685
 21
9.5115059058948006
 31
0.0
  0
LINE
  5
1FD
  8
0
  6
CONTINUOUS
 62
     3
 10
99.767968845093606
 20
62.511505905894794
 30
0.0
 11
99.767968845093606
 21
12.51150590589479
 31
0.0
  0
LINE
  5
1FF
  8
0
  6
CONTINUOUS
 62
     7
 10
80.383911502457465
 20
12.511505905894801
 30
0.0
 11
105.422324473171
 21
12.51150590589479
 31
0.0
  0
ARC
  5
4D
  8
0
  6
CONTINUOUS
 62
     7
 10
94.883913596675569
 20
84.600915375622435
 30
0.0
 40
0.4999999999986188
 50
119.257238810904
 51
224.9999999997932
  0
LINE
  5
4C
  8
0
  6
CONTINUOUS
 62
     7
 10
93.127698237958697
 20
78.977231747017299
 30
0.0
 11
95.245286624047907
 21
78.977231747017299
 31
0.0
  0
LINE
  5
43
  8
0
  6
CONTINUOUS
 62
     7
 10
98.419569120167097
 20
77.178160216454785
 30
0.0
 11
93.627698237958697
 21
77.178160216454884
 31
0.0
  0
LINE
  5
4B
  8
0
  6
CONTINUOUS
 62
     7
 10
95.833892582301445
 20
80.398245196532116
 30
0.0
 11
93.583585688263796
 21
82.648552090577141
 31
0.0
  0
LINE
  5
1FE
  8
0
  6
CONTINUOUS
 62
     7
 10
80.383911502457465
 20
62.511505905894794
 30
0.0
 11
105.422324473171
 21
62.511505905894794
 31
0.0
  0
LINE
  5
42
  8
0
  6
CONTINUOUS
 62
     7
 10
94.530360206081994
 20
84.247361985031375
 30
0.0
 11
98.023306502825776
 21
80.754415688276367
 31
0.0
  0
LINE
  5
3A
  8
0
  6
CONTINUOUS
 62
     7
 10
87.027698237958674
 20
77.178160216454785
 30
0.0
 11
82.381139498353349
 21
77.178160216454671
 31
0.0
  0
LINE
  5
32
  8
0
  6
CONTINUOUS
 62
     7
 10
88.594272890133965
 20
86.716598605337495
 30
0.0
 11
83.257586174899842
 21
81.379911890086532
 31
0.0
  0
ARC
  5
2F
  8
0
  6
CONTINUOUS
 62
     7
 10
82.381139498353463
 20
79.178160216454899
 30
0.0
 40
2.000000000000218
 50
176.9830386901823
 51
269.99999999999488
  0
ARC
  5
39
  8
0
  6
CONTINUOUS
 62
     7
 10
82.904032784306054
 20
81.733465280679283
 30
0.0
 40
0.4999999999999789
 50
173.05855033448691
 51
315.00000000008413
  0
LINE
  5
35
  8
0
  6
CONTINUOUS
 62
     7
 10
87.071810787653774
 20
82.648552090576899
 30
0.0
 11
84.821503893616054
 21
80.398245196531988
 31
0.0
  0
ARC
  5
2D
  8
0
  6
CONTINUOUS
 62
     7
 10
87.027698237958603
 20
77.978160216454853
 30
0.0
 40
0.8000000000000486
 50
270.00000000000267
 51
0.0000000000014153
  0
LINE
  5
36
  8
0
  6
CONTINUOUS
 62
     7
 10
85.410109851866153
 20
78.977231747017299
 30
0.0
 11
87.527698237958674
 21
78.977231747017299
 31
0.0
  0
ARC
  5
3B
  8
0
  6
CONTINUOUS
 62
     7
 10
85.41010985186611
 20
79.809643360924653
 30
0.0
 40
0.8324116139073614
 50
135.0002006527923
 51
270.00000000000142
  0
ARC
  5
37
  8
0
  6
CONTINUOUS
 62
     7
 10
87.527698237958674
 20
78.677231747017231
 30
0.0
 40
0.3000000000000398
 50
0.0000000000162844
 51
90.000000000005429
  0
LINE
  5
38
  8
0
  6
CONTINUOUS
 62
     7
 10
87.827698237958742
 20
78.677231747017345
 30
0.0
 11
87.827698237958629
 21
77.978160216454853
 31
0.0
  0
ARC
  5
2E
  8
0
  6
CONTINUOUS
 62
     7
 10
93.627698237958697
 20
77.978160216454853
 30
0.0
 40
0.7999999999999506
 50
179.99999999999159
 51
270.00000000000023
  0
LINE
  5
46
  8
0
  6
CONTINUOUS
 62
     7
 10
92.827698237958742
 20
77.978160216454967
 30
0.0
 11
92.827698237958742
 21
78.677231747017458
 31
0.0
  0
ARC
  5
47
  8
0
  6
CONTINUOUS
 62
     7
 10
93.12769823795864
 20
78.677231747017402
 30
0.0
 40
0.2999999999999119
 50
89.999999999991857
 51
179.99999999998639
  0
ARC
  5
31
  8
0
  6
CONTINUOUS
 62
     7
 10
89.193131131213335
 20
80.527231747017424
 30
0.0
 40
2.9999999999998379
 50
90.000000000000242
 51
135.0000000000008
  0
ARC
  5
44
  8
0
  6
CONTINUOUS
 62
     7
 10
88.240719499539551
 20
87.070151995927631
 30
0.0
 40
0.4999999999985849
 50
315.00000000034242
 51
19.963145941983608
  0
ARC
  5
48
  8
0
  6
CONTINUOUS
 62
     7
 10
91.462265344704434
 20
80.527231747017368
 30
0.0
 40
2.9999999999998681
 50
45.000000000005564
 51
90.000000000006025
  0
LINE
  5
49
  8
0
  6
CONTINUOUS
 62
     7
 10
91.46226534470415
 20
83.527231747017254
 30
0.0
 11
90.327698237958742
 21
83.527231747017126
 31
0.0
  0
LINE
  5
4A
  8
0
  6
CONTINUOUS
 62
     7
 10
90.327698237958742
 20
83.527231747017126
 30
0.0
 11
89.193131131213335
 21
83.527231747017254
 31
0.0
  0
ARC
  5
4E
  8
0
  6
CONTINUOUS
 62
     7
 10
98.376859893419606
 20
81.107969078869118
 30
0.0
 40
0.500000000000027
 50
224.9999999999128
 51
349.84764565969908
  0
ARC
  5
2C
  8
0
  6
CONTINUOUS
 62
     7
 10
98.419569120167097
 20
79.178160216454785
 30
0.0
 40
1.9999999999999969
 50
270.00000000000023
 51
354.78409142954752
  0
ARC
  5
45
  8
0
  6
CONTINUOUS
 62
     7
 10
95.245286624047097
 20
79.80964336092643
 30
0.0
 40
0.8324116139091399
 50
270.0000000000515
 51
44.999799346923318
  0
LINE
  5
6D
  8
0
  6
CONTINUOUS
 62
     7
 10
19.044638842986661
 20
104.5967623840792
 30
0.0
 11
69.044638842986672
 21
104.5967623840792
 31
0.0
  0
LINE
  5
67
  8
0
  6
CONTINUOUS
 62
     7
 10
93.495655690376196
 20
104.0109759464524
 30
0.0
 11
96.781893250374864
 21
100.72473838645359
 31
0.0
1001
GENIUS_GENODEF_13
1002
{
1000
HIER
1070
     0
1002
}
1002
{
1000
MANEDIT
1070
     0
1002
}
1002
{
1000
NOSEL
1070
     0
1002
}
1002
{
1000
BEHIND
1070
     0
1002
}
1002
{
1000
REACTOR
1002
}
1001
GENIUS_GENOBJ-N-FIL_13
1002
{
1000
OWNER
1000
GEN
1002
}
  0
LINE
  5
68
  8
0
  6
CONTINUOUS
 62
     7
 10
95.861803608901226
 20
99.097541963793788
 30
0.0
 11
94.364442501333514
 21
100.5949030713615
 31
0.0
  0
LINE
  5
56
  8
0
  6
CONTINUOUS
 62
     7
 10
93.822106646934316
 20
94.702567216963416
 30
0.0
 11
94.624366741825014
 21
93.900307122072491
 31
0.0
  0
LINE
  5
3D
  8
0
  6
CONTINUOUS
 62
     7
 10
91.143426990499464
 20
100.4180157378224
 30
0.0
 11
91.143426990487313
 21
92.870801006990064
 31
0.0
  0
ARC
  5
55
  8
0
  6
CONTINUOUS
 62
     7
 10
90.64342699048737
 20
92.870801006990845
 30
0.0
 40
0.4999999999999716
 50
295.03685405827378
 51
359.99999999990882
  0
LINE
  5
3C
  8
0
  6
CONTINUOUS
 62
     7
 10
92.943426990498864
 20
100.0063020895778
 30
0.0
 11
92.943426990493748
 21
96.823887560522977
 31
0.0
  0
ARC
  5
51
  8
0
  6
CONTINUOUS
 62
     7
 10
95.943426990493677
 20
96.823887560523261
 30
0.0
 40
2.9999999999999569
 50
180.00000000000551
 51
225.00000000000611
  0
ARC
  5
65
  8
0
  6
CONTINUOUS
 62
     7
 10
90.643426990499535
 20
100.4180157378232
 30
0.0
 40
0.4999999999999857
 50
359.99999999990962
 51
141.9414496655065
  0
ARC
  5
66
  8
0
  6
CONTINUOUS
 62
     7
 10
93.775838604401116
 20
100.0062991744291
 30
0.0
 40
0.8324116139073844
 50
44.999999999997748
 51
179.9997993472067
  0
ARC
  5
64
  8
0
  6
CONTINUOUS
 62
     7
 10
92.081442128003204
 20
102.5967623840793
 30
0.0
 40
1.9999999999999301
 50
45.000000000002473
 51
138.01696130981071
  0
ARC
  5
5A
  8
0
  6
CONTINUOUS
 62
     7
 10
103.4223244731711
 20
91.255880038911414
 30
0.0
 40
1.9999999999999549
 50
320.21590857045942
 51
45.000000000010942
  0
LINE
  5
5E
  8
0
  6
CONTINUOUS
 62
     7
 10
101.31896269111149
 20
93.640382881583491
 30
0.0
 11
99.821601583546084
 21
95.137743989149044
 31
0.0
  0
LINE
  5
5D
  8
0
  6
CONTINUOUS
 62
     7
 10
101.4487980062061
 20
96.05783363062244
 30
0.0
 11
104.8365380355438
 21
92.670093601284734
 31
0.0
  0
LINE
  5
50
  8
0
  6
CONTINUOUS
 62
     7
 10
97.547947180275386
 20
92.219367370741224
 30
0.0
 11
100.7303617093302
 21
92.219367370746227
 31
0.0
  0
LINE
  5
4F
  8
0
  6
CONTINUOUS
 62
     7
 10
102.02666056938649
 20
90.419367370748432
 30
0.0
 11
97.086888543882395
 21
90.419367370740574
 31
0.0
  0
ARC
  5
53
  8
0
  6
CONTINUOUS
 62
     7
 10
97.086888543884342
 20
89.919367370742009
 30
0.0
 40
0.4999999999985754
 50
90.000000000216588
 51
195.7427611891043
  0
ARC
  5
54
  8
0
  6
CONTINUOUS
 62
     7
 10
97.547947180275614
 20
95.219367370740883
 30
0.0
 40
2.9999999999996918
 50
224.999999999995
 51
269.99999999999551
  0
LINE
  5
52
  8
0
  6
CONTINUOUS
 62
     7
 10
94.624366741825014
 20
93.900307122072491
 30
0.0
 11
95.426626836715926
 21
93.098047027181664
 31
0.0
  0
ARC
  5
5C
  8
0
  6
CONTINUOUS
 62
     7
 10
102.0266605693873
 20
89.919367370748418
 30
0.0
 40
0.4999999999999908
 50
325.1523543403012
 51
90.000000000097302
  0
ARC
  5
5B
  8
0
  6
CONTINUOUS
 62
     7
 10
100.73035879417731
 20
93.051778984650355
 30
0.0
 40
0.8324116139091987
 50
270.00020065308331
 51
44.999999999954952
  0
LINE
  5
59
  8
0
  6
CONTINUOUS
 62
     7
 10
99.821601583546084
 20
95.562008057860794
 30
0.0
 11
100.3174271563077
 21
96.05783363062244
 31
0.0
  0
ARC
  5
58
  8
0
  6
CONTINUOUS
 62
     7
 10
100.0337336179019
 20
95.349876023504919
 30
0.0
 40
0.2999999999998888
 50
135.00000000000281
 51
224.9999999999971
  0
LINE
  5
5F
  8
0
  6
CONTINUOUS
 62
     7
 10
96.781893250374864
 20
99.593367536555093
 30
0.0
 11
96.286067677613332
 21
99.09754196379356
 31
0.0
  0
ARC
  5
61
  8
0
  6
CONTINUOUS
 62
     7
 10
96.216207825425585
 20
100.1590529615043
 30
0.0
 40
0.8000000000000525
 50
315.00000000000102
 51
44.999999999998998
1001
GENIUS_GENODEF_13
1002
{
1000
HIER
1070
     0
1002
}
1002
{
1000
MANEDIT
1070
     0
1002
}
1002
{
1000
NOSEL
1070
     0
1002
}
1002
{
1000
BEHIND
1070
     0
1002
}
1002
{
1000
REACTOR
1002
}
1001
GENIUS_GENOBJ-N-FIL_13
1002
{
1000
OWNER
1000
GEN
1002
}
  0
ARC
  5
60
  8
0
  6
CONTINUOUS
 62
     7
 10
96.073935643257386
 20
99.309673998149734
 30
0.0
 40
0.3000000000001049
 50
224.9999999999751
 51
314.99999999996351
  0
ARC
  5
57
  8
0
  6
CONTINUOUS
 62
     7
 10
100.8831125812569
 20
95.492148205673175
 30
0.0
 40
0.8000000000000033
 50
45.000000000000362
 51
134.9999999999996
  0
TEXT
  5
31A
  8
0
 62
     3
 10
0.0
 20
0.0
 30
0.0
 40
10.0
  1
L5-RPH24D45N-3M
  7
STANDARD1
  0
ENDSEC
  0
EOF
