  0
SECTION
  2
HEADER
  9
$ACADVER
  1
AC1009
  9
$INSBASE
 10
0.0
 20
0.0
 30
0.0
  9
$EXTMIN
 10
0.0
 20
-2.960436562073669
 30
0.0
  9
$EXTMAX
 10
129.26083000358221
 20
133.8633534860214
 30
0.0
  9
$LIMMIN
 10
0.0
 20
0.0
  9
$LIMMAX
 10
275.0
 20
175.0
  9
$ORTHOMODE
 70
     1
  9
$REGENMODE
 70
     1
  9
$FILLMODE
 70
     1
  9
$QTEXTMODE
 70
     0
  9
$MIRRTEXT
 70
     0
  9
$DRAGMODE
 70
     2
  9
$LTSCALE
 40
10.0
  9
$OSMODE
 70
    37
  9
$ATTMODE
 70
     1
  9
$TEXTSIZE
 40
0.2
  9
$TRACEWID
 40
0.05
  9
$TEXTSTYLE
  7
STANDARD
  9
$CLAYER
  8
0
  9
$CELTYPE
  6
BYLAYER
  9
$CECOLOR
 62
   256
  9
$DIMSCALE
 40
1.0
  9
$DIMASZ
 40
3.0
  9
$DIMEXO
 40
2.0
  9
$DIMDLI
 40
0.38
  9
$DIMRND
 40
0.0
  9
$DIMDLE
 40
0.0
  9
$DIMEXE
 40
2.0
  9
$DIMTP
 40
0.0
  9
$DIMTM
 40
0.0
  9
$DIMTXT
 40
3.0
  9
$DIMCEN
 40
0.09
  9
$DIMTSZ
 40
0.0
  9
$DIMTOL
 70
     0
  9
$DIMLIM
 70
     0
  9
$DIMTIH
 70
     0
  9
$DIMTOH
 70
     0
  9
$DIMSE1
 70
     0
  9
$DIMSE2
 70
     0
  9
$DIMTAD
 70
     1
  9
$DIMZIN
 70
     8
  9
$DIMBLK
  1

  9
$DIMASO
 70
     1
  9
$DIMSHO
 70
     1
  9
$DIMPOST
  1

  9
$DIMAPOST
  1

  9
$DIMALT
 70
     0
  9
$DIMALTD
 70
     2
  9
$DIMALTF
 40
25.399999999999999
  9
$DIMLFAC
 40
1.0
  9
$DIMTOFL
 70
     1
  9
$DIMTVP
 40
0.0
  9
$DIMTIX
 70
     0
  9
$DIMSOXD
 70
     0
  9
$DIMSAH
 70
     0
  9
$DIMBLK1
  1

  9
$DIMBLK2
  1

  9
$DIMSTYLE
  2
STANDARD
  9
$DIMCLRD
 70
   256
  9
$DIMCLRE
 70
   256
  9
$DIMCLRT
 70
   256
  9
$DIMTFAC
 40
1.0
  9
$DIMGAP
 40
1.1999999999999991
  9
$LUNITS
 70
     2
  9
$LUPREC
 70
     1
  9
$SKETCHINC
 40
0.1
  9
$FILLETRAD
 40
0.0
  9
$AUNITS
 70
     0
  9
$AUPREC
 70
     0
  9
$MENU
  1
E:\r13\win\SUPPORT\ACAD
  9
$ELEVATION
 40
0.0
  9
$PELEVATION
 40
0.0
  9
$THICKNESS
 40
0.0
  9
$LIMCHECK
 70
     0
  9
$BLIPMODE
 70
     0
  9
$CHAMFERA
 40
0.0
  9
$CHAMFERB
 40
0.0
  9
$SKPOLY
 70
     0
  9
$TDCREATE
 40
2450445.4706251151
  9
$TDUPDATE
 40
2458509.4307344211
  9
$TDINDWG
 40
0.023775544
  9
$TDUSRTIMER
 40
0.023775544
  9
$USRTIMER
 70
     1
  9
$ANGBASE
 50
0.0
  9
$ANGDIR
 70
     0
  9
$PDMODE
 70
     0
  9
$PDSIZE
 40
0.0
  9
$PLINEWID
 40
0.0
  9
$COORDS
 70
     1
  9
$SPLFRAME
 70
     0
  9
$SPLINETYPE
 70
     6
  9
$SPLINESEGS
 70
     8
  9
$ATTDIA
 70
     0
  9
$ATTREQ
 70
     1
  9
$HANDLING
 70
     1
  9
$HANDSEED
  5
A17
  9
$SURFTAB1
 70
     6
  9
$SURFTAB2
 70
     6
  9
$SURFTYPE
 70
     6
  9
$SURFU
 70
     6
  9
$SURFV
 70
     6
  9
$UCSNAME
  2

  9
$UCSORG
 10
0.0
 20
0.0
 30
0.0
  9
$UCSXDIR
 10
1.0
 20
0.0
 30
0.0
  9
$UCSYDIR
 10
0.0
 20
1.0
 30
0.0
  9
$PUCSNAME
  2

  9
$PUCSORG
 10
0.0
 20
0.0
 30
0.0
  9
$PUCSXDIR
 10
1.0
 20
0.0
 30
0.0
  9
$PUCSYDIR
 10
0.0
 20
1.0
 30
0.0
  9
$USERI1
 70
     4
  9
$USERI2
 70
     1
  9
$USERI3
 70
     0
  9
$USERI4
 70
     0
  9
$USERI5
 70
     0
  9
$USERR1
 40
1.0
  9
$USERR2
 40
3.0
  9
$USERR3
 40
3.0
  9
$USERR4
 40
3.0
  9
$USERR5
 40
10.0
  9
$WORLDVIEW
 70
     1
  9
$SHADEDGE
 70
     3
  9
$SHADEDIF
 70
    70
  9
$TILEMODE
 70
     1
  9
$MAXACTVP
 70
    16
  9
$PLIMCHECK
 70
     0
  9
$PEXTMIN
 10
1.0000000000000000E+020
 20
1.0000000000000000E+020
 30
1.0000000000000000E+020
  9
$PEXTMAX
 10
-1.0000000000000000E+020
 20
-1.0000000000000000E+020
 30
-1.0000000000000000E+020
  9
$PLIMMIN
 10
0.0
 20
0.0
  9
$PLIMMAX
 10
12.0
 20
9.0
  9
$UNITMODE
 70
     0
  9
$VISRETAIN
 70
     0
  9
$PLINEGEN
 70
     0
  9
$PSLTSCALE
 70
     1
  0
ENDSEC
  0
SECTION
  2
TABLES
  0
TABLE
  2
VPORT
 70
     1
  0
VPORT
  2
*ACTIVE
 70
     0
 10
0.0
 20
0.0
 11
1.0
 21
1.0
 12
241.1674347158218
 22
100.0
 13
0.0
 23
0.0
 14
5.0
 24
5.0
 15
0.0
 25
0.0
 16
0.0
 26
0.0
 36
1.0
 17
0.0
 27
0.0
 37
0.0
 40
200.0
 41
2.4116743471582178
 42
50.0
 43
0.0
 44
0.0
 50
0.0
 51
0.0
 71
     0
 72
   100
 73
     1
 74
     0
 75
     0
 76
     0
 77
     0
 78
     0
  0
ENDTAB
  0
TABLE
  2
LTYPE
 70
     4
  0
LTYPE
  2
CONTINUOUS
 70
     0
  3
Solid Line
 72
    65
 73
     0
 40
0.0
  0
LTYPE
  2
CENTER
 70
     0
  3
____ _ ____ _ ____ _ ____ _ ____ _ ____ _ ____
 72
    65
 73
     4
 40
2.0
 49
1.25
 49
-0.25
 49
0.25
 49
-0.25
  0
LTYPE
  2
PHANTOM2
 70
     0
  3
___ _ _ ___ _ _ ___ _ _ ___ _ _
 72
    65
 73
     6
 40
1.25
 49
0.625
 49
-0.125
 49
0.125
 49
-0.125
 49
0.125
 49
-0.125
  0
LTYPE
  2
HIDDEN
 70
     0
  3
_ _ _ _ _ _ _ _ _ _ _ _ _ _ _ _ _ _ _ _ _ _ _
 72
    65
 73
     2
 40
0.375
 49
0.25
 49
-0.125
  0
ENDTAB
  0
TABLE
  2
LAYER
 70
     5
  0
LAYER
  2
0
 70
     0
 62
     7
  6
CONTINUOUS
  0
LAYER
  2
1
 70
     0
 62
     1
  6
CENTER
  0
LAYER
  2
3
 70
     0
 62
     3
  6
CONTINUOUS
  0
LAYER
  2
2
 70
     0
 62
     2
  6
HIDDEN
  0
LAYER
  2
DEFPOINTS
 70
     0
 62
     7
  6
CONTINUOUS
  0
ENDTAB
  0
TABLE
  2
STYLE
 70
     2
  0
STYLE
  2
STANDARD
 70
     0
 40
0.0
 41
1.0
 50
0.0
 71
     0
 42
0.2
  3
SIMPLEX
  4
BIGFONT
  0
STYLE
  2
STANDARD1
 70
     0
 40
0.0
 41
1.0
 50
0.0
 71
     0
 42
3.0
  3
txt
  4

  0
ENDTAB
  0
TABLE
  2
VIEW
 70
     0
  0
ENDTAB
  0
TABLE
  2
UCS
 70
     0
  0
ENDTAB
  0
TABLE
  2
APPID
 70
    29
  0
APPID
  2
ACAD
 70
     0
  0
APPID
  2
ACAD_MLEADERVER
 70
     0
  0
APPID
  2
ACAD_NAV_VCDISPLAY
 70
     0
  0
APPID
  2
ACAD_PSEXT
 70
     0
  0
APPID
  2
ACAD_EXEMPT_FROM_CAD_STANDARDS
 70
     0
  0
APPID
  2
ACAD_DSTYLE_DIMJAG
 70
     0
  0
APPID
  2
ACAD_DSTYLE_DIMTALN
 70
     0
  0
APPID
  2
ACAD_DSTYLE_DIMBREAK
 70
     0
  0
APPID
  2
GRADIENTCOLOR1ACI
 70
     0
  0
APPID
  2
GRADIENTCOLOR2ACI
 70
     0
  0
APPID
  2
DCO15
 70
     0
  0
APPID
  2
ACAD_DSTYLE_DIMRADIAL_EXTENSION
 70
     0
  0
APPID
  2
GENIUS_GENODEF_13
 70
     0
  0
APPID
  2
GENIUS_GENOBJ-N-FIL_13
 70
     0
  0
APPID
  2
GENIUS_GENCFG_13
 70
     0
  0
APPID
  2
GENIUS_GENCFG0_13
 70
     0
  0
APPID
  2
GENIUS_GENCFG1_13
 70
     0
  0
APPID
  2
GENIUS_GENCFG2_13
 70
     0
  0
APPID
  2
GENIUS_GENCFG3_13
 70
     0
  0
APPID
  2
GENIUS_GENCFG4_13
 70
     0
  0
APPID
  2
GENIUS_GEVCFG0_13
 70
     0
  0
APPID
  2
GENIUS_GENOENT_13
 70
     0
  0
APPID
  2
GENIUS_GENOBJ-N-HTC_13
 70
     0
  0
APPID
  2
GENIUS_GENHATCH_13
 70
     0
  0
APPID
  2
GENIUS_GENFIL_13
 70
     0
  0
APPID
  2
GENIUS_GENOBJ-N-CHA_13
 70
     0
  0
APPID
  2
GEV_VCCNULL_SWITCH_OFF
 70
     0
  0
APPID
  2
GENIUS_GENDTOL_13
 70
     0
  0
APPID
  2
GENIUS_GEFCFG0_13
 70
     0
  0
ENDTAB
  0
TABLE
  2
DIMSTYLE
 70
     1
  0
DIMSTYLE
  2
STANDARD
 70
     0
  3

  4

  5

  6

  7

 40
1.0
 41
0.18
 42
0.0625
 43
0.38
 44
0.18
 45
0.0
 46
0.0
 47
0.0
 48
0.0
140
0.18
141
0.09
142
0.0
143
25.399999999999999
144
1.0
145
0.0
146
1.0
147
0.09
 71
     0
 72
     0
 73
     1
 74
     1
 75
     0
 76
     0
 77
     0
 78
     0
170
     0
171
     2
172
     0
173
     0
174
     0
175
     0
176
     0
177
     0
178
     0
  0
ENDTAB
  0
ENDSEC
  0
SECTION
  2
BLOCKS
  0
BLOCK
  8
0
  2
$MODEL_SPACE
 70
     0
 10
0.0
 20
0.0
 30
0.0
  3
$MODEL_SPACE
  1

  0
ENDBLK
  5
28E
  8
0
  0
BLOCK
 67
     1
  8
0
  2
$PAPER_SPACE
 70
     0
 10
0.0
 20
0.0
 30
0.0
  3
$PAPER_SPACE
  1

  0
ENDBLK
  5
28C
 67
     1
  8
0
  0
ENDSEC
  0
SECTION
  2
ENTITIES
  0
TEXT
  5
33D
  8
0
 62
     3
 10
0.0
 20
0.0
 30
0.0
 40
10.0
  1
L5-RPH24D60N
  7
STANDARD1
  0
LINE
  5
400
  8
0
 10
30.000000000000028
 20
100.00000003571139
 30
0.0
 11
80.0
 21
100.00000003571139
 31
0.0
  0
LINE
  5
401
  8
0
 10
30.0
 20
133.86335348602131
 30
0.0
 11
80.0
 21
133.86335348602131
 31
0.0
  0
LINE
  5
403
  8
0
 10
30.0
 20
133.86335348602131
 30
0.0
 11
30.0
 21
100.00000003571139
 31
0.0
  0
LINE
  5
404
  8
0
 10
80.0
 20
133.8633534860214
 30
0.0
 11
80.0
 21
100.00000003571139
 31
0.0
  0
LINE
  5
406
  8
0
 10
112.4473324306432
 20
79.999999999999986
 30
0.0
 11
112.4473324306432
 21
29.999999999999989
 31
0.0
  0
LINE
  5
407
  8
0
 10
107.4473324306433
 20
79.999999999999986
 30
0.0
 11
107.4473324306433
 21
29.999999999999989
 31
0.0
  0
LINE
  5
408
  8
3
 10
119.38682969843821
 20
79.999999999999986
 30
0.0
 11
119.38682969843821
 21
29.999999999999989
 31
0.0
  0
LINE
  5
409
  8
0
 10
129.26083000358221
 20
79.999999999999986
 30
0.0
 11
129.26083000358221
 21
29.999999999999989
 31
0.0
  0
LINE
  5
40A
  8
0
 10
100.0
 20
79.999999999999986
 30
0.0
 11
129.26083000358221
 21
79.999999999999986
 31
0.0
  0
LINE
  5
40B
  8
0
 10
100.0
 20
29.999999999999989
 30
0.0
 11
129.26083000358221
 21
29.999999999999989
 31
0.0
  0
LINE
  5
40C
  8
1
 10
109.9377601699202
 20
82.999999999999986
 30
0.0
 11
109.9377601699202
 21
26.999999999999989
 31
0.0
  0
LINE
  5
40D
  8
1
 10
125.2249004093824
 20
108.5000000357112
 30
0.0
 11
102.70823991098651
 21
121.50000003571149
 31
0.0
  0
ARC
  5
40E
  8
1
 10
139.93782446042391
 20
99.983415620250966
 30
0.0
 40
30.000064290503701
 50
114.2291192935044
 51
185.7073254991588
  0
LINE
  5
410
  8
0
 10
106.69144499482231
 20
105.47132045354159
 30
0.0
 11
104.4411399202494
 21
103.2210151752319
 31
0.0
  0
LINE
  5
411
  8
0
 10
105.4186532758596
 20
106.7441123782379
 30
0.0
 11
102.8772202905065
 21
104.20267943290089
 31
0.0
  0
LINE
  5
412
  8
0
 10
119.33975453495491
 20
129.2513397001737
 30
0.0
 11
118.5160861047172
 21
126.177367269936
 31
0.0
  0
LINE
  5
413
  8
0
 10
117.7726490729743
 20
130.00231798114291
 30
0.0
 11
116.8424195329582
 21
126.5306568071522
 31
0.0
  0
LINE
  5
414
  8
0
 10
107.4473328093182
 20
101.5000003540124
 30
0.0
 11
107.4473320519683
 21
100.799999665781
 31
0.0
  0
LINE
  5
415
  8
0
 10
112.4473319269057
 20
101.4999998445514
 30
0.0
 11
112.4473320355812
 21
100.7999996563199
 31
0.0
  0
LINE
  5
416
  8
0
 10
128.9928812169511
 20
118.9736658350577
 30
0.0
 11
126.5323322169511
 21
123.2354617175704
 31
0.0
  0
LINE
  5
417
  8
0
 10
123.23233221695109
 20
128.95122938254769
 30
0.0
 11
120.9736662169511
 21
132.86335365187611
 31
0.0
  0
LINE
  5
418
  8
0
 10
125.7822804901391
 20
120.93458941671361
 30
0.0
 11
124.72348649013909
 21
122.76847441946271
 31
0.0
  0
LINE
  5
419
  8
0
 10
121.9234864901391
 20
127.61821668065549
 30
0.0
 11
120.86469249013911
 21
129.45210168340461
 31
0.0
  0
LINE
  5
41A
  8
0
 10
119.9503544029199
 20
121.9357817057636
 30
0.0
 11
118.8157874029199
 21
123.9009093943546
 31
0.0
  0
LINE
  5
41B
  8
0
 10
118.4565091264125
 20
120.9231976233212
 30
0.0
 11
117.3219416761079
 21
122.8883260918626
 31
0.0
  0
LINE
  5
41C
  8
0
 10
113.7088280117362
 20
119.84840853207569
 30
0.0
 11
113.0247578305695
 21
121.0280290902833
 31
0.0
  0
LINE
  5
41D
  8
0
 10
107.8422250604891
 20
113.0516189114693
 30
0.0
 11
107.3760494139309
 21
113.8590588165593
 31
0.0
  0
LINE
  5
41E
  8
0
 10
106.3709176656956
 20
112.0000000728033
 30
0.0
 11
106.1343641288794
 21
112.4097228172791
 31
0.0
  0
LINE
  5
41F
  8
0
 10
117.6429404021378
 20
103.57718398921391
 30
0.0
 11
114.4760116215709
 21
106.7441124991775
 31
0.0
  0
ARC
  5
420
  8
0
 10
111.0818992168832
 20
103.34999980447429
 30
0.0
 40
4.7999999999999989
 50
45.00000244786527
 51
90.000004037736659
  0
LINE
  5
421
  8
0
 10
115.45352452626869
 20
103.2210155251172
 30
0.0
 11
113.2032192479589
 21
105.4713205996901
 31
0.0
  0
LINE
  5
422
  8
0
 10
110.57640186849891
 20
117.99654191426571
 30
0.0
 11
108.223234215169
 21
119.3551431433812
 31
0.0
  0
LINE
  5
423
  8
0
 10
120.2230620752169
 20
110.3485821617313
 30
0.0
 11
117.356736032005
 21
112.0034563620501
 31
0.0
  0
LINE
  5
424
  8
0
 10
109.6764039503052
 20
116.4376983918381
 30
0.0
 11
107.3232359267046
 21
117.7963006556994
 31
0.0
  0
LINE
  5
425
  8
0
 10
124.8459465349549
 20
119.7143353999444
 30
0.0
 11
121.7719741047172
 21
120.53800383018221
 31
0.0
  0
LINE
  5
426
  8
0
 10
125.6972044989399
 20
117.527577355975
 30
0.0
 11
121.3710996480856
 21
118.68675365713371
 31
0.0
  0
ARC
  5
427
  8
0
 10
122.6134310645777
 20
123.32319762332121
 30
0.0
 40
4.7999999999999989
 50
209.9999999999996
 51
255.0000000000004
  0
LINE
  5
428
  8
0
 10
109.6378282968662
 20
112.80161887582911
 30
0.0
 11
108.2752374114352
 21
112.8016195193258
 31
0.0
  0
LINE
  5
429
  8
0
 10
113.9665701601845
 20
110.85000048181131
 30
0.0
 11
108.36277626227169
 21
110.8500000728032
 31
0.0
  0
ARC
  5
42A
  8
0
 10
108.3627760943999
 20
113.15000007280319
 30
0.0
 40
2.2999999999999989
 50
209.99999999999619
 51
270.00000418188807
  0
LINE
  5
42B
  8
0
 10
118.03842995802999
 20
99.999999984545823
 30
0.0
 11
113.2473324603427
 21
100.0000002745562
 31
0.0
  0
LINE
  5
42C
  8
0
 10
111.0818988786186
 20
108.14999980447431
 30
0.0
 11
108.8127654508512
 21
108.1499996445644
 31
0.0
  0
LINE
  5
42D
  8
0
 10
111.0818993571333
 20
106.3500004297065
 30
0.0
 11
108.8127650874452
 21
106.350000274002
 31
0.0
  0
LINE
  5
42E
  8
0
 10
107.14733229177951
 20
101.80000049268649
 30
0.0
 11
105.02974342813479
 21
101.7999999940611
 31
0.0
  0
LINE
  5
42F
  8
0
 10
114.86492056319911
 20
101.7999994946902
 30
0.0
 11
112.7473325655798
 21
101.7999994960647
 31
0.0
  0
LINE
  5
430
  8
0
 10
106.64733217020461
 20
100.0000001070449
 30
0.0
 11
101.9999997993901
 21
99.999999892955074
 31
0.0
  0
LINE
  5
431
  8
0
 10
125.43951189392349
 20
123.528282040598
 30
0.0
 11
124.8332941112744
 21
123.17828204059801
 31
0.0
  0
LINE
  5
432
  8
0
 10
122.93951189392349
 20
127.8584090595202
 30
0.0
 11
122.3332941112744
 21
127.5084090595202
 31
0.0
  0
ARC
  5
433
  8
0
 10
139.947332216951
 20
100.000000134034
 30
0.0
 40
20.0
 50
125.2159090619985
 51
174.7840913120003
  0
ARC
  5
434
  8
0
 10
139.947332216951
 20
100.000000134034
 30
0.0
 40
40.0
 50
123.01696075800081
 51
176.9830393971005
  0
ARC
  5
435
  8
0
 10
139.947332216951
 20
100.000000134034
 30
0.0
 40
36.200000000000003
 50
157.59158712281089
 51
159.2302058583391
  0
ARC
  5
436
  8
0
 10
106.9430367120387
 20
113.6090588165594
 30
0.0
 40
0.5
 50
29.999999999999069
 51
157.59158712281021
  0
ARC
  5
437
  8
0
 10
106.56737683077171
 20
112.6597228172791
 30
0.0
 40
0.5
 50
159.23020585833811
 51
209.99999999999849
  0
ARC
  5
438
  8
0
 10
139.947332216951
 20
100.000000134034
 30
0.0
 40
21.799999884999998
 50
153.59941154709969
 51
169.8476453001995
  0
ARC
  5
439
  8
0
 10
139.947332216951
 20
100.000000134034
 30
0.0
 40
21.799999883400002
 50
130.1523542212999
 51
146.40058800790101
  0
ARC
  5
43A
  8
0
 10
139.94732966997529
 20
100.0000006073748
 30
0.0
 40
38.199997144587542
 50
126.9414471008337
 51
147.07233260358061
  0
ARC
  5
43B
  8
0
 10
108.7232340084354
 20
120.2211686665233
 30
0.0
 40
1.0
 50
147.07233260358049
 51
240.00001367738221
  0
ARC
  5
43C
  8
0
 10
139.94732966997529
 20
100.0000006073748
 30
0.0
 40
38.199997144587542
 50
152.9276697618325
 51
173.0585508037671
  0
ARC
  5
43D
  8
0
 10
106.8232359068349
 20
116.9302752633868
 30
0.0
 40
1.0
 50
59.9999986854273
 51
152.92766976183091
  0
ARC
  5
43E
  8
0
 10
118.03842986181439
 20
102.00000015119601
 30
0.0
 40
2.0000001666999991
 50
270.00000012180112
 51
354.78409260289982
  0
ARC
  5
43F
  8
0
 10
113.2473326218565
 20
100.7999999948062
 30
0.0
 40
0.7999997201999999
 50
180.0000272488997
 51
270.00001438140117
  0
ARC
  5
440
  8
0
 10
117.99649412922579
 20
103.93073697069219
 30
0.0
 40
0.5000002074999999
 50
224.9999672118021
 51
349.84766235340049
  0
ARC
  5
441
  8
0
 10
114.8649205324066
 20
102.63241154802429
 30
0.0
 40
0.8324120532999998
 50
269.99999633139902
 51
44.999996794697189
  0
ARC
  5
442
  8
0
 10
112.7473322550122
 20
101.5000000339836
 30
0.0
 40
0.3000003280999999
 50
89.999967295698653
 51
179.99994437889961
  0
ARC
  5
443
  8
0
 10
111.0818992514567
 20
103.3500006127438
 30
0.0
 40
2.9999995023999988
 50
45.000001632701967
 51
90.000002591199618
  0
ARC
  5
444
  8
0
 10
106.6473323317183
 20
100.7999998272948
 30
0.0
 40
0.7999997201999999
 50
269.99999542949843
 51
359.99998194120047
  0
ARC
  5
445
  8
0
 10
107.14733248121181
 20
101.5000001645801
 30
0.0
 40
0.3000003280999999
 50
0.0000801264994745
 51
90.000012456499036
  0
ARC
  5
446
  8
0
 10
108.8127649817685
 20
103.3500004570394
 30
0.0
 40
2.9999998169999991
 50
90.000005310499176
 51
134.99999771319969
  0
ARC
  5
447
  8
0
 10
108.81276548176859
 20
103.349999591014
 30
0.0
 40
4.800000053599998
 50
90.000001054000606
 51
134.99999763039909
  0
ARC
  5
448
  8
0
 10
119.97306181704801
 20
109.9155693107852
 30
0.0
 40
0.4999998932
 50
333.59941131220091
 51
59.999985814798713
  0
ARC
  5
449
  8
0
 10
105.0297438973424
 20
102.6324111813698
 30
0.0
 40
0.8324117390999997
 50
135.0000008455996
 51
269.9999945564993
  0
ARC
  5
44A
  8
0
 10
121.3730617039482
 20
112.34044037608329
 30
0.0
 40
0.5000002582000001
 50
240.00000557489901
 51
326.40060864120022
  0
ARC
  5
44B
  8
0
 10
102.0000005692
 20
102.0000005596052
 30
0.0
 40
2.0000005691999991
 50
176.9830527841998
 51
269.9999955886006
  0
ARC
  5
44C
  8
0
 10
117.1067358929857
 20
111.57044344231301
 30
0.0
 40
0.5000002582000001
 50
60.000007055502131
 51
132.4778053917988
  0
ARC
  5
44D
  8
0
 10
127.26083040938219
 20
117.9736658350577
 30
0.0
 40
1.9999995941999991
 50
305.2159033959008
 51
29.999997806200579
  0
ARC
  5
44E
  8
0
 10
125.56779425333021
 20
117.04461447639071
 30
0.0
 40
0.4999997189
 50
310.15235920849881
 51
75.000016006899898
  0
ARC
  5
44F
  8
0
 10
102.5236673090282
 20
104.55623315998881
 30
0.0
 40
0.4999997896
 50
173.05856798539961
 51
314.99998871410139
  0
ARC
  5
450
  8
0
 10
118.5067357798858
 20
113.9953145076112
 30
0.0
 40
0.500000186
 50
167.60065586864741
 51
240.0000027296997
  0
ARC
  5
451
  8
0
 10
113.96519807415081
 20
114.99378183165619
 30
0.0
 40
4.1500000000000004
 50
347.60065586864721
 51
30.009473354810979
  0
ARC
  5
452
  8
0
 10
125.061390551724
 20
120.5183834167136
 30
0.0
 40
0.8324117596999998
 50
254.9999788763985
 51
30.00000190099961
  0
CIRCLE
  5
453
  8
0
 10
113.9665701601845
 20
115.00000003571139
 30
0.0
 40
2.149999999999999
  0
ARC
  5
454
  8
0
 10
113.9665701601845
 20
115.00000003571139
 30
0.0
 40
4.1499995538999981
 50
270.0
 51
312.47780199079841
  0
ARC
  5
455
  8
0
 10
113.9665701601845
 20
115.00000003571139
 30
0.0
 40
4.1500002772999993
 50
98.542869045201087
 51
132.47783898007131
  0
ARC
  5
456
  8
0
 10
110.826401765132
 20
118.4295546758368
 30
0.0
 40
0.5
 50
240.00001367738031
 51
312.4778389800714
  0
ARC
  5
457
  8
0
 10
113.9665701601845
 20
115.00000003571139
 30
0.0
 40
4.1500002772999993
 50
167.5221941119938
 51
201.42254009709961
  0
ARC
  5
458
  8
0
 10
109.42640394037031
 20
116.0046856956819
 30
0.0
 40
0.5
 50
347.522194111994
 51
59.9999986854273
  0
ARC
  5
459
  8
0
 10
109.6378281478123
 20
113.301619133998
 30
0.0
 40
0.5000002582000001
 50
269.99998924310148
 51
21.42254191699946
  0
ARC
  5
45A
  8
0
 10
125.8395118939235
 20
122.8354617175705
 30
0.0
 40
0.8
 50
30.00000203819927
 51
119.9999999999999
  0
ARC
  5
45B
  8
0
 10
124.9832941112744
 20
122.9184744194627
 30
0.0
 40
0.2999999999999999
 50
119.9999999999999
 51
210.0000059484999
  0
ARC
  5
45C
  8
0
 10
108.27523776238129
 20
113.3016189114693
 30
0.0
 40
0.5
 50
209.99999797359959
 51
269.99999277910149
  0
ARC
  5
45D
  8
0
 10
122.5484306142732
 20
123.4357817057636
 30
0.0
 40
2.9999999999999991
 50
209.9999998310013
 51
255.0000027783004
  0
ARC
  5
45E
  8
0
 10
113.275815809844
 20
119.59840766605031
 30
0.0
 40
0.5000000412999999
 50
278.5428788028002
 51
30.00002591769999
  0
ARC
  5
45F
  8
0
 10
121.47886361427319
 20
125.2883260918626
 30
0.0
 40
4.8000006367999992
 50
165.0000009304994
 51
209.99999715499959
  0
ARC
  5
460
  8
0
 10
121.4138636142732
 20
125.4009093943546
 30
0.0
 40
2.9999995140999989
 50
164.99999438610001
 51
210.00000298910109
  0
ARC
  5
461
  8
0
 10
122.18329411127441
 20
127.7682166806555
 30
0.0
 40
0.2999999999999999
 50
210.0000222524998
 51
300.0
  0
ARC
  5
462
  8
0
 10
122.5395118939235
 20
128.5512293825478
 30
0.0
 40
0.8
 50
300.0
 51
29.99999093909997
  0
ARC
  5
463
  8
0
 10
120.14380255172409
 20
129.03589568340459
 30
0.0
 40
0.8324119999999998
 50
29.99996742219945
 51
165.00003991439979
  0
ARC
  5
464
  8
0
 10
117.28968532736469
 20
130.1317277267525
 30
0.0
 40
0.4999994476
 50
344.99998631559839
 51
126.9413950674022
  0
ARC
  5
465
  8
0
 10
119.24161540938221
 20
131.86335365187611
 30
0.0
 40
1.9999999999999989
 50
30.000001160600519
 51
123.0169505405015
  0
LINE
  5
466
  8
0
 10
121.12306181481139
 20
111.9074277334704
 30
0.0
 11
118.25673577159939
 21
113.5623019337893
 31
0.0
  0
LINE
  5
467
  8
0
 10
112.5882259026388
 20
121.2735038398547
 30
0.0
 11
111.65587462227781
 21
121.27334961569311
 31
0.0
  0
LINE
  5
468
  8
0
 10
112.7630030868001
 20
123.0735317751123
 30
0.0
 11
112.2898960196401
 21
123.0734535164749
 31
0.0
  0
ARC
  5
469
  8
0
 10
112.7633835395053
 20
120.7735318065785
 30
0.0
 40
2.2999999999999989
 50
30.009473354810979
 51
90.00947753670232
  0
ARC
  5
46A
  8
0
 10
139.947332216951
 20
100.0000001340339
 30
0.0
 40
36.200000000000003
 50
140.77927167835961
 51
142.41789041388699
  0
ARC
  5
46B
  8
0
 10
111.65579191516809
 20
121.7733496088526
 30
0.0
 40
0.5
 50
142.4178904138891
 51
270.00947753670067
  0
ARC
  5
46C
  8
0
 10
112.28997872674999
 20
122.57345352331539
 30
0.0
 40
0.5
 50
90.0094775367007
 51
140.7792716783616
  0
ARC
  5
46D
  8
0
 10
112.5828202376875
 20
120.7530073975396
 30
0.0
 40
0.5205245118935558
 50
31.89437140763139
 51
89.404972610691999
  0
LINE
  5
46E
  8
0
 10
117.5588603676741
 20
117.06937604057779
 30
0.0
 11
114.7550517985664
 21
121.9238611271856
 31
0.0
  0
LINE
  5
999
  8
0
 10
100.0
 20
29.999999999999989
 30
0.0
 11
100.0
 21
79.999999999999986
 31
0.0
  0
ENDSEC
  0
EOF
