  0
SECTION
  2
HEADER
  9
$ACADVER
  1
AC1009
  9
$INSBASE
 10
0.0
 20
0.0
 30
0.0
  9
$EXTMIN
 10
0.0
 20
-2.960436562073669
 30
0.0
  9
$EXTMAX
 10
183.83097703283769
 20
166.06367066020749
 30
0.0
  9
$LIMMIN
 10
0.0
 20
0.0
  9
$LIMMAX
 10
275.0
 20
175.0
  9
$ORTHOMODE
 70
     1
  9
$REGENMODE
 70
     1
  9
$FILLMODE
 70
     1
  9
$QTEXTMODE
 70
     0
  9
$MIRRTEXT
 70
     0
  9
$DRAGMODE
 70
     2
  9
$LTSCALE
 40
10.0
  9
$OSMODE
 70
  3071
  9
$ATTMODE
 70
     1
  9
$TEXTSIZE
 40
0.2
  9
$TRACEWID
 40
0.05
  9
$TEXTSTYLE
  7
STANDARD
  9
$CLAYER
  8
0
  9
$CELTYPE
  6
BYLAYER
  9
$CECOLOR
 62
   256
  9
$DIMSCALE
 40
1.0
  9
$DIMASZ
 40
3.0
  9
$DIMEXO
 40
1.0
  9
$DIMDLI
 40
6.0
  9
$DIMRND
 40
0.0
  9
$DIMDLE
 40
0.0
  9
$DIMEXE
 40
1.0
  9
$DIMTP
 40
495.0
  9
$DIMTM
 40
0.0
  9
$DIMTXT
 40
3.0
  9
$DIMCEN
 40
0.0
  9
$DIMTSZ
 40
0.0
  9
$DIMTOL
 70
     0
  9
$DIMLIM
 70
     0
  9
$DIMTIH
 70
     0
  9
$DIMTOH
 70
     0
  9
$DIMSE1
 70
     0
  9
$DIMSE2
 70
     0
  9
$DIMTAD
 70
     1
  9
$DIMZIN
 70
     0
  9
$DIMBLK
  1

  9
$DIMASO
 70
     0
  9
$DIMSHO
 70
     0
  9
$DIMPOST
  1

  9
$DIMAPOST
  1

  9
$DIMALT
 70
     0
  9
$DIMALTD
 70
     2
  9
$DIMALTF
 40
25.399999999999999
  9
$DIMLFAC
 40
1.0
  9
$DIMTOFL
 70
     1
  9
$DIMTVP
 40
0.0
  9
$DIMTIX
 70
     1
  9
$DIMSOXD
 70
     0
  9
$DIMSAH
 70
     0
  9
$DIMBLK1
  1

  9
$DIMBLK2
  1

  9
$DIMSTYLE
  2
STANDARD
  9
$DIMCLRD
 70
     0
  9
$DIMCLRE
 70
     0
  9
$DIMCLRT
 70
     4
  9
$DIMTFAC
 40
1.0
  9
$DIMGAP
 40
1.0
  9
$LUNITS
 70
     2
  9
$LUPREC
 70
     4
  9
$SKETCHINC
 40
0.1
  9
$FILLETRAD
 40
0.0
  9
$AUNITS
 70
     0
  9
$AUPREC
 70
     0
  9
$MENU
  1
E:\r13\win\SUPPORT\ACAD
  9
$ELEVATION
 40
0.0
  9
$PELEVATION
 40
0.0
  9
$THICKNESS
 40
0.0
  9
$LIMCHECK
 70
     0
  9
$BLIPMODE
 70
     0
  9
$CHAMFERA
 40
0.0
  9
$CHAMFERB
 40
0.0
  9
$SKPOLY
 70
     0
  9
$TDCREATE
 40
2450653.5278402781
  9
$TDUPDATE
 40
2456597.5468423148
  9
$TDINDWG
 40
0.1638862731
  9
$TDUSRTIMER
 40
0.1638862731
  9
$USRTIMER
 70
     1
  9
$ANGBASE
 50
0.0
  9
$ANGDIR
 70
     0
  9
$PDMODE
 70
     0
  9
$PDSIZE
 40
0.0
  9
$PLINEWID
 40
0.0
  9
$COORDS
 70
     1
  9
$SPLFRAME
 70
     0
  9
$SPLINETYPE
 70
     6
  9
$SPLINESEGS
 70
     8
  9
$ATTDIA
 70
     0
  9
$ATTREQ
 70
     1
  9
$HANDLING
 70
     1
  9
$HANDSEED
  5
20DC
  9
$SURFTAB1
 70
     6
  9
$SURFTAB2
 70
     6
  9
$SURFTYPE
 70
     6
  9
$SURFU
 70
     6
  9
$SURFV
 70
     6
  9
$UCSNAME
  2

  9
$UCSORG
 10
0.0
 20
0.0
 30
0.0
  9
$UCSXDIR
 10
1.0
 20
0.0
 30
0.0
  9
$UCSYDIR
 10
0.0
 20
1.0
 30
0.0
  9
$PUCSNAME
  2

  9
$PUCSORG
 10
0.0
 20
0.0
 30
0.0
  9
$PUCSXDIR
 10
1.0
 20
0.0
 30
0.0
  9
$PUCSYDIR
 10
0.0
 20
1.0
 30
0.0
  9
$USERI1
 70
     4
  9
$USERI2
 70
     1
  9
$USERI3
 70
     1
  9
$USERI4
 70
     0
  9
$USERI5
 70
     0
  9
$USERR1
 40
1.0
  9
$USERR2
 40
3.0
  9
$USERR3
 40
3.0
  9
$USERR4
 40
3.0
  9
$USERR5
 40
10.0
  9
$WORLDVIEW
 70
     1
  9
$SHADEDGE
 70
     3
  9
$SHADEDIF
 70
    70
  9
$TILEMODE
 70
     1
  9
$MAXACTVP
 70
    16
  9
$PLIMCHECK
 70
     0
  9
$PEXTMIN
 10
1.0000000000000000E+020
 20
1.0000000000000000E+020
 30
1.0000000000000000E+020
  9
$PEXTMAX
 10
-1.0000000000000000E+020
 20
-1.0000000000000000E+020
 30
-1.0000000000000000E+020
  9
$PLIMMIN
 10
0.0
 20
0.0
  9
$PLIMMAX
 10
12.0
 20
9.0
  9
$UNITMODE
 70
     0
  9
$VISRETAIN
 70
     0
  9
$PLINEGEN
 70
     0
  9
$PSLTSCALE
 70
     0
  0
ENDSEC
  0
SECTION
  2
TABLES
  0
TABLE
  2
VPORT
 70
     1
  0
VPORT
  2
*ACTIVE
 70
     0
 10
0.0
 20
0.0
 11
1.0
 21
1.0
 12
137.495804153145
 22
105.14973110994291
 13
0.0
 23
0.0
 14
5.0
 24
5.0
 15
10.0
 25
10.0
 16
0.0
 26
0.0
 36
1.0
 17
0.0
 27
0.0
 37
0.0
 40
218.28380694200069
 41
1.9089595375722539
 42
50.0
 43
0.0
 44
0.0
 50
0.0
 51
0.0
 71
     0
 72
   100
 73
     1
 74
     0
 75
     0
 76
     0
 77
     0
 78
     0
  0
ENDTAB
  0
TABLE
  2
LTYPE
 70
     6
  0
LTYPE
  2
CONTINUOUS
 70
     0
  3
Solid Line
 72
    65
 73
     0
 40
0.0
  0
LTYPE
  2
CENTER
 70
     0
  3
____ _ ____ _ ____ _ ____ _ ____ _ ____ _ ____
 72
    65
 73
     4
 40
2.0
 49
1.25
 49
-0.25
 49
0.25
 49
-0.25
  0
LTYPE
  2
HIDDEN
 70
     0
  3
__ __ __ __ __ __ __ __ __ __ __ __ __ __ __ __
 72
    65
 73
     2
 40
0.375
 49
0.25
 49
-0.125
  0
LTYPE
  2
AM_ISO02W050X2
 70
     0
  3
 _ _ _ _ _ _ _ _ _ _ _ _
 72
    65
 73
     2
 40
3.75
 49
3.0
 49
-0.75
  0
LTYPE
  2
AM_ISO08W050X2
 70
     0
  3
__ . __ . __ . __ . __ . __
 72
    65
 73
     4
 40
9.0
 49
6.0
 49
-0.75
 49
1.5
 49
-0.75
  0
LTYPE
  2
PHANTOM2
 70
     0
  3
___ _ _ ___ _ _ ___ _ _ ___ _ _
 72
    65
 73
     6
 40
1.25
 49
0.625
 49
-0.125
 49
0.125
 49
-0.125
 49
0.125
 49
-0.125
  0
ENDTAB
  0
TABLE
  2
LAYER
 70
     4
  0
LAYER
  2
0
 70
     0
 62
     7
  6
CONTINUOUS
  0
LAYER
  2
1
 70
     0
 62
     1
  6
CENTER
  0
LAYER
  2
2
 70
     0
 62
     2
  6
HIDDEN
  0
LAYER
  2
3
 70
     0
 62
     3
  6
CONTINUOUS
  0
ENDTAB
  0
TABLE
  2
STYLE
 70
     2
  0
STYLE
  2
STANDARD
 70
     0
 40
0.0
 41
1.0
 50
0.0
 71
     0
 42
0.2
  3
simplex
  4
bigfont
  0
STYLE
  2
STANDARD1
 70
     0
 40
0.0
 41
1.0
 50
0.0
 71
     0
 42
3.0
  3
txt
  4

  0
ENDTAB
  0
TABLE
  2
VIEW
 70
     0
  0
ENDTAB
  0
TABLE
  2
UCS
 70
     0
  0
ENDTAB
  0
TABLE
  2
APPID
 70
    46
  0
APPID
  2
ACAD
 70
     0
  0
APPID
  2
GENIUS_GENODEF_13
 70
     0
  0
APPID
  2
GENIUS_GENOBJ-N-FIL_13
 70
     0
  0
APPID
  2
GENIUS_GENOENT_13
 70
     0
  0
APPID
  2
GENIUS_GENOBJ_13
 70
     0
  0
APPID
  2
GENIUS_GENOLIS_13
 70
     0
  0
APPID
  2
GENIUS_GENOREF_13
 70
     0
  0
APPID
  2
GENIUS_GENOBJ-N-SEC_13
 70
     0
  0
APPID
  2
GENIUS_GENOBJ-N-CRS_13
 70
     0
  0
APPID
  2
GENIUS_GENBH_13
 70
     0
  0
APPID
  2
GENIUS_GENOBJ-NBEHI-BHF_13
 70
     0
  0
APPID
  2
GENIUS_GENOBJ-NBEHI-BHB_13
 70
     0
  0
APPID
  2
GENIUS_GENOBJ-F-PART_13
 70
     0
  0
APPID
  2
GENIUS_GEFSTDP_13
 70
     0
  0
APPID
  2
GENIUS_GENOBJ-N-RSSYM_13
 70
     0
  0
APPID
  2
GENIUS_GENSYMENT_13
 70
     0
  0
APPID
  2
GENIUS_GEFINERT_13
 70
     0
  0
APPID
  2
GENIUS_GENOBJ-F-INER_13
 70
     0
  0
APPID
  2
GENIUS_GENOBJ-N-TIT_13
 70
     0
  0
APPID
  2
GENIUS_GENTITLE_13
 70
     0
  0
APPID
  2
GENIUS_GENZVEED_13
 70
     0
  0
APPID
  2
GENIUS_GENOBJ-N-LEADER_13
 70
     0
  0
APPID
  2
GENIUS_GENOBJ-N-ZOO_13
 70
     0
  0
APPID
  2
GENIUS_GENZOO_13
 70
     0
  0
APPID
  2
GENIUS_GENOBJ-F-TOL_13
 70
     0
  0
APPID
  2
GENIUS_GENOBJ-N-REV_13
 70
     0
  0
APPID
  2
GENIUS_GENOBJ-F-ROD_13
 70
     0
  0
APPID
  2
GENIUS_GENOBJ-F-SPR_13
 70
     0
  0
APPID
  2
GENIUS_GEFSPRING_13
 70
     0
  0
APPID
  2
GENIUS_GENCFG_13
 70
     0
  0
APPID
  2
GENIUS_GENCFG0_13
 70
     0
  0
APPID
  2
GENIUS_GENCFG1_13
 70
     0
  0
APPID
  2
GENIUS_GENCFG2_13
 70
     0
  0
APPID
  2
GENIUS_GENCFG3_13
 70
     0
  0
APPID
  2
GENIUS_GENCFG4_13
 70
     0
  0
APPID
  2
GENIUS_GEVCFG0_13
 70
     0
  0
APPID
  2
GENIUS_GENOBJ-N-REC_13
 70
     0
  0
APPID
  2
GENIUS_GENFIL_13
 70
     0
  0
APPID
  2
GENIUS_GENOBJ-N-CHA_13
 70
     0
  0
APPID
  2
GENIUS_GENREC_13
 70
     0
  0
APPID
  2
GENIUS_GENOBJ-F-FEM_13
 70
     0
  0
APPID
  2
GENIUS_GEFFEM_13
 70
     0
  0
APPID
  2
GENIUS_GENOBJ-N-CEN_13
 70
     0
  0
APPID
  2
GENIUS_GENREC_14
 70
     0
  0
APPID
  2
ACAD_MLEADERVER
 70
     0
  0
APPID
  2
ACAD_NAV_VCDISPLAY
 70
     0
  0
ENDTAB
  0
TABLE
  2
DIMSTYLE
 70
     1
  0
DIMSTYLE
  2
STANDARD
 70
     0
  3

  4

  5

  6

  7

 40
1.0
 41
0.18
 42
0.0625
 43
0.38
 44
0.18
 45
0.0
 46
0.0
 47
0.0
 48
0.0
140
0.18
141
0.09
142
0.0
143
25.399999999999999
144
1.0
145
0.0
146
1.0
147
0.09
 71
     0
 72
     0
 73
     1
 74
     1
 75
     0
 76
     0
 77
     0
 78
     0
170
     0
171
     2
172
     0
173
     0
174
     0
175
     0
176
     0
177
     0
178
     0
  0
ENDTAB
  0
ENDSEC
  0
SECTION
  2
BLOCKS
  0
BLOCK
  8
0
  2
$MODEL_SPACE
 70
     0
 10
0.0
 20
0.0
 30
0.0
  3
$MODEL_SPACE
  1

  0
ENDBLK
  5
1D7B
  8
0
  0
BLOCK
 67
     1
  8
0
  2
$PAPER_SPACE
 70
     0
 10
0.0
 20
0.0
 30
0.0
  3
$PAPER_SPACE
  1

  0
ENDBLK
  5
1D79
 67
     1
  8
0
  0
ENDSEC
  0
SECTION
  2
ENTITIES
  0
LINE
  5
1C9A
  8
0
 10
115.80689704348239
 20
123.56367066020751
 30
0.0
 11
115.80689704348239
 21
163.56367066020749
 31
0.0
  0
LINE
  5
1C9C
  8
0
 10
109.4568970434824
 20
163.56367066020749
 30
0.0
 11
109.4568970434824
 21
123.56367066020751
 31
0.0
  0
LINE
  5
1C9D
  8
0
 10
104.55689704348239
 20
163.56367066020749
 30
0.0
 11
104.55689704348239
 21
123.56367066020751
 31
0.0
  0
LINE
  5
1C9E
  8
0
 10
99.806897043482437
 20
163.56367066020749
 30
0.0
 11
99.806897043482437
 21
123.56367066020751
 31
0.0
  0
LINE
  5
1CB8
  8
0
 10
143.83097703283781
 20
85.399732747472285
 30
0.0
 11
183.83097703283769
 21
85.399732747472285
 31
0.0
  0
LINE
  5
1CB9
  8
0
 10
143.83097703283781
 20
87.999732747472294
 30
0.0
 11
183.83097703283769
 21
87.999732747472294
 31
0.0
  0
LINE
  5
1CBA
  8
0
 10
143.83097703283781
 20
89.999732747472237
 30
0.0
 11
183.83097703283769
 21
89.999732747472237
 31
0.0
  0
LINE
  5
1CBB
  8
0
 10
143.83097703283781
 20
92.499732747472308
 30
0.0
 11
183.83097703283769
 21
92.499732747472308
 31
0.0
  0
LINE
  5
1CBC
  8
0
 10
183.83097703283769
 20
94.999732747472308
 30
0.0
 11
143.83097703283781
 21
94.999732747472308
 31
0.0
  0
LINE
  5
1CBE
  8
1
 10
107.80689704348239
 20
97.499732747472351
 30
0.0
 11
107.80689704348239
 21
82.399732747472285
 31
0.0
  0
ARC
  5
1CBF
  8
0
 10
115.30689704348239
 20
90.499732747472294
 30
0.0
 40
0.5
 50
270.0
 51
0.0
1001
GENIUS_GENODEF_13
1002
{
1000
HIER
1070
     0
1002
}
1002
{
1000
MANEDIT
1070
     0
1002
}
1002
{
1000
NOSEL
1070
     0
1002
}
1002
{
1000
BEHIND
1070
     0
1002
}
1002
{
1000
REACTOR
1002
}
1001
GENIUS_GENOBJ-N-FIL_13
1002
{
1000
OWNER
1000
GEN
1002
}
  0
ARC
  5
1CC0
  8
0
 10
100.30689704348239
 20
90.499732747472294
 30
0.0
 40
0.5
 50
180.0
 51
270.0
1001
GENIUS_GENODEF_13
1002
{
1000
HIER
1070
     0
1002
}
1002
{
1000
MANEDIT
1070
     0
1002
}
1002
{
1000
NOSEL
1070
     0
1002
}
1002
{
1000
BEHIND
1070
     0
1002
}
1002
{
1000
REACTOR
1002
}
1001
GENIUS_GENOBJ-N-FIL_13
1002
{
1000
OWNER
1000
GEN
1002
}
  0
LINE
  5
1CC1
  8
0
 10
104.5939028119913
 20
85.399732747472285
 30
0.0
 11
111.0198912749734
 21
85.399732747472285
 31
0.0
  0
ARC
  5
1CC2
  8
0
 10
104.5939028119913
 20
85.899732747472285
 30
0.0
 40
0.5
 50
225.00000000000071
 51
270.0
1001
GENIUS_GENODEF_13
1002
{
1000
HIER
1070
     0
1002
}
1002
{
1000
MANEDIT
1070
     0
1002
}
1002
{
1000
NOSEL
1070
     0
1002
}
1002
{
1000
BEHIND
1070
     0
1002
}
1002
{
1000
REACTOR
1002
}
1001
GENIUS_GENOBJ-N-FIL_13
1002
{
1000
OWNER
1000
GEN
1002
}
  0
LINE
  5
1CC3
  8
0
 10
105.35689704348241
 20
88.199732747472297
 30
0.0
 11
105.35689704348241
 21
89.499732747472308
 31
0.0
  0
ARC
  5
1CC4
  8
0
 10
105.1568970434824
 20
88.199732747472297
 30
0.0
 40
0.2
 50
270.0000000000004
 51
359.9999999999996
1001
GENIUS_GENOREF_13
1005
0
  0
ARC
  5
1CC5
  8
0
 10
104.85689704348231
 20
89.499732747472308
 30
0.0
 40
0.5
 50
0.0
 51
90.0
1001
GENIUS_GENODEF_13
1002
{
1000
HIER
1070
     0
1002
}
1002
{
1000
MANEDIT
1070
     0
1002
}
1002
{
1000
NOSEL
1070
     0
1002
}
1002
{
1000
BEHIND
1070
     0
1002
}
1002
{
1000
REACTOR
1002
}
1001
GENIUS_GENOBJ-N-FIL_13
1002
{
1000
OWNER
1000
GEN
1002
}
  0
ARC
  5
1CC6
  8
0
 10
102.9939028119913
 20
87.499732747472308
 30
0.0
 40
0.5
 50
90.0
 51
225.0000000000006
  0
LINE
  5
1CC7
  8
0
 10
104.85689704348231
 20
89.999732747472308
 30
0.0
 11
100.30689704348239
 21
89.999732747472308
 31
0.0
  0
LINE
  5
1CC8
  8
0
 10
102.640349421398
 20
87.146179356879017
 30
0.0
 11
104.24034942139799
 21
85.546179356878994
 31
0.0
  0
LINE
  5
1CC9
  8
0
 10
102.9939028119913
 20
87.999732747472294
 30
0.0
 11
105.1568970434824
 21
87.999732747472294
 31
0.0
  0
ARC
  5
1CCA
  8
0
 10
112.6198912749735
 20
87.499732747472308
 30
0.0
 40
0.5
 50
314.99999999999932
 51
90.0
  0
ARC
  5
1CCB
  8
0
 10
111.0198912749734
 20
85.899732747472285
 30
0.0
 40
0.5
 50
270.00000000000102
 51
315.00000000000051
1001
GENIUS_GENODEF_13
1002
{
1000
HIER
1070
     0
1002
}
1002
{
1000
MANEDIT
1070
     0
1002
}
1002
{
1000
NOSEL
1070
     0
1002
}
1002
{
1000
BEHIND
1070
     0
1002
}
1002
{
1000
REACTOR
1002
}
1001
GENIUS_GENOBJ-N-FIL_13
1002
{
1000
OWNER
1000
GEN
1002
}
  0
LINE
  5
1CCC
  8
0
 10
110.2568970434824
 20
88.199732747472297
 30
0.0
 11
110.2568970434824
 21
89.499732747472308
 31
0.0
  0
ARC
  5
1CCD
  8
0
 10
110.4568970434824
 20
88.199732747472297
 30
0.0
 40
0.2
 50
180.0
 51
270.0
1001
GENIUS_GENOREF_13
1005
0
  0
ARC
  5
1CCE
  8
0
 10
110.7568970434824
 20
89.499732747472308
 30
0.0
 40
0.5
 50
90.0
 51
180.0
1001
GENIUS_GENODEF_13
1002
{
1000
HIER
1070
     0
1002
}
1002
{
1000
MANEDIT
1070
     0
1002
}
1002
{
1000
NOSEL
1070
     0
1002
}
1002
{
1000
BEHIND
1070
     0
1002
}
1002
{
1000
REACTOR
1002
}
1001
GENIUS_GENOBJ-N-FIL_13
1002
{
1000
OWNER
1000
GEN
1002
}
  0
LINE
  5
1CCF
  8
0
 10
111.37344466556669
 20
85.546179356878994
 30
0.0
 11
112.9734446655668
 21
87.146179356879017
 31
0.0
  0
LINE
  5
1CD0
  8
0
 10
112.6198912749735
 20
87.999732747472294
 30
0.0
 11
110.4568970434824
 21
87.999732747472294
 31
0.0
  0
LINE
  5
1CD1
  8
0
 10
110.7568970434824
 20
89.999732747472308
 30
0.0
 11
115.30689704348239
 21
89.999732747472308
 31
0.0
  0
LINE
  5
1CD2
  8
0
 10
99.806897043482437
 20
123.56367066020751
 30
0.0
 11
115.80689704348239
 21
123.56367066020751
 31
0.0
  0
ARC
  5
1CD3
  8
0
 10
109.9568970434824
 20
92.999732747472294
 30
0.0
 40
0.5
 50
180.0
 51
270.0
1001
GENIUS_GENODEF_13
1002
{
1000
HIER
1070
     0
1002
}
1002
{
1000
MANEDIT
1070
     0
1002
}
1002
{
1000
NOSEL
1070
     0
1002
}
1002
{
1000
BEHIND
1070
     0
1002
}
1002
{
1000
REACTOR
1002
}
1001
GENIUS_GENOBJ-N-FIL_13
1002
{
1000
OWNER
1000
GEN
1002
}
  0
LINE
  5
1CD4
  8
1
 10
107.0068970434824
 20
97.499732747472351
 30
0.0
 11
107.0068970434824
 21
92.499732747472336
 31
0.0
  0
LINE
  5
1CD5
  8
0
 10
109.4568970434824
 20
94.499732747472308
 30
0.0
 11
109.4568970434824
 21
92.999732747472294
 31
0.0
1001
GENIUS_GENREC_14
1002
{
1000
PYDIR
1011
104.55689704348239
1021
0.0
1031
0.0
1021
92.499732747472308
1031
0.0
1002
}
1002
{
1000
PXDIR
1011
109.4568970434824
1021
0.0
1031
0.0
1021
94.999732747472308
1031
0.0
1002
}
1002
{
1000
PORI
1011
104.55689704348239
1021
0.0
1031
0.0
1021
94.999732747472308
1031
0.0
1002
}
1002
{
1000
PINS
1011
107.0068970434824
1021
0.0
1031
0.0
1021
94.999732747472308
1031
0.0
1002
}
1002
{
1000
HVAL
1000
-2.5
1002
}
1002
{
1000
H
1070
     2
1002
}
1002
{
1000
WVAL
1000
4.9
1002
}
1002
{
1000
W
1070
     2
1002
}
1002
{
1000
C
1070
     2
1002
}
1001
GENIUS_GENODEF_13
1002
{
1000
HIER
1070
     0
1002
}
1002
{
1000
MANEDIT
1070
     0
1002
}
1002
{
1000
NOSEL
1070
     0
1002
}
1002
{
1000
BEHIND
1070
     0
1002
}
1002
{
1000
REACTOR
1002
}
1001
GENIUS_GENOBJ-N-REC_13
1002
{
1000
OWNER
1000
GEN
1002
}
  0
ARC
  5
1CD6
  8
0
 10
108.9568970434824
 20
94.499732747472308
 30
0.0
 40
0.5
 50
0.0000000000001018
 51
90.0
1001
GENIUS_GENODEF_13
1002
{
1000
HIER
1070
     0
1002
}
1002
{
1000
MANEDIT
1070
     0
1002
}
1002
{
1000
NOSEL
1070
     0
1002
}
1002
{
1000
BEHIND
1070
     0
1002
}
1002
{
1000
REACTOR
1002
}
1001
GENIUS_GENOBJ-N-FIL_13
1002
{
1000
OWNER
1000
GEN
1002
}
  0
LINE
  5
1CD7
  8
0
 10
104.55689704348239
 20
92.999732747472294
 30
0.0
 11
104.55689704348239
 21
94.499732747472308
 31
0.0
1001
GENIUS_GENREC_14
1002
{
1000
PYDIR
1011
104.55689704348239
1021
0.0
1031
0.0
1021
92.499732747472308
1031
0.0
1002
}
1002
{
1000
PXDIR
1011
109.4568970434824
1021
0.0
1031
0.0
1021
94.999732747472308
1031
0.0
1002
}
1002
{
1000
PORI
1011
104.55689704348239
1021
0.0
1031
0.0
1021
94.999732747472308
1031
0.0
1002
}
1002
{
1000
PINS
1011
107.0068970434824
1021
0.0
1031
0.0
1021
94.999732747472308
1031
0.0
1002
}
1002
{
1000
HVAL
1000
-2.5
1002
}
1002
{
1000
H
1070
     2
1002
}
1002
{
1000
WVAL
1000
4.9
1002
}
1002
{
1000
W
1070
     2
1002
}
1002
{
1000
C
1070
     2
1002
}
1001
GENIUS_GENODEF_13
1002
{
1000
HIER
1070
     0
1002
}
1002
{
1000
MANEDIT
1070
     0
1002
}
1002
{
1000
NOSEL
1070
     0
1002
}
1002
{
1000
BEHIND
1070
     0
1002
}
1002
{
1000
REACTOR
1002
}
1001
GENIUS_GENOBJ-N-REC_13
1002
{
1000
OWNER
1000
GEN
1002
}
  0
ARC
  5
1CD8
  8
0
 10
104.05689704348239
 20
92.999732747472294
 30
0.0
 40
0.5
 50
270.0
 51
0.0000000000001018
1001
GENIUS_GENODEF_13
1002
{
1000
HIER
1070
     0
1002
}
1002
{
1000
MANEDIT
1070
     0
1002
}
1002
{
1000
NOSEL
1070
     0
1002
}
1002
{
1000
BEHIND
1070
     0
1002
}
1002
{
1000
REACTOR
1002
}
1001
GENIUS_GENOBJ-N-FIL_13
1002
{
1000
OWNER
1000
GEN
1002
}
  0
ARC
  5
1CD9
  8
0
 10
105.05689704348239
 20
94.499732747472308
 30
0.0
 40
0.5
 50
90.0
 51
180.0
1001
GENIUS_GENODEF_13
1002
{
1000
HIER
1070
     0
1002
}
1002
{
1000
MANEDIT
1070
     0
1002
}
1002
{
1000
NOSEL
1070
     0
1002
}
1002
{
1000
BEHIND
1070
     0
1002
}
1002
{
1000
REACTOR
1002
}
1001
GENIUS_GENOBJ-N-FIL_13
1002
{
1000
OWNER
1000
GEN
1002
}
  0
LINE
  5
1CDA
  8
0
 10
105.05689704348239
 20
94.999732747472308
 30
0.0
 11
108.9568970434824
 21
94.999732747472365
 31
0.0
1001
GENIUS_GENREC_14
1002
{
1000
PYDIR
1011
104.55689704348239
1021
0.0
1031
0.0
1021
92.499732747472308
1031
0.0
1002
}
1002
{
1000
PXDIR
1011
109.4568970434824
1021
0.0
1031
0.0
1021
94.999732747472308
1031
0.0
1002
}
1002
{
1000
PORI
1011
104.55689704348239
1021
0.0
1031
0.0
1021
94.999732747472308
1031
0.0
1002
}
1002
{
1000
PINS
1011
107.0068970434824
1021
0.0
1031
0.0
1021
94.999732747472308
1031
0.0
1002
}
1002
{
1000
HVAL
1000
-2.5
1002
}
1002
{
1000
H
1070
     2
1002
}
1002
{
1000
WVAL
1000
4.9
1002
}
1002
{
1000
W
1070
     2
1002
}
1002
{
1000
C
1070
     2
1002
}
1001
GENIUS_GENODEF_13
1002
{
1000
HIER
1070
     0
1002
}
1002
{
1000
MANEDIT
1070
     0
1002
}
1002
{
1000
NOSEL
1070
     0
1002
}
1002
{
1000
BEHIND
1070
     0
1002
}
1002
{
1000
REACTOR
1002
}
1001
GENIUS_GENOBJ-N-REC_13
1002
{
1000
OWNER
1000
GEN
1002
}
  0
LINE
  5
1CDB
  8
0
 10
99.806897043482437
 20
90.499732747472294
 30
0.0
 11
99.806897043482437
 21
91.999732747472308
 31
0.0
  0
ARC
  5
1CDC
  8
0
 10
100.30689704348239
 20
91.999732747472308
 30
0.0
 40
0.5
 50
90.0
 51
180.0
1001
GENIUS_GENODEF_13
1002
{
1000
HIER
1070
     0
1002
}
1002
{
1000
MANEDIT
1070
     0
1002
}
1002
{
1000
NOSEL
1070
     0
1002
}
1002
{
1000
BEHIND
1070
     0
1002
}
1002
{
1000
REACTOR
1002
}
1001
GENIUS_GENOBJ-N-FIL_13
1002
{
1000
OWNER
1000
GEN
1002
}
  0
LINE
  5
1CDD
  8
0
 10
100.30689704348239
 20
92.499732747472308
 30
0.0
 11
104.05689704348239
 21
92.499732747472308
 31
0.0
  0
ARC
  5
1CDE
  8
0
 10
115.30689704348239
 20
91.999732747472308
 30
0.0
 40
0.5
 50
0.0
 51
90.0
1001
GENIUS_GENODEF_13
1002
{
1000
HIER
1070
     0
1002
}
1002
{
1000
MANEDIT
1070
     0
1002
}
1002
{
1000
NOSEL
1070
     0
1002
}
1002
{
1000
BEHIND
1070
     0
1002
}
1002
{
1000
REACTOR
1002
}
1001
GENIUS_GENOBJ-N-FIL_13
1002
{
1000
OWNER
1000
GEN
1002
}
  0
LINE
  5
1CDF
  8
0
 10
115.80689704348239
 20
90.499732747472294
 30
0.0
 11
115.80689704348239
 21
91.999732747472308
 31
0.0
  0
LINE
  5
1CE0
  8
0
 10
115.30689704348239
 20
92.499732747472308
 30
0.0
 11
109.9568970434824
 21
92.499732747472308
 31
0.0
  0
LINE
  5
1CE1
  8
0
 10
143.83097703283781
 20
92.499732747472308
 30
0.0
 11
143.83097703283781
 21
89.999732747472237
 31
0.0
  0
LINE
  5
1CE2
  8
0
 10
143.83097703283781
 20
89.999732747472237
 30
0.0
 11
143.83097703283781
 21
85.399732747472285
 31
0.0
  0
LINE
  5
1CE3
  8
0
 10
143.83097703283781
 20
94.999732747472308
 30
0.0
 11
143.83097703283781
 21
92.999732747472365
 31
0.0
  0
LINE
  5
1CE4
  8
0
 10
143.83097703283781
 20
92.999732747472365
 30
0.0
 11
143.83097703283781
 21
92.499732747472308
 31
0.0
  0
LINE
  5
1CE5
  8
0
 10
183.83097703283769
 20
89.999732747472237
 30
0.0
 11
183.83097703283769
 21
92.499732747472308
 31
0.0
  0
LINE
  5
1CE6
  8
0
 10
183.83097703283769
 20
85.399732747472285
 30
0.0
 11
183.83097703283769
 21
89.999732747472237
 31
0.0
  0
LINE
  5
1CE7
  8
0
 10
183.83097703283769
 20
92.999732747472365
 30
0.0
 11
183.83097703283769
 21
94.999732747472308
 31
0.0
  0
LINE
  5
1CE8
  8
0
 10
183.83097703283769
 20
92.999732747472365
 30
0.0
 11
183.83097703283769
 21
92.499732747472308
 31
0.0
  0
LINE
  5
1CE9
  8
0
 10
115.80689704348239
 20
163.56367066020749
 30
0.0
 11
99.806897043482437
 21
163.56367066020749
 31
0.0
  0
LINE
  5
1E8D
  8
0
 10
108.1678345434822
 20
155.93850857185021
 30
0.0
 11
108.52877204348241
 21
156.56367066020749
 31
0.0
1001
GENIUS_GENOREF_13
1005
0
  0
LINE
  5
1E8E
  8
0
 10
108.52877204348241
 20
156.56367066020749
 30
0.0
 11
108.1678345434824
 21
157.18883274856441
 31
0.0
1001
GENIUS_GENOREF_13
1005
0
  0
LINE
  5
1E8F
  8
0
 10
108.1678345434824
 20
157.18883274856441
 30
0.0
 11
107.4459595434824
 21
157.18883274856441
 31
0.0
1001
GENIUS_GENOREF_13
1005
0
  0
LINE
  5
1E90
  8
0
 10
107.4459595434832
 20
155.93850857185021
 30
0.0
 11
108.1678345434822
 21
155.93850857185021
 31
0.0
1001
GENIUS_GENOREF_13
1005
0
  0
LINE
  5
1E91
  8
0
 10
107.0850220434824
 20
156.56367066020749
 30
0.0
 11
107.4459595434832
 21
155.93850857185021
 31
0.0
1001
GENIUS_GENOREF_13
1005
0
  0
LINE
  5
1E92
  8
0
 10
107.4459595434824
 20
157.18883274856441
 30
0.0
 11
107.0850220434824
 21
156.56367066020749
 31
0.0
1001
GENIUS_GENOREF_13
1005
0
  0
LINE
  5
1E97
  8
1
  6
AM_ISO08W050X2
 10
150.83097703283781
 20
97.499732747472308
 30
0.0
 11
150.83097703283781
 21
81.149732747472214
 31
0.0
1001
GENIUS_GENOREF_13
1005
0
  0
LINE
  5
1E9C
  8
1
  6
AM_ISO08W050X2
 10
176.83097703283781
 20
97.499732747472308
 30
0.0
 11
176.83097703283781
 21
81.149732747472214
 31
0.0
1001
GENIUS_GENOREF_13
1005
0
  0
CIRCLE
  5
1EA4
  8
0
 10
107.80689704348239
 20
156.56367066020749
 30
0.0
 40
1.004999999999999
  0
CIRCLE
  5
1EA5
  8
0
 10
107.80689704348239
 20
156.56367066020749
 30
0.0
 40
1.25
  0
LINE
  5
1EA8
  8
2
  6
AM_ISO02W050X2
 10
151.19191453283781
 20
91.649732747472228
 30
0.0
 11
151.19191453283781
 21
89.983066080805571
 31
0.0
1001
GENIUS_GENOREF_13
1005
0
  0
LINE
  5
1EA9
  8
2
  6
AM_ISO02W050X2
 10
151.55285203283779
 20
91.649732747472228
 30
0.0
 11
151.55285203283779
 21
89.983066080805571
 31
0.0
1001
GENIUS_GENOREF_13
1005
0
  0
LINE
  5
1EAA
  8
2
  6
AM_ISO02W050X2
 10
150.1091020328378
 20
91.649732747472228
 30
0.0
 11
150.1091020328378
 21
89.983066080805571
 31
0.0
1001
GENIUS_GENOREF_13
1005
0
  0
LINE
  5
1EAB
  8
2
  6
AM_ISO02W050X2
 10
150.4700395328378
 20
91.649732747472228
 30
0.0
 11
150.4700395328378
 21
89.983066080805571
 31
0.0
1001
GENIUS_GENOREF_13
1005
0
  0
LINE
  5
1EAC
  8
2
 10
152.08108666416339
 20
85.399732747472285
 30
0.0
 11
152.08469101331019
 21
94.98885789531748
 31
0.0
  0
LINE
  5
1EAD
  8
2
 10
149.58097703283781
 20
94.999732747472336
 30
0.0
 11
149.58097703283781
 21
85.399732747472285
 31
0.0
  0
LINE
  5
1EAE
  8
2
 10
149.82597703283781
 20
94.999732747472351
 30
0.0
 11
149.82597703283781
 21
85.399732747472285
 31
0.0
  0
LINE
  5
1EAF
  8
2
 10
151.8359770328378
 20
94.999732747472379
 30
0.0
 11
151.8359770328378
 21
85.399732747472285
 31
0.0
  0
LINE
  5
1EB0
  8
0
 10
149.99764369950441
 20
83.649732747472228
 30
0.0
 11
151.66431036617109
 21
83.649732747472228
 31
0.0
1001
GENIUS_GENOREF_13
1005
0
  0
LINE
  5
1EB1
  8
0
 10
149.58097703283781
 20
84.066399414138914
 30
0.0
 11
152.08097703283781
 21
84.066399414138914
 31
0.0
1001
GENIUS_GENOREF_13
1005
0
  0
LINE
  5
1EB2
  8
0
 10
149.58097703283781
 20
85.399732747472285
 30
0.0
 11
149.58097703283781
 21
84.066399414138914
 31
0.0
1001
GENIUS_GENOREF_13
1005
0
  0
LINE
  5
1EB3
  8
3
 10
149.82597703283781
 20
83.810795247472186
 30
0.0
 11
149.82597703283781
 21
85.399732747472285
 31
0.0
1001
GENIUS_GENOREF_13
1005
0
  0
LINE
  5
1EB4
  8
0
 10
149.99764369950441
 20
83.649732747472228
 30
0.0
 11
149.58097703283781
 21
84.066399414138914
 31
0.0
1001
GENIUS_GENOREF_13
1005
0
  0
LINE
  5
1EB5
  8
0
 10
152.08097703283781
 20
84.066399414138914
 30
0.0
 11
152.08097703283781
 21
85.399732747472285
 31
0.0
1001
GENIUS_GENOREF_13
1005
0
  0
LINE
  5
1EB6
  8
3
 10
151.8359770328378
 20
83.810795247472186
 30
0.0
 11
151.8359770328378
 21
85.399732747472285
 31
0.0
1001
GENIUS_GENOREF_13
1005
0
  0
LINE
  5
1EB7
  8
0
 10
151.66431036617109
 20
83.649732747472228
 30
0.0
 11
152.08097703283781
 21
84.066399414138914
 31
0.0
1001
GENIUS_GENOREF_13
1005
0
  0
ARC
  5
1EB8
  8
2
  6
AM_ISO02W050X2
 10
150.28957078283781
 20
90.215064777891854
 30
0.0
 40
0.2939257817482139
 50
247.87887949172179
 51
307.87887949171989
1001
GENIUS_GENOREF_13
1005
0
  0
LINE
  5
1EB9
  8
2
  6
AM_ISO02W050X2
 10
150.1091020328378
 20
89.983066080805571
 30
0.0
 11
150.83097703283781
 21
89.566291355234313
 31
0.0
1001
GENIUS_GENOREF_13
1005
0
  0
ARC
  5
1EBA
  8
2
  6
AM_ISO02W050X2
 10
151.3723832828378
 20
90.215064777891854
 30
0.0
 40
0.2939257817482139
 50
232.1211205082775
 51
292.12112050827488
1001
GENIUS_GENOREF_13
1005
0
  0
ARC
  5
1EBB
  8
2
  6
AM_ISO02W050X2
 10
150.83097703283781
 20
91.003951496143642
 30
0.0
 40
1.0828124999999991
 50
250.52877936550721
 51
289.47122063449279
1001
GENIUS_GENOREF_13
1005
0
  0
LINE
  5
1EBC
  8
2
  6
AM_ISO02W050X2
 10
151.55285203283779
 20
89.983066080805571
 30
0.0
 11
150.83097703283781
 21
89.566291355234313
 31
0.0
1001
GENIUS_GENOREF_13
1005
0
  0
LINE
  5
1EBD
  8
2
 10
151.82537286617111
 20
91.649732747472228
 30
0.0
 11
149.83658119950451
 21
91.649732747472228
 31
0.0
1001
GENIUS_GENOREF_13
1005
0
  0
LINE
  5
1EBE
  8
2
 10
149.58097703283781
 20
91.394128580805585
 30
0.0
 11
152.08097703283781
 21
91.394128580805585
 31
0.0
1001
GENIUS_GENOREF_13
1005
0
  0
LINE
  5
1EBF
  8
2
 10
149.58097703283781
 20
91.394128580805585
 30
0.0
 11
149.83658119950451
 21
91.649732747472228
 31
0.0
1001
GENIUS_GENOREF_13
1005
0
  0
LINE
  5
1EC0
  8
2
 10
151.82537286617111
 20
91.649732747472228
 30
0.0
 11
152.08097703283781
 21
91.394128580805585
 31
0.0
1001
GENIUS_GENOREF_13
1005
0
  0
LINE
  5
1EC1
  8
2
  6
AM_ISO02W050X2
 10
177.19191453283781
 20
91.649732747472228
 30
0.0
 11
177.19191453283781
 21
89.983066080805571
 31
0.0
1001
GENIUS_GENOREF_13
1005
0
  0
LINE
  5
1EC2
  8
2
  6
AM_ISO02W050X2
 10
177.55285203283779
 20
91.649732747472228
 30
0.0
 11
177.55285203283779
 21
89.983066080805571
 31
0.0
1001
GENIUS_GENOREF_13
1005
0
  0
LINE
  5
1EC3
  8
2
  6
AM_ISO02W050X2
 10
176.10910203283791
 20
91.649732747472228
 30
0.0
 11
176.10910203283791
 21
89.983066080805571
 31
0.0
1001
GENIUS_GENOREF_13
1005
0
  0
LINE
  5
1EC4
  8
2
  6
AM_ISO02W050X2
 10
176.4700395328378
 20
91.649732747472228
 30
0.0
 11
176.4700395328378
 21
89.983066080805571
 31
0.0
1001
GENIUS_GENOREF_13
1005
0
  0
LINE
  5
1EC5
  8
2
 10
178.08108666416339
 20
85.399732747472285
 30
0.0
 11
178.08469101331019
 21
94.98885789531748
 31
0.0
  0
LINE
  5
1EC6
  8
2
 10
175.58097703283781
 20
94.999732747472336
 30
0.0
 11
175.58097703283781
 21
85.399732747472285
 31
0.0
  0
LINE
  5
1EC7
  8
2
 10
177.8359770328378
 20
94.999732747472379
 30
0.0
 11
177.8359770328378
 21
85.399732747472285
 31
0.0
  0
LINE
  5
1EC8
  8
2
 10
175.82597703283781
 20
94.999732747472351
 30
0.0
 11
175.82597703283781
 21
85.399732747472285
 31
0.0
  0
LINE
  5
1EC9
  8
0
 10
175.99764369950449
 20
83.649732747472228
 30
0.0
 11
177.66431036617121
 21
83.649732747472228
 31
0.0
1001
GENIUS_GENOREF_13
1005
0
  0
LINE
  5
1ECA
  8
0
 10
175.58097703283781
 20
84.066399414138914
 30
0.0
 11
178.08097703283781
 21
84.066399414138914
 31
0.0
1001
GENIUS_GENOREF_13
1005
0
  0
LINE
  5
1ECB
  8
0
 10
175.58097703283781
 20
85.399732747472285
 30
0.0
 11
175.58097703283781
 21
84.066399414138914
 31
0.0
1001
GENIUS_GENOREF_13
1005
0
  0
LINE
  5
1ECC
  8
3
 10
175.82597703283781
 20
83.810795247472186
 30
0.0
 11
175.82597703283781
 21
85.399732747472285
 31
0.0
1001
GENIUS_GENOREF_13
1005
0
  0
LINE
  5
1ECD
  8
0
 10
175.99764369950449
 20
83.649732747472228
 30
0.0
 11
175.58097703283781
 21
84.066399414138914
 31
0.0
1001
GENIUS_GENOREF_13
1005
0
  0
LINE
  5
1ECE
  8
0
 10
178.08097703283781
 20
84.066399414138914
 30
0.0
 11
178.08097703283781
 21
85.399732747472285
 31
0.0
1001
GENIUS_GENOREF_13
1005
0
  0
LINE
  5
1ECF
  8
3
 10
177.8359770328378
 20
83.810795247472186
 30
0.0
 11
177.8359770328378
 21
85.399732747472285
 31
0.0
1001
GENIUS_GENOREF_13
1005
0
  0
LINE
  5
1ED0
  8
0
 10
177.66431036617121
 20
83.649732747472228
 30
0.0
 11
178.08097703283781
 21
84.066399414138914
 31
0.0
1001
GENIUS_GENOREF_13
1005
0
  0
ARC
  5
1ED1
  8
2
  6
AM_ISO02W050X2
 10
177.3723832828378
 20
90.215064777891854
 30
0.0
 40
0.2939257817482139
 50
232.1211205082775
 51
292.12112050827488
1001
GENIUS_GENOREF_13
1005
0
  0
LINE
  5
1ED2
  8
2
  6
AM_ISO02W050X2
 10
177.55285203283779
 20
89.983066080805571
 30
0.0
 11
176.83097703283781
 21
89.566291355234313
 31
0.0
1001
GENIUS_GENOREF_13
1005
0
  0
ARC
  5
1ED3
  8
2
  6
AM_ISO02W050X2
 10
176.28957078283781
 20
90.215064777891854
 30
0.0
 40
0.2939257817482139
 50
247.87887949172179
 51
307.87887949171989
1001
GENIUS_GENOREF_13
1005
0
  0
LINE
  5
1ED4
  8
2
  6
AM_ISO02W050X2
 10
176.10910203283791
 20
89.983066080805571
 30
0.0
 11
176.83097703283781
 21
89.566291355234313
 31
0.0
1001
GENIUS_GENOREF_13
1005
0
  0
ARC
  5
1ED5
  8
2
  6
AM_ISO02W050X2
 10
176.83097703283781
 20
91.003951496143642
 30
0.0
 40
1.0828124999999991
 50
250.52877936550721
 51
289.47122063449279
1001
GENIUS_GENOREF_13
1005
0
  0
LINE
  5
1ED6
  8
2
 10
177.82537286617111
 20
91.649732747472228
 30
0.0
 11
175.83658119950451
 21
91.649732747472228
 31
0.0
1001
GENIUS_GENOREF_13
1005
0
  0
LINE
  5
1ED7
  8
2
 10
175.58097703283781
 20
91.394128580805585
 30
0.0
 11
178.08097703283781
 21
91.394128580805585
 31
0.0
1001
GENIUS_GENOREF_13
1005
0
  0
LINE
  5
1ED8
  8
2
 10
175.58097703283781
 20
91.394128580805585
 30
0.0
 11
175.83658119950451
 21
91.649732747472228
 31
0.0
1001
GENIUS_GENOREF_13
1005
0
  0
LINE
  5
1ED9
  8
2
 10
177.82537286617111
 20
91.649732747472228
 30
0.0
 11
178.08097703283781
 21
91.394128580805585
 31
0.0
1001
GENIUS_GENOREF_13
1005
0
  0
LINE
  5
1EDA
  8
0
 10
107.4459595434824
 20
131.18883274856441
 30
0.0
 11
107.0850220434824
 21
130.56367066020749
 31
0.0
1001
GENIUS_GENOREF_13
1005
0
  0
LINE
  5
1EDB
  8
0
 10
107.0850220434824
 20
130.56367066020749
 30
0.0
 11
107.4459595434832
 21
129.93850857185021
 31
0.0
1001
GENIUS_GENOREF_13
1005
0
  0
CIRCLE
  5
1EDC
  8
0
 10
107.80689704348239
 20
130.56367066020749
 30
0.0
 40
1.004999999999999
  0
CIRCLE
  5
1EDD
  8
0
 10
107.80689704348239
 20
130.56367066020749
 30
0.0
 40
1.25
  0
LINE
  5
1EE0
  8
0
 10
108.52877204348241
 20
130.56367066020749
 30
0.0
 11
108.1678345434824
 21
131.18883274856441
 31
0.0
1001
GENIUS_GENOREF_13
1005
0
  0
LINE
  5
1EE1
  8
0
 10
108.1678345434822
 20
129.93850857185021
 30
0.0
 11
108.52877204348241
 21
130.56367066020749
 31
0.0
1001
GENIUS_GENOREF_13
1005
0
  0
LINE
  5
1EE3
  8
2
 10
109.05700667480789
 20
85.399732747472285
 30
0.0
 11
109.06061102395481
 21
94.98885789531748
 31
0.0
  0
LINE
  5
1EE4
  8
2
 10
108.8118970434823
 20
94.999732747472379
 30
0.0
 11
108.8118970434823
 21
85.399732747472285
 31
0.0
  0
LINE
  5
1EE5
  8
2
 10
106.55689704348239
 20
94.999732747472336
 30
0.0
 11
106.55689704348239
 21
85.399732747472285
 31
0.0
  0
LINE
  5
1EE6
  8
2
 10
106.8018970434824
 20
94.999732747472351
 30
0.0
 11
106.8018970434824
 21
85.399732747472285
 31
0.0
  0
LINE
  5
1EE7
  8
3
 10
108.8118970434823
 20
83.810795247472186
 30
0.0
 11
108.8118970434823
 21
85.399732747472285
 31
0.0
1001
GENIUS_GENOREF_13
1005
0
  0
LINE
  5
1EE8
  8
0
 10
109.05689704348239
 20
84.066399414138914
 30
0.0
 11
109.05689704348239
 21
85.399732747472285
 31
0.0
1001
GENIUS_GENOREF_13
1005
0
  0
LINE
  5
1EE9
  8
0
 10
106.55689704348239
 20
85.399732747472285
 30
0.0
 11
106.55689704348239
 21
84.066399414138914
 31
0.0
1001
GENIUS_GENOREF_13
1005
0
  0
LINE
  5
1EEA
  8
3
 10
106.8018970434824
 20
83.810795247472186
 30
0.0
 11
106.8018970434824
 21
85.399732747472285
 31
0.0
1001
GENIUS_GENOREF_13
1005
0
  0
LINE
  5
1EEB
  8
0
 10
106.55689704348239
 20
84.066399414138914
 30
0.0
 11
109.05689704348239
 21
84.066399414138914
 31
0.0
1001
GENIUS_GENOREF_13
1005
0
  0
LINE
  5
1EEC
  8
0
 10
106.97356371014899
 20
83.649732747472228
 30
0.0
 11
108.64023037681569
 21
83.649732747472228
 31
0.0
1001
GENIUS_GENOREF_13
1005
0
  0
LINE
  5
1EED
  8
0
 10
106.97356371014899
 20
83.649732747472228
 30
0.0
 11
106.55689704348239
 21
84.066399414138914
 31
0.0
1001
GENIUS_GENOREF_13
1005
0
  0
LINE
  5
1EEE
  8
0
 10
108.64023037681569
 20
83.649732747472228
 30
0.0
 11
109.05689704348239
 21
84.066399414138914
 31
0.0
1001
GENIUS_GENOREF_13
1005
0
  0
ARC
  5
1EEF
  8
2
  6
AM_ISO02W050X2
 10
108.3483032934824
 20
90.215064777891854
 30
0.0
 40
0.2939257817482139
 50
232.1211205082775
 51
292.12112050827488
1001
GENIUS_GENOREF_13
1005
0
  0
LINE
  5
1EF0
  8
2
  6
AM_ISO02W050X2
 10
108.52877204348241
 20
89.983066080805571
 30
0.0
 11
107.80689704348239
 21
89.566291355234313
 31
0.0
1001
GENIUS_GENOREF_13
1005
0
  0
LINE
  5
1EF1
  8
2
 10
106.55689704348239
 20
91.394128580805585
 30
0.0
 11
109.05689704348239
 21
91.394128580805585
 31
0.0
1001
GENIUS_GENOREF_13
1005
0
  0
LINE
  5
1EF2
  8
2
 10
108.80129287681569
 20
91.649732747472228
 30
0.0
 11
106.81250121014909
 21
91.649732747472228
 31
0.0
1001
GENIUS_GENOREF_13
1005
0
  0
LINE
  5
1EF3
  8
2
  6
AM_ISO02W050X2
 10
108.1678345434824
 20
91.649732747472228
 30
0.0
 11
108.1678345434824
 21
89.983066080805571
 31
0.0
1001
GENIUS_GENOREF_13
1005
0
  0
LINE
  5
1EF4
  8
2
  6
AM_ISO02W050X2
 10
107.0850220434824
 20
91.649732747472228
 30
0.0
 11
107.0850220434824
 21
89.983066080805571
 31
0.0
1001
GENIUS_GENOREF_13
1005
0
  0
LINE
  5
1EF5
  8
2
  6
AM_ISO02W050X2
 10
107.4459595434824
 20
91.649732747472228
 30
0.0
 11
107.4459595434824
 21
89.983066080805571
 31
0.0
1001
GENIUS_GENOREF_13
1005
0
  0
ARC
  5
1EF6
  8
2
  6
AM_ISO02W050X2
 10
107.2654907934824
 20
90.215064777891854
 30
0.0
 40
0.2939257817482139
 50
247.87887949172179
 51
307.87887949171989
1001
GENIUS_GENOREF_13
1005
0
  0
LINE
  5
1EF7
  8
2
  6
AM_ISO02W050X2
 10
107.0850220434824
 20
89.983066080805571
 30
0.0
 11
107.80689704348239
 21
89.566291355234313
 31
0.0
1001
GENIUS_GENOREF_13
1005
0
  0
LINE
  5
1EF8
  8
2
 10
106.55689704348239
 20
91.394128580805585
 30
0.0
 11
106.81250121014909
 21
91.649732747472228
 31
0.0
1001
GENIUS_GENOREF_13
1005
0
  0
ARC
  5
1EF9
  8
2
  6
AM_ISO02W050X2
 10
107.80689704348239
 20
91.003951496143642
 30
0.0
 40
1.0828124999999991
 50
250.52877936550721
 51
289.47122063449279
1001
GENIUS_GENOREF_13
1005
0
  0
LINE
  5
1EFA
  8
2
  6
AM_ISO02W050X2
 10
108.52877204348241
 20
91.649732747472228
 30
0.0
 11
108.52877204348241
 21
89.983066080805571
 31
0.0
1001
GENIUS_GENOREF_13
1005
0
  0
LINE
  5
1EFB
  8
2
 10
108.80129287681569
 20
91.649732747472228
 30
0.0
 11
109.05689704348239
 21
91.394128580805585
 31
0.0
1001
GENIUS_GENOREF_13
1005
0
  0
LINE
  5
1EFD
  8
1
 10
111.55689704348239
 20
130.56367066020749
 30
0.0
 11
104.05689704348239
 21
130.56367066020749
 31
0.0
  0
LINE
  5
1EFF
  8
1
 10
111.55689704348239
 20
156.56367066020749
 30
0.0
 11
104.05689704348239
 21
156.56367066020749
 31
0.0
  0
LINE
  5
1F2F
  8
1
 10
107.80689704348239
 20
121.06367066020751
 30
0.0
 11
107.80689704348239
 21
166.06367066020749
 31
0.0
  0
LINE
  5
1F30
  8
0
 10
107.4459595434824
 20
131.18883274856441
 30
0.0
 11
108.1678345434824
 21
131.18883274856441
 31
0.0
  0
LINE
  5
1F31
  8
0
 10
107.4459595434832
 20
129.93850857185021
 30
0.0
 11
108.1678345434822
 21
129.93850857185021
 31
0.0
  0
TEXT
  5
204E
  8
0
 62
     3
 10
0.0
 20
0.0
 30
0.0
 40
10.0
  1
L5-SGS5/5L
  7
STANDARD1
  0
ENDSEC
  0
EOF
