  0
SECTION
  2
HEADER
  9
$ACADVER
  1
AC1009
  9
$INSBASE
 10
0.0
 20
0.0
 30
0.0
  9
$EXTMIN
 10
0.0
 20
-2.960436562073669
 30
0.0
  9
$EXTMAX
 10
143.597758
 20
114.14694900000001
 30
0.0
  9
$LIMMIN
 10
0.0
 20
0.0
  9
$LIMMAX
 10
195.0
 20
135.0
  9
$ORTHOMODE
 70
     1
  9
$REGENMODE
 70
     1
  9
$FILLMODE
 70
     1
  9
$QTEXTMODE
 70
     0
  9
$MIRRTEXT
 70
     0
  9
$DRAGMODE
 70
     2
  9
$LTSCALE
 40
5.0
  9
$OSMODE
 70
  3071
  9
$ATTMODE
 70
     1
  9
$TEXTSIZE
 40
0.2
  9
$TRACEWID
 40
0.05
  9
$TEXTSTYLE
  7
STANDARD
  9
$CLAYER
  8
0
  9
$CELTYPE
  6
BYLAYER
  9
$CECOLOR
 62
   256
  9
$DIMSCALE
 40
0.5
  9
$DIMASZ
 40
3.0
  9
$DIMEXO
 40
1.0
  9
$DIMDLI
 40
6.0
  9
$DIMRND
 40
0.0
  9
$DIMDLE
 40
0.0
  9
$DIMEXE
 40
1.0
  9
$DIMTP
 40
495.0
  9
$DIMTM
 40
0.0
  9
$DIMTXT
 40
3.0
  9
$DIMCEN
 40
0.0
  9
$DIMTSZ
 40
0.0
  9
$DIMTOL
 70
     0
  9
$DIMLIM
 70
     0
  9
$DIMTIH
 70
     0
  9
$DIMTOH
 70
     0
  9
$DIMSE1
 70
     0
  9
$DIMSE2
 70
     0
  9
$DIMTAD
 70
     1
  9
$DIMZIN
 70
     0
  9
$DIMBLK
  1

  9
$DIMASO
 70
     0
  9
$DIMSHO
 70
     0
  9
$DIMPOST
  1

  9
$DIMAPOST
  1

  9
$DIMALT
 70
     0
  9
$DIMALTD
 70
     2
  9
$DIMALTF
 40
25.399999999999999
  9
$DIMLFAC
 40
1.0
  9
$DIMTOFL
 70
     1
  9
$DIMTVP
 40
0.0
  9
$DIMTIX
 70
     1
  9
$DIMSOXD
 70
     0
  9
$DIMSAH
 70
     0
  9
$DIMBLK1
  1

  9
$DIMBLK2
  1

  9
$DIMSTYLE
  2
STANDARD
  9
$DIMCLRD
 70
     0
  9
$DIMCLRE
 70
     0
  9
$DIMCLRT
 70
     0
  9
$DIMTFAC
 40
1.0
  9
$DIMGAP
 40
0.09
  9
$LUNITS
 70
     2
  9
$LUPREC
 70
     2
  9
$SKETCHINC
 40
0.1
  9
$FILLETRAD
 40
0.0
  9
$AUNITS
 70
     0
  9
$AUPREC
 70
     2
  9
$MENU
  1
E:\r13\win\SUPPORT\ACAD
  9
$ELEVATION
 40
0.0
  9
$PELEVATION
 40
0.0
  9
$THICKNESS
 40
0.0
  9
$LIMCHECK
 70
     0
  9
$BLIPMODE
 70
     0
  9
$CHAMFERA
 40
0.0
  9
$CHAMFERB
 40
0.0
  9
$SKPOLY
 70
     0
  9
$TDCREATE
 40
2449840.6548611112
  9
$TDUPDATE
 40
2456597.5468885419
  9
$TDINDWG
 40
0.0001064236
  9
$TDUSRTIMER
 40
0.0001064236
  9
$USRTIMER
 70
     1
  9
$ANGBASE
 50
0.0
  9
$ANGDIR
 70
     0
  9
$PDMODE
 70
     0
  9
$PDSIZE
 40
0.0
  9
$PLINEWID
 40
0.0
  9
$COORDS
 70
     1
  9
$SPLFRAME
 70
     0
  9
$SPLINETYPE
 70
     6
  9
$SPLINESEGS
 70
     8
  9
$ATTDIA
 70
     0
  9
$ATTREQ
 70
     1
  9
$HANDLING
 70
     1
  9
$HANDSEED
  5
20C
  9
$SURFTAB1
 70
     6
  9
$SURFTAB2
 70
     6
  9
$SURFTYPE
 70
     6
  9
$SURFU
 70
     6
  9
$SURFV
 70
     6
  9
$UCSNAME
  2

  9
$UCSORG
 10
0.0
 20
0.0
 30
0.0
  9
$UCSXDIR
 10
1.0
 20
0.0
 30
0.0
  9
$UCSYDIR
 10
0.0
 20
1.0
 30
0.0
  9
$PUCSNAME
  2

  9
$PUCSORG
 10
0.0
 20
0.0
 30
0.0
  9
$PUCSXDIR
 10
1.0
 20
0.0
 30
0.0
  9
$PUCSYDIR
 10
0.0
 20
1.0
 30
0.0
  9
$USERI1
 70
     3
  9
$USERI2
 70
     1
  9
$USERI3
 70
     0
  9
$USERI4
 70
     1
  9
$USERI5
 70
     0
  9
$USERR1
 40
0.5
  9
$USERR2
 40
3.0
  9
$USERR3
 40
3.0
  9
$USERR4
 40
3.0
  9
$USERR5
 40
10.0
  9
$WORLDVIEW
 70
     1
  9
$SHADEDGE
 70
     3
  9
$SHADEDIF
 70
    70
  9
$TILEMODE
 70
     1
  9
$MAXACTVP
 70
    16
  9
$PLIMCHECK
 70
     0
  9
$PEXTMIN
 10
1.0000000000000000E+020
 20
1.0000000000000000E+020
 30
1.0000000000000000E+020
  9
$PEXTMAX
 10
-1.0000000000000000E+020
 20
-1.0000000000000000E+020
 30
-1.0000000000000000E+020
  9
$PLIMMIN
 10
0.0
 20
0.0
  9
$PLIMMAX
 10
12.0
 20
9.0
  9
$UNITMODE
 70
     0
  9
$VISRETAIN
 70
     0
  9
$PLINEGEN
 70
     0
  9
$PSLTSCALE
 70
     0
  0
ENDSEC
  0
SECTION
  2
TABLES
  0
TABLE
  2
VPORT
 70
     1
  0
VPORT
  2
*ACTIVE
 70
     0
 10
0.0
 20
0.0
 11
1.0
 21
1.0
 12
97.497024763139223
 22
80.848703909439024
 13
0.0
 23
0.0
 14
5.0
 24
5.0
 15
5.0
 25
5.0
 16
0.0
 26
0.0
 36
1.0
 17
0.0
 27
0.0
 37
0.0
 40
169.22413112104309
 41
1.9089595375722539
 42
50.0
 43
0.0
 44
0.0
 50
0.0
 51
0.0
 71
     0
 72
   100
 73
     1
 74
     0
 75
     0
 76
     0
 77
     0
 78
     0
  0
ENDTAB
  0
TABLE
  2
LTYPE
 70
     3
  0
LTYPE
  2
CONTINUOUS
 70
     0
  3
Solid Line
 72
    65
 73
     0
 40
0.0
  0
LTYPE
  2
CENTER
 70
     0
  3
____ _ ____ _ ____ _ ____ _ ____ _ ____ _ ____
 72
    65
 73
     4
 40
2.0
 49
1.25
 49
-0.25
 49
0.25
 49
-0.25
  0
LTYPE
  2
PHANTOM2
 70
     0
  3
___ _ _ ___ _ _ ___ _ _ ___ _ _
 72
    65
 73
     6
 40
1.25
 49
0.625
 49
-0.125
 49
0.125
 49
-0.125
 49
0.125
 49
-0.125
  0
ENDTAB
  0
TABLE
  2
LAYER
 70
     3
  0
LAYER
  2
0
 70
     0
 62
     7
  6
CONTINUOUS
  0
LAYER
  2
1
 70
     0
 62
     1
  6
CENTER
  0
LAYER
  2
ITEM_50
 70
     0
 62
     7
  6
CONTINUOUS
  0
ENDTAB
  0
TABLE
  2
STYLE
 70
     2
  0
STYLE
  2
STANDARD
 70
     0
 40
0.0
 41
1.0
 50
0.0
 71
     0
 42
0.2
  3
TXT
  4
BIGFONT
  0
STYLE
  2
STANDARD1
 70
     0
 40
0.0
 41
1.0
 50
0.0
 71
     0
 42
3.0
  3
txt
  4

  0
ENDTAB
  0
TABLE
  2
VIEW
 70
     0
  0
ENDTAB
  0
TABLE
  2
UCS
 70
     0
  0
ENDTAB
  0
TABLE
  2
APPID
 70
     3
  0
APPID
  2
ACAD
 70
     0
  0
APPID
  2
ACAD_MLEADERVER
 70
     0
  0
APPID
  2
ACAD_NAV_VCDISPLAY
 70
     0
  0
ENDTAB
  0
TABLE
  2
DIMSTYLE
 70
     1
  0
DIMSTYLE
  2
STANDARD
 70
     0
  3

  4

  5

  6

  7

 40
1.0
 41
0.18
 42
0.0625
 43
0.38
 44
0.18
 45
0.0
 46
0.0
 47
0.0
 48
0.0
140
0.18
141
0.09
142
0.0
143
25.399999999999999
144
1.0
145
0.0
146
1.0
147
0.09
 71
     0
 72
     0
 73
     1
 74
     1
 75
     0
 76
     0
 77
     0
 78
     0
170
     0
171
     2
172
     0
173
     0
174
     0
175
     0
176
     0
177
     0
178
     0
  0
ENDTAB
  0
ENDSEC
  0
SECTION
  2
BLOCKS
  0
BLOCK
  8
0
  2
$MODEL_SPACE
 70
     0
 10
0.0
 20
0.0
 30
0.0
  3
$MODEL_SPACE
  1

  0
ENDBLK
  5
BE
  8
0
  0
BLOCK
 67
     1
  8
0
  2
$PAPER_SPACE
 70
     0
 10
0.0
 20
0.0
 30
0.0
  3
$PAPER_SPACE
  1

  0
ENDBLK
  5
BC
 67
     1
  8
0
  0
ENDSEC
  0
SECTION
  2
ENTITIES
  0
CIRCLE
  5
3F
  8
ITEM_50
 10
96.752235999999996
 20
68.59186600000001
 30
0.0
 40
1.649999999999999
  0
CIRCLE
  5
40
  8
ITEM_50
 10
83.752235999999996
 20
68.59186600000001
 30
0.0
 40
1.649999999999999
  0
ARC
  5
41
  8
ITEM_50
 10
98.252236000000011
 20
67.09186600000001
 30
0.0
 40
2.0
 50
270.0
 51
0.0
  0
ARC
  5
42
  8
ITEM_50
 10
82.252235999999996
 20
67.09186600000001
 30
0.0
 40
2.0
 50
180.0
 51
270.0
  0
LINE
  5
43
  8
ITEM_50
 10
100.252236
 20
73.09186600000001
 30
0.0
 11
100.252236
 21
67.09186600000001
 31
0.0
  0
LINE
  5
44
  8
ITEM_50
 10
80.252235999999996
 20
73.09186600000001
 30
0.0
 11
80.252235999999996
 21
67.09186600000001
 31
0.0
  0
LINE
  5
45
  8
ITEM_50
 10
82.252235999999996
 20
65.09186600000001
 30
0.0
 11
98.252236000000011
 21
65.09186600000001
 31
0.0
  0
ARC
  5
46
  8
ITEM_50
 10
98.252236000000011
 20
73.09186600000001
 30
0.0
 40
2.0
 50
0.0
 51
90.0
  0
ARC
  5
47
  8
ITEM_50
 10
82.252235999999996
 20
73.09186600000001
 30
0.0
 40
2.0
 50
90.0
 51
180.0
  0
LINE
  5
48
  8
ITEM_50
 10
92.752235999999996
 20
74.206279000000009
 30
0.0
 11
92.752235999999996
 21
73.59186600000001
 31
0.0
  0
LINE
  5
49
  8
ITEM_50
 10
85.334644999999995
 20
73.291865999999985
 30
0.0
 11
87.452235999999999
 21
73.291865999999985
 31
0.0
  0
LINE
  5
4A
  8
ITEM_50
 10
87.752235999999996
 20
73.59186600000001
 30
0.0
 11
87.752235999999996
 21
74.206279000000009
 31
0.0
  0
ARC
  5
4B
  8
ITEM_50
 10
87.452235999999999
 20
73.59186600000001
 30
0.0
 40
0.3
 50
270.0
 51
0.0
  0
ARC
  5
4C
  8
ITEM_50
 10
93.052235999999994
 20
73.59186600000001
 30
0.0
 40
0.3
 50
180.0
 51
270.0
  0
ARC
  5
4D
  8
ITEM_50
 10
89.117668999999992
 20
71.741866000000002
 30
0.0
 40
3.0
 50
225.0
 51
270.0
  0
LINE
  5
4E
  8
ITEM_50
 10
84.746041000000005
 20
71.870852999999997
 30
0.0
 11
86.996347999999998
 21
69.62054599999999
 31
0.0
  0
ARC
  5
4F
  8
ITEM_50
 10
85.334647000000004
 20
72.459453999999994
 30
0.0
 40
0.832412
 50
89.999802000000017
 51
180.0
  0
ARC
  5
50
  8
ITEM_50
 10
85.334647000000004
 20
72.459453999999994
 30
0.0
 40
0.832412
 50
180.0
 51
224.999799
  0
LINE
  5
51
  8
ITEM_50
 10
89.117668999999992
 20
68.741866000000002
 30
0.0
 11
90.252235999999996
 21
68.741866000000002
 31
0.0
  0
LINE
  5
52
  8
ITEM_50
 10
91.386803
 20
68.741866000000002
 30
0.0
 11
90.252235999999996
 21
68.741866000000002
 31
0.0
  0
ARC
  5
53
  8
ITEM_50
 10
91.386803
 20
71.741866000000002
 30
0.0
 40
3.0
 50
270.0
 51
315.0
  0
LINE
  5
54
  8
ITEM_50
 10
95.758430000000004
 20
71.870852999999997
 30
0.0
 11
93.508122999999983
 21
69.62054599999999
 31
0.0
  0
ARC
  5
55
  8
ITEM_50
 10
95.169824000000006
 20
72.459453999999994
 30
0.0
 40
0.832412
 50
315.000201
 51
0.0
  0
ARC
  5
56
  8
ITEM_50
 10
95.169824000000006
 20
72.459453999999994
 30
0.0
 40
0.832412
 50
0.0
 51
90.000197999999997
  0
LINE
  5
57
  8
ITEM_50
 10
95.169826999999984
 20
73.291865999999985
 30
0.0
 11
93.052235999999994
 21
73.291865999999985
 31
0.0
  0
LINE
  5
58
  8
ITEM_50
 10
95.169826999999984
 20
73.291865999999985
 30
0.0
 11
93.052235999999994
 21
73.291865999999985
 31
0.0
  0
ARC
  5
59
  8
ITEM_50
 10
95.169824000000006
 20
72.459453999999994
 30
0.0
 40
0.832412
 50
0.0
 51
90.000197999999997
  0
ARC
  5
5A
  8
ITEM_50
 10
95.169824000000006
 20
72.459453999999994
 30
0.0
 40
0.832412
 50
315.000201
 51
0.0
  0
LINE
  5
5B
  8
ITEM_50
 10
95.758430000000004
 20
71.870852999999997
 30
0.0
 11
93.508122999999983
 21
69.62054599999999
 31
0.0
  0
ARC
  5
5C
  8
ITEM_50
 10
91.386803
 20
71.741866000000002
 30
0.0
 40
3.0
 50
270.0
 51
315.0
  0
LINE
  5
5D
  8
ITEM_50
 10
91.386803
 20
68.741866000000002
 30
0.0
 11
90.252235999999996
 21
68.741866000000002
 31
0.0
  0
LINE
  5
5E
  8
ITEM_50
 10
89.117668999999992
 20
68.741866000000002
 30
0.0
 11
90.252235999999996
 21
68.741866000000002
 31
0.0
  0
ARC
  5
5F
  8
ITEM_50
 10
85.334647000000004
 20
72.459453999999994
 30
0.0
 40
0.832412
 50
180.0
 51
224.999799
  0
ARC
  5
60
  8
ITEM_50
 10
85.334647000000004
 20
72.459453999999994
 30
0.0
 40
0.832412
 50
89.999802000000017
 51
180.0
  0
LINE
  5
61
  8
ITEM_50
 10
84.746041000000005
 20
71.870852999999997
 30
0.0
 11
86.996347999999998
 21
69.62054599999999
 31
0.0
  0
ARC
  5
62
  8
ITEM_50
 10
89.117668999999992
 20
71.741866000000002
 30
0.0
 40
3.0
 50
225.0
 51
270.0
  0
ARC
  5
63
  8
ITEM_50
 10
93.052235999999994
 20
73.59186600000001
 30
0.0
 40
0.3
 50
180.0
 51
270.0
  0
ARC
  5
64
  8
ITEM_50
 10
87.452235999999999
 20
73.59186600000001
 30
0.0
 40
0.3
 50
270.0
 51
0.0
  0
LINE
  5
65
  8
ITEM_50
 10
87.752235999999996
 20
73.59186600000001
 30
0.0
 11
87.752235999999996
 21
74.291865999999999
 31
0.0
  0
LINE
  5
66
  8
ITEM_50
 10
85.334644999999995
 20
73.291865999999985
 30
0.0
 11
87.452235999999999
 21
73.291865999999985
 31
0.0
  0
LINE
  5
67
  8
ITEM_50
 10
92.752235999999996
 20
74.291865999999999
 30
0.0
 11
92.752235999999996
 21
73.59186600000001
 31
0.0
  0
LINE
  5
68
  8
ITEM_50
 10
82.252235999999996
 20
75.09186600000001
 30
0.0
 11
86.952235999999999
 21
75.09186600000001
 31
0.0
  0
LINE
  5
69
  8
ITEM_50
 10
93.552235999999994
 20
75.09186600000001
 30
0.0
 11
98.252236000000011
 21
75.09186600000001
 31
0.0
  0
ARC
  5
6A
  8
ITEM_50
 10
93.552235999999994
 20
74.291865999999999
 30
0.0
 40
0.8
 50
90.0
 51
180.0
  0
ARC
  5
6B
  8
ITEM_50
 10
86.952235999999999
 20
74.291865999999999
 30
0.0
 40
0.8
 50
0.0
 51
90.0
  0
LINE
  5
6C
  8
ITEM_50
 10
80.252235999999996
 20
84.146948999999978
 30
0.0
 11
100.252236
 21
84.146948999999978
 31
0.0
  0
LINE
  5
6D
  8
ITEM_50
 10
113.597758
 20
75.09186600000001
 30
0.0
 11
113.597758
 21
65.09186600000001
 31
0.0
  0
LINE
  5
6E
  8
ITEM_50
 10
80.252235999999996
 20
54.229940999999997
 30
0.0
 11
100.252236
 21
54.229940999999997
 31
0.0
  0
LINE
  5
6F
  8
ITEM_50
 10
100.252236
 20
24.229941
 30
0.0
 11
100.252236
 21
54.229940999999997
 31
0.0
  0
LINE
  5
70
  8
ITEM_50
 10
80.252235999999996
 20
24.229941
 30
0.0
 11
80.252235999999996
 21
54.229940999999997
 31
0.0
  0
LINE
  5
77
  8
ITEM_50
 10
80.252235999999996
 20
114.14694900000001
 30
0.0
 11
100.252236
 21
114.14694900000001
 31
0.0
  0
LINE
  5
78
  8
ITEM_50
 10
143.597758
 20
75.09186600000001
 30
0.0
 11
143.597758
 21
65.09186600000001
 31
0.0
  0
LINE
  5
79
  8
ITEM_50
 10
80.252235999999996
 20
24.229941
 30
0.0
 11
100.252236
 21
24.229941
 31
0.0
  0
LINE
  5
7A
  8
0
 10
113.597758
 20
65.09186600000001
 30
0.0
 11
143.597758
 21
65.09186600000001
 31
0.0
  0
LINE
  5
7B
  8
0
 10
113.597758
 20
75.09186600000001
 30
0.0
 11
143.597758
 21
75.09186600000001
 31
0.0
  0
LINE
  5
7C
  8
0
 10
100.252236
 20
114.14694900000001
 30
0.0
 11
100.252236
 21
84.146948999999978
 31
0.0
  0
LINE
  5
7D
  8
0
 10
80.252235999999996
 20
114.14694900000001
 30
0.0
 11
80.252235999999996
 21
84.146948999999978
 31
0.0
  0
LINE
  5
7E
  8
0
 10
87.752235999999996
 20
84.146948999999978
 30
0.0
 11
87.752235999999996
 21
114.14694900000001
 31
0.0
  0
LINE
  5
7F
  8
0
 10
92.752235999999996
 20
84.146948999999978
 30
0.0
 11
92.752235999999996
 21
114.14694900000001
 31
0.0
  0
LINE
  5
80
  8
1
 10
83.752235999999996
 20
73.241866000000002
 30
0.0
 11
83.752235999999996
 21
63.941866000000012
 31
0.0
  0
LINE
  5
81
  8
1
 10
88.402235999999988
 20
68.59186600000001
 30
0.0
 11
79.102236000000005
 21
68.59186600000001
 31
0.0
  0
LINE
  5
82
  8
1
 10
96.752235999999996
 20
73.241866000000002
 30
0.0
 11
96.752235999999996
 21
63.941866000000012
 31
0.0
  0
LINE
  5
83
  8
1
 10
101.402236
 20
68.59186600000001
 30
0.0
 11
92.102236000000005
 21
68.59186600000001
 31
0.0
  0
LINE
  5
84
  8
1
 10
90.252235999999996
 20
62.091866000000003
 30
0.0
 11
90.252235999999996
 21
78.046244999999999
 31
0.0
  0
LINE
  5
85
  8
0
 10
66.906712999999996
 20
75.09186600000001
 30
0.0
 11
36.906713000000003
 21
75.09186600000001
 31
0.0
  0
LINE
  5
86
  8
0
 10
66.906712999999996
 20
65.09186600000001
 30
0.0
 11
36.906713000000003
 21
65.09186600000001
 31
0.0
  0
LINE
  5
87
  8
ITEM_50
 10
36.906713000000003
 20
75.09186600000001
 30
0.0
 11
36.906713000000003
 21
65.09186600000001
 31
0.0
  0
LINE
  5
88
  8
ITEM_50
 10
66.906712999999996
 20
75.09186600000001
 30
0.0
 11
66.906712999999996
 21
65.09186600000001
 31
0.0
  0
TEXT
  5
17D
  8
0
 62
     3
 10
0.0
 20
0.0
 30
0.0
 40
10.0
  1
L5-SPH2010N-3M
  7
STANDARD1
  0
ENDSEC
  0
EOF
