  0
SECTION
  2
HEADER
  9
$ACADVER
  1
AC1009
  9
$INSBASE
 10
0.0
 20
0.0
 30
0.0
  9
$EXTMIN
 10
0.0
 20
-2.960436562073669
 30
0.0
  9
$EXTMAX
 10
153.6217285700321
 20
87.456417026118956
 30
0.0
  9
$LIMMIN
 10
0.0
 20
0.0
  9
$LIMMAX
 10
187.5
 20
135.0
  9
$ORTHOMODE
 70
     1
  9
$REGENMODE
 70
     1
  9
$FILLMODE
 70
     1
  9
$QTEXTMODE
 70
     0
  9
$MIRRTEXT
 70
     0
  9
$DRAGMODE
 70
     2
  9
$LTSCALE
 40
5.0
  9
$OSMODE
 70
  3071
  9
$ATTMODE
 70
     1
  9
$TEXTSIZE
 40
5.0
  9
$TRACEWID
 40
0.05
  9
$TEXTSTYLE
  7
STANDARD
  9
$CLAYER
  8
0
  9
$CELTYPE
  6
BYLAYER
  9
$CECOLOR
 62
   256
  9
$DIMSCALE
 40
0.5
  9
$DIMASZ
 40
3.0
  9
$DIMEXO
 40
2.0
  9
$DIMDLI
 40
0.38
  9
$DIMRND
 40
0.0
  9
$DIMDLE
 40
0.0
  9
$DIMEXE
 40
2.0
  9
$DIMTP
 40
0.0
  9
$DIMTM
 40
0.0
  9
$DIMTXT
 40
3.2000000000000002
  9
$DIMCEN
 40
0.0
  9
$DIMTSZ
 40
0.0
  9
$DIMTOL
 70
     0
  9
$DIMLIM
 70
     0
  9
$DIMTIH
 70
     0
  9
$DIMTOH
 70
     0
  9
$DIMSE1
 70
     0
  9
$DIMSE2
 70
     0
  9
$DIMTAD
 70
     1
  9
$DIMZIN
 70
     0
  9
$DIMBLK
  1

  9
$DIMASO
 70
     0
  9
$DIMSHO
 70
     0
  9
$DIMPOST
  1

  9
$DIMAPOST
  1

  9
$DIMALT
 70
     0
  9
$DIMALTD
 70
     2
  9
$DIMALTF
 40
25.399999999999999
  9
$DIMLFAC
 40
1.0
  9
$DIMTOFL
 70
     1
  9
$DIMTVP
 40
1.6000000000000001
  9
$DIMTIX
 70
     1
  9
$DIMSOXD
 70
     0
  9
$DIMSAH
 70
     0
  9
$DIMBLK1
  1

  9
$DIMBLK2
  1

  9
$DIMSTYLE
  2
STANDARD
  9
$DIMCLRD
 70
     0
  9
$DIMCLRE
 70
     0
  9
$DIMCLRT
 70
     0
  9
$DIMTFAC
 40
1.0
  9
$DIMGAP
 40
0.09
  9
$LUNITS
 70
     2
  9
$LUPREC
 70
     4
  9
$SKETCHINC
 40
0.1
  9
$FILLETRAD
 40
0.5
  9
$AUNITS
 70
     0
  9
$AUPREC
 70
     4
  9
$MENU
  1
E:\r13\win\SUPPORT\ACAD
  9
$ELEVATION
 40
0.0
  9
$PELEVATION
 40
0.0
  9
$THICKNESS
 40
0.0
  9
$LIMCHECK
 70
     0
  9
$BLIPMODE
 70
     0
  9
$CHAMFERA
 40
0.0
  9
$CHAMFERB
 40
0.0
  9
$SKPOLY
 70
     0
  9
$TDCREATE
 40
2449840.6520486111
  9
$TDUPDATE
 40
2456597.5469038892
  9
$TDINDWG
 40
0.0000902894
  9
$TDUSRTIMER
 40
0.0000902894
  9
$USRTIMER
 70
     1
  9
$ANGBASE
 50
0.0
  9
$ANGDIR
 70
     0
  9
$PDMODE
 70
     0
  9
$PDSIZE
 40
0.0
  9
$PLINEWID
 40
0.0
  9
$COORDS
 70
     1
  9
$SPLFRAME
 70
     0
  9
$SPLINETYPE
 70
     6
  9
$SPLINESEGS
 70
     8
  9
$ATTDIA
 70
     0
  9
$ATTREQ
 70
     1
  9
$HANDLING
 70
     1
  9
$HANDSEED
  5
20A
  9
$SURFTAB1
 70
     6
  9
$SURFTAB2
 70
     6
  9
$SURFTYPE
 70
     6
  9
$SURFU
 70
     6
  9
$SURFV
 70
     6
  9
$UCSNAME
  2

  9
$UCSORG
 10
0.0
 20
0.0
 30
0.0
  9
$UCSXDIR
 10
1.0
 20
0.0
 30
0.0
  9
$UCSYDIR
 10
0.0
 20
1.0
 30
0.0
  9
$PUCSNAME
  2

  9
$PUCSORG
 10
0.0
 20
0.0
 30
0.0
  9
$PUCSXDIR
 10
1.0
 20
0.0
 30
0.0
  9
$PUCSYDIR
 10
0.0
 20
1.0
 30
0.0
  9
$USERI1
 70
     0
  9
$USERI2
 70
     1
  9
$USERI3
 70
     0
  9
$USERI4
 70
     0
  9
$USERI5
 70
     0
  9
$USERR1
 40
0.0
  9
$USERR2
 40
0.0
  9
$USERR3
 40
0.0
  9
$USERR4
 40
0.0
  9
$USERR5
 40
0.0
  9
$WORLDVIEW
 70
     1
  9
$SHADEDGE
 70
     3
  9
$SHADEDIF
 70
    70
  9
$TILEMODE
 70
     1
  9
$MAXACTVP
 70
    16
  9
$PLIMCHECK
 70
     0
  9
$PEXTMIN
 10
1.0000000000000000E+020
 20
1.0000000000000000E+020
 30
1.0000000000000000E+020
  9
$PEXTMAX
 10
-1.0000000000000000E+020
 20
-1.0000000000000000E+020
 30
-1.0000000000000000E+020
  9
$PLIMMIN
 10
0.0
 20
0.0
  9
$PLIMMAX
 10
12.0
 20
9.0
  9
$UNITMODE
 70
     0
  9
$VISRETAIN
 70
     0
  9
$PLINEGEN
 70
     0
  9
$PSLTSCALE
 70
     0
  0
ENDSEC
  0
SECTION
  2
TABLES
  0
TABLE
  2
VPORT
 70
     1
  0
VPORT
  2
*ACTIVE
 70
     0
 10
0.0
 20
0.0
 11
1.0
 21
1.0
 12
93.74713919532617
 22
80.848703909439024
 13
0.0
 23
0.0
 14
5.0
 24
5.0
 15
5.0
 25
5.0
 16
0.0
 26
0.0
 36
1.0
 17
0.0
 27
0.0
 37
0.0
 40
169.22413112104309
 41
1.9089595375722539
 42
50.0
 43
0.0
 44
0.0
 50
0.0
 51
0.0
 71
     0
 72
   500
 73
     1
 74
     0
 75
     0
 76
     0
 77
     0
 78
     2
  0
ENDTAB
  0
TABLE
  2
LTYPE
 70
     3
  0
LTYPE
  2
CONTINUOUS
 70
     0
  3
Solid Line
 72
    65
 73
     0
 40
0.0
  0
LTYPE
  2
CENTER
 70
     0
  3
____ _ ____ _ ____ _ ____ _ ____ _ ____ _ ____
 72
    65
 73
     4
 40
2.0
 49
1.25
 49
-0.25
 49
0.25
 49
-0.25
  0
LTYPE
  2
PHANTOM2
 70
     0
  3
___ _ _ ___ _ _ ___ _ _ ___ _ _
 72
    65
 73
     6
 40
1.25
 49
0.625
 49
-0.125
 49
0.125
 49
-0.125
 49
0.125
 49
-0.125
  0
ENDTAB
  0
TABLE
  2
LAYER
 70
     2
  0
LAYER
  2
0
 70
     0
 62
     7
  6
CONTINUOUS
  0
LAYER
  2
1
 70
     0
 62
     1
  6
CENTER
  0
ENDTAB
  0
TABLE
  2
STYLE
 70
     2
  0
STYLE
  2
STANDARD
 70
     0
 40
0.0
 41
1.0
 50
0.0
 71
     0
 42
5.0
  3
TXT
  4
BIGFONT
  0
STYLE
  2
STANDARD1
 70
     0
 40
0.0
 41
1.0
 50
0.0
 71
     0
 42
3.0
  3
txt
  4

  0
ENDTAB
  0
TABLE
  2
VIEW
 70
     1
  0
VIEW
  2
ALL
 70
     0
 40
182.15758409406189
 10
149.09368647698849
 20
91.078792047030987
 41
0.0
 11
0.0
 21
0.0
 31
1.0
 12
0.0
 22
0.0
 32
0.0
 42
0.0
 43
0.0
 44
0.0
 50
0.0
 71
     0
  0
ENDTAB
  0
TABLE
  2
UCS
 70
     0
  0
ENDTAB
  0
TABLE
  2
APPID
 70
     3
  0
APPID
  2
ACAD
 70
     0
  0
APPID
  2
ACAD_MLEADERVER
 70
     0
  0
APPID
  2
ACAD_NAV_VCDISPLAY
 70
     0
  0
ENDTAB
  0
TABLE
  2
DIMSTYLE
 70
     1
  0
DIMSTYLE
  2
STANDARD
 70
     0
  3

  4

  5

  6

  7

 40
1.0
 41
0.18
 42
0.0625
 43
0.38
 44
0.18
 45
0.0
 46
0.0
 47
0.0
 48
0.0
140
0.18
141
0.09
142
0.0
143
25.399999999999999
144
1.0
145
0.0
146
1.0
147
0.09
 71
     0
 72
     0
 73
     1
 74
     1
 75
     0
 76
     0
 77
     0
 78
     0
170
     0
171
     2
172
     0
173
     0
174
     0
175
     0
176
     0
177
     0
178
     0
  0
ENDTAB
  0
ENDSEC
  0
SECTION
  2
BLOCKS
  0
BLOCK
  8
0
  2
$MODEL_SPACE
 70
     0
 10
0.0
 20
0.0
 30
0.0
  3
$MODEL_SPACE
  1

  0
ENDBLK
  5
C0
  8
0
  0
BLOCK
 67
     1
  8
0
  2
$PAPER_SPACE
 70
     0
 10
0.0
 20
0.0
 30
0.0
  3
$PAPER_SPACE
  1

  0
ENDBLK
  5
BE
 67
     1
  8
0
  0
ENDSEC
  0
SECTION
  2
ENTITIES
  0
LINE
  5
34
  8
1
 10
65.852706576617678
 20
72.456417026118956
 30
0.0
 11
35.852706576617678
 21
72.456417026118956
 31
0.0
  0
LINE
  5
35
  8
1
 10
50.852706576617692
 20
87.456417026118956
 30
0.0
 11
50.852706576617678
 21
57.456417026118913
 31
0.0
  0
LINE
  5
36
  8
0
 10
98.62172857003209
 20
62.456417026118913
 30
0.0
 11
148.6217285700321
 21
62.456417026118928
 31
0.0
  0
LINE
  5
37
  8
0
 10
98.62172857003209
 20
82.456417026118942
 30
0.0
 11
148.6217285700321
 21
82.456417026118956
 31
0.0
  0
LINE
  5
38
  8
0
 10
98.62172857003209
 20
82.456417026118928
 30
0.0
 11
98.62172857003209
 21
62.456417026118928
 31
0.0
  0
LINE
  5
39
  8
1
 10
93.621728570032147
 20
72.456417026118956
 30
0.0
 11
153.6217285700321
 21
72.456417026118956
 31
0.0
  0
LINE
  5
3A
  8
0
 10
148.6217285700321
 20
82.456417026118956
 30
0.0
 11
148.6217285700321
 21
62.456417026118949
 31
0.0
  0
LINE
  5
3B
  8
0
 10
98.62172857003209
 20
74.956417026118942
 30
0.0
 11
148.6217285700321
 21
74.956417026118942
 31
0.0
  0
LINE
  5
3C
  8
0
 10
98.62172857003209
 20
69.956417026118928
 30
0.0
 11
148.6217285700321
 21
69.956417026118942
 31
0.0
  0
ARC
  5
3D
  8
0
 10
59.352706576617663
 20
75.256417026118939
 30
0.0
 40
0.3
 50
180.0
 51
269.99999999999829
  0
ARC
  5
3E
  8
0
 10
59.352706576617692
 20
69.656417026118902
 30
0.0
 40
0.3
 50
90.0
 51
179.9999999999996
  0
ARC
  5
3F
  8
0
 10
53.652706576617689
 20
63.956417026118913
 30
0.0
 40
0.3
 50
90.0
 51
180.00000000000071
  0
ARC
  5
40
  8
0
 10
48.052706576617688
 20
63.956417026118913
 30
0.0
 40
0.3
 50
0.0000000000008142
 51
90.0
  0
ARC
  5
41
  8
0
 10
42.352706576617713
 20
69.656417026118902
 30
0.0
 40
0.3
 50
359.9999999999996
 51
90.000000000001577
  0
ARC
  5
42
  8
0
 10
42.352706576617713
 20
75.256417026118939
 30
0.0
 40
0.3
 50
270.0
 51
0.0
  0
ARC
  5
43
  8
0
 10
48.052706576617709
 20
80.956417026118913
 30
0.0
 40
0.3
 50
270.0
 51
359.9999999999992
  0
ARC
  5
44
  8
0
 10
53.652706576617689
 20
80.956417026118899
 30
0.0
 40
0.3
 50
180.0
 51
270.00000000000028
  0
ARC
  5
45
  8
0
 10
54.152706576617689
 20
81.65641702611893
 30
0.0
 40
0.8
 50
90.000000000000156
 51
180.0000000000004
  0
ARC
  5
46
  8
0
 10
47.552706576617702
 20
81.65641702611893
 30
0.0
 40
0.8
 50
0.0
 51
90.0
  0
ARC
  5
47
  8
0
 10
41.652706576617689
 20
75.756417026118939
 30
0.0
 40
0.8
 50
180.0
 51
269.99999999999989
  0
ARC
  5
48
  8
0
 10
41.652706576617703
 20
69.156417026118902
 30
0.0
 40
0.8
 50
90.000000000001364
 51
179.99999999999989
  0
ARC
  5
49
  8
0
 10
47.552706576617702
 20
63.25641702611891
 30
0.0
 40
0.8
 50
270.0
 51
0.0000000000004453
  0
ARC
  5
4A
  8
0
 10
54.152706576617703
 20
63.256417026118932
 30
0.0
 40
0.8
 50
180.0
 51
269.99999999999989
  0
ARC
  5
4B
  8
0
 10
60.052706576617709
 20
69.156417026118916
 30
0.0
 40
0.8
 50
0.0
 51
90.000000000000398
  0
ARC
  5
4C
  8
0
 10
60.052706576617688
 20
75.75641702611891
 30
0.0
 40
0.8
 50
269.99999999999909
 51
0.0
  0
ARC
  5
4D
  8
0
 10
57.502706576617719
 20
73.661694810982567
 30
0.0
 40
3.0
 50
135.0
 51
179.99999999999929
  0
ARC
  5
4E
  8
0
 10
57.50270657661769
 20
71.25113924125526
 30
0.0
 40
3.0
 50
179.9999999999996
 51
225.00000000000031
  0
ARC
  5
4F
  8
0
 10
52.057984361481267
 20
65.806417026118936
 30
0.0
 40
3.0
 50
44.999999999999837
 51
90.0
  0
ARC
  5
50
  8
0
 10
49.647428791754102
 20
65.806417026118908
 30
0.0
 40
3.0
 50
90.0
 51
135.00000000000011
  0
ARC
  5
51
  8
0
 10
44.202706576617643
 20
71.251139241255274
 30
0.0
 40
3.0
 50
314.99999999999989
 51
359.99999999999972
  0
ARC
  5
52
  8
0
 10
44.202706576617672
 20
73.661694810982567
 30
0.0
 40
3.0
 50
359.99999999999977
 51
45.0
  0
ARC
  5
53
  8
0
 10
49.647428791754081
 20
79.106417026118976
 30
0.0
 40
3.0
 50
225.00000000000011
 51
269.99999999999949
  0
ARC
  5
54
  8
0
 10
52.057984361481303
 20
79.106417026118933
 30
0.0
 40
3.0
 50
269.99999999999977
 51
314.99999999999989
  0
LINE
  5
55
  8
0
 10
60.052706576617709
 20
69.956417026118913
 30
0.0
 11
59.352706576617692
 21
69.956417026118899
 31
0.0
  0
ARC
  5
56
  8
0
 10
58.170294962710642
 20
67.588828640025952
 30
0.0
 40
0.8824116139070241
 50
225.0
 51
359.99999999999909
  0
LINE
  5
57
  8
0
 10
55.381386233058059
 20
69.1298188976956
 30
0.0
 11
57.546337075418343
 21
66.964868055335387
 31
0.0
  0
LINE
  5
58
  8
0
 10
59.052706576617702
 20
69.656417026118902
 30
0.0
 11
59.05270657661768
 21
67.588828640025952
 31
0.0
  0
ARC
  5
59
  8
0
 10
58.852706576617692
 20
64.456417026118913
 30
0.0
 40
2.0
 50
270.0
 51
360.0
  0
LINE
  5
5A
  8
0
 10
53.652706576617689
 20
64.25641702611891
 30
0.0
 11
55.720294962710653
 21
64.25641702611891
 31
0.0
  0
LINE
  5
5B
  8
0
 10
54.17930470504092
 20
67.927737369678553
 30
0.0
 11
56.344255547401218
 21
65.762786527318255
 31
0.0
  0
ARC
  5
5C
  8
0
 10
55.720294962710653
 20
65.138828640025963
 30
0.0
 40
0.8824116139070241
 50
270.00000000000091
 51
45.000000000000028
  0
LINE
  5
5D
  8
0
 10
52.057984361481267
 20
68.806417026118936
 30
0.0
 11
49.647428791754102
 21
68.806417026118908
 31
0.0
  0
LINE
  5
5E
  8
0
 10
53.352706576617699
 20
63.256417026118932
 30
0.0
 11
53.352706576617692
 21
63.956417026118913
 31
0.0
  0
LINE
  5
5F
  8
0
 10
60.05270657661768
 20
74.956417026118913
 30
0.0
 11
59.352706576617649
 21
74.956417026118942
 31
0.0
  0
LINE
  5
60
  8
0
 10
54.502706576617719
 20
73.661694810982596
 30
0.0
 11
54.502706576617697
 21
71.251139241255274
 31
0.0
  0
ARC
  5
61
  8
0
 10
58.170294962710642
 20
77.324005412211903
 30
0.0
 40
0.8824116139070241
 50
0.0000000000009287
 51
135.0
  0
LINE
  5
62
  8
0
 10
55.38138623305808
 20
75.783015154542213
 30
0.0
 11
57.546337075418343
 21
77.947965996902468
 31
0.0
  0
LINE
  5
63
  8
0
 10
59.052706576617659
 20
75.256417026118939
 30
0.0
 11
59.05270657661768
 21
77.324005412211903
 31
0.0
  0
ARC
  5
64
  8
0
 10
58.852706576617692
 20
80.456417026118928
 30
0.0
 40
2.0
 50
0.0
 51
90.0
  0
LINE
  5
65
  8
0
 10
53.652706576617689
 20
80.656417026118916
 30
0.0
 11
55.720294962710653
 21
80.65641702611893
 31
0.0
  0
LINE
  5
66
  8
0
 10
54.179304705040948
 20
76.985096682559302
 30
0.0
 11
56.344255547401218
 21
79.150047524919586
 31
0.0
  0
ARC
  5
67
  8
0
 10
55.720294962710653
 20
79.774005412211892
 30
0.0
 40
0.8824116139070241
 50
315.0
 51
89.999999999999091
  0
LINE
  5
68
  8
0
 10
52.057984361481282
 20
76.106417026118947
 30
0.0
 11
49.647428791754052
 21
76.106417026118976
 31
0.0
  0
LINE
  5
69
  8
0
 10
53.352706576617692
 20
81.65641702611893
 30
0.0
 11
53.352706576617692
 21
80.956417026118899
 31
0.0
  0
CIRCLE
  5
6A
  8
0
 10
50.852706576617692
 20
72.456417026118942
 30
0.0
 40
2.149999999999999
  0
LINE
  5
6B
  8
0
 10
48.352706576617699
 20
81.65641702611893
 30
0.0
 11
48.352706576617699
 21
80.956417026118913
 31
0.0
  0
ARC
  5
6C
  8
0
 10
45.98511819052473
 20
79.774005412211892
 30
0.0
 40
0.8824116139070241
 50
90.000000000000895
 51
225.0
  0
LINE
  5
6D
  8
0
 10
47.526108448194449
 20
76.98509668255933
 30
0.0
 11
45.361157605834158
 21
79.150047524919586
 31
0.0
  0
LINE
  5
6E
  8
0
 10
48.052706576617709
 20
80.65641702611893
 30
0.0
 11
45.98511819052473
 21
80.65641702611893
 31
0.0
  0
ARC
  5
6F
  8
0
 10
42.852706576617692
 20
80.456417026118928
 30
0.0
 40
2.0
 50
90.0
 51
180.0
  0
LINE
  5
70
  8
0
 10
42.652706576617703
 20
75.256417026118939
 30
0.0
 11
42.652706576617703
 21
77.324005412211903
 31
0.0
  0
LINE
  5
71
  8
0
 10
46.32402692017731
 20
75.783015154542213
 30
0.0
 11
44.159076077817041
 21
77.947965996902468
 31
0.0
  0
ARC
  5
72
  8
0
 10
43.535118190524727
 20
77.324005412211903
 30
0.0
 40
0.8824116139070241
 50
44.999999999999972
 51
179.99999999999909
  0
LINE
  5
73
  8
0
 10
47.202706576617672
 20
73.661694810982553
 30
0.0
 11
47.202706576617643
 21
71.251139241255274
 31
0.0
  0
LINE
  5
74
  8
0
 10
41.652706576617689
 20
74.956417026118942
 30
0.0
 11
42.352706576617713
 21
74.956417026118942
 31
0.0
  0
LINE
  5
75
  8
0
 10
48.352706576617699
 20
63.25641702611891
 30
0.0
 11
48.352706576617692
 21
63.956417026118913
 31
0.0
  0
ARC
  5
76
  8
0
 10
45.98511819052473
 20
65.138828640025963
 30
0.0
 40
0.8824116139070241
 50
134.99999999999989
 51
269.99999999999909
  0
LINE
  5
77
  8
0
 10
47.526108448194449
 20
67.927737369678539
 30
0.0
 11
45.361157605834158
 21
65.762786527318255
 31
0.0
  0
LINE
  5
78
  8
0
 10
48.052706576617688
 20
64.25641702611891
 30
0.0
 11
45.98511819052473
 21
64.25641702611891
 31
0.0
  0
ARC
  5
79
  8
0
 10
42.852706576617692
 20
64.456417026118913
 30
0.0
 40
2.0
 50
180.0
 51
270.0
  0
LINE
  5
7A
  8
0
 10
42.652706576617703
 20
69.656417026118902
 30
0.0
 11
42.652706576617703
 21
67.588828640025952
 31
0.0
  0
LINE
  5
7B
  8
0
 10
46.324026920177289
 20
69.129818897695642
 30
0.0
 11
44.159076077817041
 21
66.964868055335387
 31
0.0
  0
ARC
  5
7C
  8
0
 10
43.535118190524727
 20
67.588828640025952
 30
0.0
 40
0.8824116139070241
 50
180.00000000000091
 51
315.0
  0
LINE
  5
7D
  8
0
 10
41.652706576617689
 20
69.956417026118899
 30
0.0
 11
42.352706576617692
 21
69.956417026118899
 31
0.0
  0
LINE
  5
7E
  8
0
 10
42.852706576617692
 20
82.456417026118942
 30
0.0
 11
47.552706576617702
 21
82.456417026118928
 31
0.0
  0
LINE
  5
7F
  8
0
 10
58.852706576617692
 20
82.456417026118942
 30
0.0
 11
54.152706576617689
 21
82.456417026118928
 31
0.0
  0
LINE
  5
80
  8
0
 10
42.852706576617692
 20
62.456417026118913
 30
0.0
 11
47.552706576617702
 21
62.456417026118913
 31
0.0
  0
LINE
  5
81
  8
0
 10
54.152706576617703
 20
62.456417026118928
 30
0.0
 11
58.852706576617692
 21
62.456417026118928
 31
0.0
  0
LINE
  5
82
  8
0
 10
40.852706576617692
 20
80.456417026118928
 30
0.0
 11
40.852706576617692
 21
75.756417026118939
 31
0.0
  0
LINE
  5
83
  8
0
 10
40.852706576617699
 20
69.156417026118902
 30
0.0
 11
40.852706576617692
 21
64.456417026118913
 31
0.0
  0
LINE
  5
84
  8
0
 10
60.852706576617692
 20
80.456417026118928
 30
0.0
 11
60.852706576617692
 21
75.75641702611891
 31
0.0
  0
LINE
  5
85
  8
0
 10
60.852706576617699
 20
69.156417026118916
 30
0.0
 11
60.852706576617692
 21
64.456417026118913
 31
0.0
  0
TEXT
  5
179
  8
0
 62
     3
 10
0.0
 20
0.0
 30
0.0
 40
10.0
  1
L5-SPH2020B-3M
  7
STANDARD1
  0
ENDSEC
  0
EOF
